 0
SECTION
 2
HEADER
 9
$ACADVER
 1
AC1009
 0
ENDSEC
 0
SECTION
 2
ENTITIES
 0
POLYLINE
 8
TITLE
 66
1
 70
1
 10
0.0
 20
0.0
 30
0.0
 0
VERTEX
 8
TITLE
 10
 -0.1000
 20
  0.1000
 30
0.0
 0
VERTEX
 8
TITLE
 10
 15.1000
 20
  0.1000
 30
0.0
 0
VERTEX
 8
TITLE
 10
 15.1000
 20
  9.8000
 30
0.0
 0
VERTEX
 8
TITLE
 10
 -0.1000
 20
  9.8000
 30
0.0
 0
SEQEND
 8
TITLE
 0
POLYLINE
 8
TITLE
 66
1
 70
1
 10
0.0
 20
0.0
 30
0.0
 0
VERTEX
 8
TITLE
 10
  0.0000
 20
  0.2000
 30
0.0
 0
VERTEX
 8
TITLE
 10
 15.0000
 20
  0.2000
 30
0.0
 0
VERTEX
 8
TITLE
 10
 15.0000
 20
  9.7000
 30
0.0
 0
VERTEX
 8
TITLE
 10
  0.0000
 20
  9.7000
 30
0.0
 0
SEQEND
 8
TITLE
 0
POLYLINE
 8
TITLE
 66
1
 10
0.0
 20
0.0
 30
0.0
 0
VERTEX
 8
TITLE
 10
  2.0500
 20
  0.2000
 30
0.0
 0
VERTEX
 8
TITLE
 10
  2.0500
 20
  0.1000
 30
0.0
 0
SEQEND
 8
TITLE
 0
POLYLINE
 8
TITLE
 66
1
 10
0.0
 20
0.0
 30
0.0
 0
VERTEX
 8
TITLE
 10
  2.0500
 20
  9.7000
 30
0.0
 0
VERTEX
 8
TITLE
 10
  2.0500
 20
  9.8000
 30
0.0
 0
SEQEND
 8
TITLE
 0
SOLID
 8
TITLE
 10
  7.6000
 20
  0.2000
 30
0.0
 11
  7.5800
 21
  0.1500
 31
0.0
 12
  7.6200
 22
  0.1500
 32
0.0
 13
  7.6000
 23
  0.1500
 33
0.0
 0
SOLID
 8
TITLE
 10
  7.6000
 20
  9.7000
 30
0.0
 11
  7.5800
 21
  9.7500
 31
0.0
 12
  7.6200
 22
  9.7500
 32
0.0
 13
  7.6000
 23
  9.7500
 33
0.0
 0
POLYLINE
 8
TITLE
 66
1
 10
0.0
 20
0.0
 30
0.0
 0
VERTEX
 8
TITLE
 10
  3.9000
 20
  0.2000
 30
0.0
 0
VERTEX
 8
TITLE
 10
  3.9000
 20
  0.1000
 30
0.0
 0
SEQEND
 8
TITLE
 0
POLYLINE
 8
TITLE
 66
1
 10
0.0
 20
0.0
 30
0.0
 0
VERTEX
 8
TITLE
 10
  3.9000
 20
  9.7000
 30
0.0
 0
VERTEX
 8
TITLE
 10
  3.9000
 20
  9.8000
 30
0.0
 0
SEQEND
 8
TITLE
 0
SOLID
 8
TITLE
 10
  7.6000
 20
  0.2000
 30
0.0
 11
  7.5800
 21
  0.1500
 31
0.0
 12
  7.6200
 22
  0.1500
 32
0.0
 13
  7.6000
 23
  0.1500
 33
0.0
 0
SOLID
 8
TITLE
 10
  7.6000
 20
  9.7000
 30
0.0
 11
  7.5800
 21
  9.7500
 31
0.0
 12
  7.6200
 22
  9.7500
 32
0.0
 13
  7.6000
 23
  9.7500
 33
0.0
 0
POLYLINE
 8
TITLE
 66
1
 10
0.0
 20
0.0
 30
0.0
 0
VERTEX
 8
TITLE
 10
  5.7500
 20
  0.2000
 30
0.0
 0
VERTEX
 8
TITLE
 10
  5.7500
 20
  0.1000
 30
0.0
 0
SEQEND
 8
TITLE
 0
POLYLINE
 8
TITLE
 66
1
 10
0.0
 20
0.0
 30
0.0
 0
VERTEX
 8
TITLE
 10
  5.7500
 20
  9.7000
 30
0.0
 0
VERTEX
 8
TITLE
 10
  5.7500
 20
  9.8000
 30
0.0
 0
SEQEND
 8
TITLE
 0
SOLID
 8
TITLE
 10
  7.6000
 20
  0.2000
 30
0.0
 11
  7.5800
 21
  0.1500
 31
0.0
 12
  7.6200
 22
  0.1500
 32
0.0
 13
  7.6000
 23
  0.1500
 33
0.0
 0
SOLID
 8
TITLE
 10
  7.6000
 20
  9.7000
 30
0.0
 11
  7.5800
 21
  9.7500
 31
0.0
 12
  7.6200
 22
  9.7500
 32
0.0
 13
  7.6000
 23
  9.7500
 33
0.0
 0
POLYLINE
 8
TITLE
 66
1
 10
0.0
 20
0.0
 30
0.0
 0
VERTEX
 8
TITLE
 10
  7.6000
 20
  0.2000
 30
0.0
 0
VERTEX
 8
TITLE
 10
  7.6000
 20
  0.1000
 30
0.0
 0
SEQEND
 8
TITLE
 0
POLYLINE
 8
TITLE
 66
1
 10
0.0
 20
0.0
 30
0.0
 0
VERTEX
 8
TITLE
 10
  7.6000
 20
  9.7000
 30
0.0
 0
VERTEX
 8
TITLE
 10
  7.6000
 20
  9.8000
 30
0.0
 0
SEQEND
 8
TITLE
 0
SOLID
 8
TITLE
 10
  7.6000
 20
  0.2000
 30
0.0
 11
  7.5800
 21
  0.1500
 31
0.0
 12
  7.6200
 22
  0.1500
 32
0.0
 13
  7.6000
 23
  0.1500
 33
0.0
 0
SOLID
 8
TITLE
 10
  7.6000
 20
  9.7000
 30
0.0
 11
  7.5800
 21
  9.7500
 31
0.0
 12
  7.6200
 22
  9.7500
 32
0.0
 13
  7.6000
 23
  9.7500
 33
0.0
 0
POLYLINE
 8
TITLE
 66
1
 10
0.0
 20
0.0
 30
0.0
 0
VERTEX
 8
TITLE
 10
  9.4500
 20
  0.2000
 30
0.0
 0
VERTEX
 8
TITLE
 10
  9.4500
 20
  0.1000
 30
0.0
 0
SEQEND
 8
TITLE
 0
POLYLINE
 8
TITLE
 66
1
 10
0.0
 20
0.0
 30
0.0
 0
VERTEX
 8
TITLE
 10
  9.4500
 20
  9.7000
 30
0.0
 0
VERTEX
 8
TITLE
 10
  9.4500
 20
  9.8000
 30
0.0
 0
SEQEND
 8
TITLE
 0
SOLID
 8
TITLE
 10
  7.6000
 20
  0.2000
 30
0.0
 11
  7.5800
 21
  0.1500
 31
0.0
 12
  7.6200
 22
  0.1500
 32
0.0
 13
  7.6000
 23
  0.1500
 33
0.0
 0
SOLID
 8
TITLE
 10
  7.6000
 20
  9.7000
 30
0.0
 11
  7.5800
 21
  9.7500
 31
0.0
 12
  7.6200
 22
  9.7500
 32
0.0
 13
  7.6000
 23
  9.7500
 33
0.0
 0
POLYLINE
 8
TITLE
 66
1
 10
0.0
 20
0.0
 30
0.0
 0
VERTEX
 8
TITLE
 10
 11.3000
 20
  0.2000
 30
0.0
 0
VERTEX
 8
TITLE
 10
 11.3000
 20
  0.1000
 30
0.0
 0
SEQEND
 8
TITLE
 0
POLYLINE
 8
TITLE
 66
1
 10
0.0
 20
0.0
 30
0.0
 0
VERTEX
 8
TITLE
 10
 11.3000
 20
  9.7000
 30
0.0
 0
VERTEX
 8
TITLE
 10
 11.3000
 20
  9.8000
 30
0.0
 0
SEQEND
 8
TITLE
 0
SOLID
 8
TITLE
 10
  7.6000
 20
  0.2000
 30
0.0
 11
  7.5800
 21
  0.1500
 31
0.0
 12
  7.6200
 22
  0.1500
 32
0.0
 13
  7.6000
 23
  0.1500
 33
0.0
 0
SOLID
 8
TITLE
 10
  7.6000
 20
  9.7000
 30
0.0
 11
  7.5800
 21
  9.7500
 31
0.0
 12
  7.6200
 22
  9.7500
 32
0.0
 13
  7.6000
 23
  9.7500
 33
0.0
 0
POLYLINE
 8
TITLE
 66
1
 10
0.0
 20
0.0
 30
0.0
 0
VERTEX
 8
TITLE
 10
 13.1500
 20
  0.2000
 30
0.0
 0
VERTEX
 8
TITLE
 10
 13.1500
 20
  0.1000
 30
0.0
 0
SEQEND
 8
TITLE
 0
POLYLINE
 8
TITLE
 66
1
 10
0.0
 20
0.0
 30
0.0
 0
VERTEX
 8
TITLE
 10
 13.1500
 20
  9.7000
 30
0.0
 0
VERTEX
 8
TITLE
 10
 13.1500
 20
  9.8000
 30
0.0
 0
SEQEND
 8
TITLE
 0
SOLID
 8
TITLE
 10
  7.6000
 20
  0.2000
 30
0.0
 11
  7.5800
 21
  0.1500
 31
0.0
 12
  7.6200
 22
  0.1500
 32
0.0
 13
  7.6000
 23
  0.1500
 33
0.0
 0
SOLID
 8
TITLE
 10
  7.6000
 20
  9.7000
 30
0.0
 11
  7.5800
 21
  9.7500
 31
0.0
 12
  7.6200
 22
  9.7500
 32
0.0
 13
  7.6000
 23
  9.7500
 33
0.0
 0
TEXT
 8
TITLE
 10
  1.1200
 20
  0.1200
 30
0.0
 40
  0.0500
 1
8
 0
TEXT
 8
TITLE
 10
  1.1200
 20
  9.7200
 30
0.0
 40
  0.0500
 1
8
 0
TEXT
 8
TITLE
 10
  2.9700
 20
  0.1200
 30
0.0
 40
  0.0500
 1
7
 0
TEXT
 8
TITLE
 10
  2.9700
 20
  9.7200
 30
0.0
 40
  0.0500
 1
7
 0
TEXT
 8
TITLE
 10
  4.8200
 20
  0.1200
 30
0.0
 40
  0.0500
 1
6
 0
TEXT
 8
TITLE
 10
  4.8200
 20
  9.7200
 30
0.0
 40
  0.0500
 1
6
 0
TEXT
 8
TITLE
 10
  6.6700
 20
  0.1200
 30
0.0
 40
  0.0500
 1
5
 0
TEXT
 8
TITLE
 10
  6.6700
 20
  9.7200
 30
0.0
 40
  0.0500
 1
5
 0
TEXT
 8
TITLE
 10
  8.5200
 20
  0.1200
 30
0.0
 40
  0.0500
 1
4
 0
TEXT
 8
TITLE
 10
  8.5200
 20
  9.7200
 30
0.0
 40
  0.0500
 1
4
 0
TEXT
 8
TITLE
 10
 10.3700
 20
  0.1200
 30
0.0
 40
  0.0500
 1
3
 0
TEXT
 8
TITLE
 10
 10.3700
 20
  9.7200
 30
0.0
 40
  0.0500
 1
3
 0
TEXT
 8
TITLE
 10
 12.2200
 20
  0.1200
 30
0.0
 40
  0.0500
 1
2
 0
TEXT
 8
TITLE
 10
 12.2200
 20
  9.7200
 30
0.0
 40
  0.0500
 1
2
 0
TEXT
 8
TITLE
 10
 14.0700
 20
  0.1200
 30
0.0
 40
  0.0500
 1
1
 0
TEXT
 8
TITLE
 10
 14.0700
 20
  9.7200
 30
0.0
 40
  0.0500
 1
1
 0
POLYLINE
 8
TITLE
 66
1
 10
0.0
 20
0.0
 30
0.0
 0
VERTEX
 8
TITLE
 10
 -0.1000
 20
  7.1800
 30
0.0
 0
VERTEX
 8
TITLE
 10
  0.0000
 20
  7.1800
 30
0.0
 0
SEQEND
 8
TITLE
 0
POLYLINE
 8
TITLE
 66
1
 10
0.0
 20
0.0
 30
0.0
 0
VERTEX
 8
TITLE
 10
 15.0000
 20
  7.1800
 30
0.0
 0
VERTEX
 8
TITLE
 10
 15.1000
 20
  7.1800
 30
0.0
 0
SEQEND
 8
TITLE
 0
SOLID
 8
TITLE
 10
  0.0000
 20
  4.8600
 30
0.0
 11
 -0.0500
 21
  4.8800
 31
0.0
 12
 -0.0500
 22
  4.8400
 32
0.0
 13
 -0.0500
 23
  4.8600
 33
0.0
 0
SOLID
 8
TITLE
 10
 15.0000
 20
  4.8600
 30
0.0
 11
 15.0500
 21
  4.8800
 31
0.0
 12
 15.0500
 22
  4.8400
 32
0.0
 13
 15.0500
 23
  4.8600
 33
0.0
 0
POLYLINE
 8
TITLE
 66
1
 10
0.0
 20
0.0
 30
0.0
 0
VERTEX
 8
TITLE
 10
 -0.1000
 20
  4.8600
 30
0.0
 0
VERTEX
 8
TITLE
 10
  0.0000
 20
  4.8600
 30
0.0
 0
SEQEND
 8
TITLE
 0
POLYLINE
 8
TITLE
 66
1
 10
0.0
 20
0.0
 30
0.0
 0
VERTEX
 8
TITLE
 10
 15.0000
 20
  4.8600
 30
0.0
 0
VERTEX
 8
TITLE
 10
 15.1000
 20
  4.8600
 30
0.0
 0
SEQEND
 8
TITLE
 0
SOLID
 8
TITLE
 10
  0.0000
 20
  4.8600
 30
0.0
 11
 -0.0500
 21
  4.8800
 31
0.0
 12
 -0.0500
 22
  4.8400
 32
0.0
 13
 -0.0500
 23
  4.8600
 33
0.0
 0
SOLID
 8
TITLE
 10
 15.0000
 20
  4.8600
 30
0.0
 11
 15.0500
 21
  4.8800
 31
0.0
 12
 15.0500
 22
  4.8400
 32
0.0
 13
 15.0500
 23
  4.8600
 33
0.0
 0
POLYLINE
 8
TITLE
 66
1
 10
0.0
 20
0.0
 30
0.0
 0
VERTEX
 8
TITLE
 10
 -0.1000
 20
  2.5400
 30
0.0
 0
VERTEX
 8
TITLE
 10
  0.0000
 20
  2.5400
 30
0.0
 0
SEQEND
 8
TITLE
 0
POLYLINE
 8
TITLE
 66
1
 10
0.0
 20
0.0
 30
0.0
 0
VERTEX
 8
TITLE
 10
 15.0000
 20
  2.5400
 30
0.0
 0
VERTEX
 8
TITLE
 10
 15.1000
 20
  2.5400
 30
0.0
 0
SEQEND
 8
TITLE
 0
SOLID
 8
TITLE
 10
  0.0000
 20
  4.8600
 30
0.0
 11
 -0.0500
 21
  4.8800
 31
0.0
 12
 -0.0500
 22
  4.8400
 32
0.0
 13
 -0.0500
 23
  4.8600
 33
0.0
 0
SOLID
 8
TITLE
 10
 15.0000
 20
  4.8600
 30
0.0
 11
 15.0500
 21
  4.8800
 31
0.0
 12
 15.0500
 22
  4.8400
 32
0.0
 13
 15.0500
 23
  4.8600
 33
0.0
 0
TEXT
 8
TITLE
 10
 -0.0800
 20
  8.3400
 30
0.0
 40
  0.0500
 1
D
 0
TEXT
 8
TITLE
 10
 15.0200
 20
  8.3400
 30
0.0
 40
  0.0500
 1
D
 0
TEXT
 8
TITLE
 10
 -0.0800
 20
  6.0200
 30
0.0
 40
  0.0500
 1
C
 0
TEXT
 8
TITLE
 10
 15.0200
 20
  6.0200
 30
0.0
 40
  0.0500
 1
C
 0
TEXT
 8
TITLE
 10
 -0.0800
 20
  3.7000
 30
0.0
 40
  0.0500
 1
B
 0
TEXT
 8
TITLE
 10
 15.0200
 20
  3.7000
 30
0.0
 40
  0.0500
 1
B
 0
TEXT
 8
TITLE
 10
 -0.0800
 20
  1.3800
 30
0.0
 40
  0.0500
 1
A
 0
TEXT
 8
TITLE
 10
 15.0200
 20
  1.3800
 30
0.0
 40
  0.0500
 1
A
 0
TEXT
 8
TITLE
 10
 11.7000
 20
  0.7186
 30
0.0
 40
  0.0514
 1
DDS CONTROLLER
 0
TEXT
 8
TITLE
 10
 11.3000
 20
  1.3186
 30
0.0
 40
  0.0514
 1
ARECIBO OBSERVATORY
 0
TEXT
 8
TITLE
 10
 11.3000
 20
  1.1186
 30
0.0
 40
  0.0514
 1
BY : BILL SISK
 0
TEXT
 8
TITLE
 10
 11.3000
 20
  1.0186
 30
0.0
 40
  0.0514
 1
FILE : DDSCTRL10.SCH
 0
TEXT
 8
TITLE
 10
 11.4000
 20
  0.4186
 30
0.0
 40
  0.0514
 1
B
 0
TEXT
 8
TITLE
 10
 13.8000
 20
  0.2186
 30
0.0
 40
  0.0514
 1
0
 0
TEXT
 8
TITLE
 10
 14.4000
 20
  0.2186
 30
0.0
 40
  0.0514
 1
0
 0
TEXT
 8
TITLE
 10
 11.7100
 20
  0.2186
 30
0.0
 40
  0.0514
 1
Friday, March 11, 2005
 0
TEXT
 8
PARTTEXT
 10
 11.3000
 20
  0.8186
 30
0.0
 40
  0.0514
 1
Title
 0
TEXT
 8
PARTTEXT
 10
 11.3000
 20
  0.5186
 30
0.0
 40
  0.0514
 1
Size
 0
TEXT
 8
PARTTEXT
 10
 11.7000
 20
  0.5186
 30
0.0
 40
  0.0514
 1
Document Number
 0
TEXT
 8
PARTTEXT
 10
 14.6000
 20
  0.5186
 30
0.0
 40
  0.0514
 1
Rev
 0
TEXT
 8
PARTTEXT
 10
 11.3000
 20
  0.2186
 30
0.0
 40
  0.0514
 1
Date:
 0
TEXT
 8
PARTTEXT
 10
 13.3000
 20
  0.2186
 30
0.0
 40
  0.0514
 1
Sheet
 0
POLYLINE
 8
TITLE
 66
1
 70
1
 10
0.0
 20
0.0
 30
0.0
 0
VERTEX
 8
TITLE
 10
 11.3000
 20
  1.4000
 30
0.0
 0
VERTEX
 8
TITLE
 10
 14.9000
 20
  1.4000
 30
0.0
 0
VERTEX
 8
TITLE
 10
 14.9000
 20
  0.9000
 30
0.0
 0
VERTEX
 8
TITLE
 10
 11.3000
 20
  0.9000
 30
0.0
 0
SEQEND
 8
TITLE
 0
POLYLINE
 8
TITLE
 66
1
 70
1
 10
0.0
 20
0.0
 30
0.0
 0
VERTEX
 8
TITLE
 10
 11.3000
 20
  0.9000
 30
0.0
 0
VERTEX
 8
TITLE
 10
 14.9000
 20
  0.9000
 30
0.0
 0
VERTEX
 8
TITLE
 10
 14.9000
 20
  0.6000
 30
0.0
 0
VERTEX
 8
TITLE
 10
 11.3000
 20
  0.6000
 30
0.0
 0
SEQEND
 8
TITLE
 0
POLYLINE
 8
TITLE
 66
1
 70
1
 10
0.0
 20
0.0
 30
0.0
 0
VERTEX
 8
TITLE
 10
 11.3000
 20
  0.6000
 30
0.0
 0
VERTEX
 8
TITLE
 10
 11.6000
 20
  0.6000
 30
0.0
 0
VERTEX
 8
TITLE
 10
 11.6000
 20
  0.3000
 30
0.0
 0
VERTEX
 8
TITLE
 10
 11.3000
 20
  0.3000
 30
0.0
 0
SEQEND
 8
TITLE
 0
POLYLINE
 8
TITLE
 66
1
 70
1
 10
0.0
 20
0.0
 30
0.0
 0
VERTEX
 8
TITLE
 10
 11.6000
 20
  0.6000
 30
0.0
 0
VERTEX
 8
TITLE
 10
 14.6000
 20
  0.6000
 30
0.0
 0
VERTEX
 8
TITLE
 10
 14.6000
 20
  0.3000
 30
0.0
 0
VERTEX
 8
TITLE
 10
 11.6000
 20
  0.3000
 30
0.0
 0
SEQEND
 8
TITLE
 0
POLYLINE
 8
TITLE
 66
1
 70
1
 10
0.0
 20
0.0
 30
0.0
 0
VERTEX
 8
TITLE
 10
 14.6000
 20
  0.6000
 30
0.0
 0
VERTEX
 8
TITLE
 10
 14.9000
 20
  0.6000
 30
0.0
 0
VERTEX
 8
TITLE
 10
 14.9000
 20
  0.3000
 30
0.0
 0
VERTEX
 8
TITLE
 10
 14.6000
 20
  0.3000
 30
0.0
 0
SEQEND
 8
TITLE
 0
POLYLINE
 8
TITLE
 66
1
 70
1
 10
0.0
 20
0.0
 30
0.0
 0
VERTEX
 8
TITLE
 10
 11.3000
 20
  0.3000
 30
0.0
 0
VERTEX
 8
TITLE
 10
 13.3000
 20
  0.3000
 30
0.0
 0
VERTEX
 8
TITLE
 10
 13.3000
 20
  0.2000
 30
0.0
 0
VERTEX
 8
TITLE
 10
 11.3000
 20
  0.2000
 30
0.0
 0
SEQEND
 8
TITLE
 0
POLYLINE
 8
TITLE
 66
1
 70
1
 10
0.0
 20
0.0
 30
0.0
 0
VERTEX
 8
TITLE
 10
 13.3000
 20
  0.3000
 30
0.0
 0
VERTEX
 8
TITLE
 10
 14.9000
 20
  0.3000
 30
0.0
 0
VERTEX
 8
TITLE
 10
 14.9000
 20
  0.2000
 30
0.0
 0
VERTEX
 8
TITLE
 10
 13.3000
 20
  0.2000
 30
0.0
 0
SEQEND
 8
TITLE
 0
TEXT
 8
PARTTEXT
 10
 14.1000
 20
  0.2186
 30
0.0
 40
  0.0514
 1
of
 0
TEXT
 8
PARTTEXT
 10
  8.5600
 20
  0.7386
 30
0.0
 40
  0.0514
 1
.1uF
 0
LINE
 8
PARTS
 10
  9.0000
 20
  0.9000
 30
0.0
 11
  9.0000
 21
  0.8000
 31
0.0
 0
TEXT
 8
PARTS
 10
  8.9700
 20
  0.8600
 30
0.0
 40
  0.0500
 50
 90.0000
 1
1
 0
LINE
 8
PARTS
 10
  9.0000
 20
  0.5000
 30
0.0
 11
  9.0000
 21
  0.6000
 31
0.0
 0
TEXT
 8
PARTS
 10
  8.9700
 20
  0.4800
 30
0.0
 40
  0.0500
 50
 90.0000
 1
2
 0
POLYLINE
 8
PARTS
 66
1
 10
0.0
 20
0.0
 30
0.0
 0
VERTEX
 8
PARTS
 10
  9.0000
 20
  0.6600
 30
0.0
 0
VERTEX
 8
PARTS
 10
  9.0000
 20
  0.6000
 30
0.0
 0
SEQEND
 8
PARTS
 0
POLYLINE
 8
PARTS
 66
1
 10
0.0
 20
0.0
 30
0.0
 0
VERTEX
 8
PARTS
 10
  8.9000
 20
  0.7000
 30
0.0
 0
VERTEX
 8
PARTS
 10
  9.1000
 20
  0.7000
 30
0.0
 0
SEQEND
 8
PARTS
 0
POLYLINE
 8
PARTS
 66
1
 10
0.0
 20
0.0
 30
0.0
 0
VERTEX
 8
PARTS
 10
  9.0000
 20
  0.8000
 30
0.0
 0
VERTEX
 8
PARTS
 10
  9.0000
 20
  0.7000
 30
0.0
 0
SEQEND
 8
PARTS
 0
POLYLINE
 8
PARTS
 66
1
 10
0.0
 20
0.0
 30
0.0
 0
VERTEX
 8
PARTS
 10
  9.1000
 20
  0.6300
 30
0.0
 42
  0.1654
 0
VERTEX
 8
PARTS
 10
  9.0000
 20
  0.6600
 30
0.0
 0
SEQEND
 8
PARTS
 0
POLYLINE
 8
PARTS
 66
1
 10
0.0
 20
0.0
 30
0.0
 0
VERTEX
 8
PARTS
 10
  9.0000
 20
  0.6600
 30
0.0
 42
  0.1654
 0
VERTEX
 8
PARTS
 10
  8.9000
 20
  0.6300
 30
0.0
 0
SEQEND
 8
PARTS
 0
TEXT
 8
PARTTEXT
 10
  9.0300
 20
  0.6986
 30
0.0
 40
  0.0514
 1
+
 0
TEXT
 8
PARTTEXT
 10
  2.5000
 20
  8.9886
 30
0.0
 40
  0.0514
 1
490nH
 0
LINE
 8
PARTS
 10
  2.4000
 20
  8.9000
 30
0.0
 11
  2.5000
 21
  8.9000
 31
0.0
 0
TEXT
 8
PARTS
 10
  2.4400
 20
  8.9300
 30
0.0
 40
  0.0500
 1

 0
LINE
 8
PARTS
 10
  3.0000
 20
  8.9000
 30
0.0
 11
  2.9000
 21
  8.9000
 31
0.0
 0
TEXT
 8
PARTS
 10
  2.9600
 20
  8.9300
 30
0.0
 40
  0.0500
 1

 0
POLYLINE
 8
PARTS
 66
1
 10
0.0
 20
0.0
 30
0.0
 0
VERTEX
 8
PARTS
 10
  2.5500
 20
  8.9500
 30
0.0
 42
  0.4142
 0
VERTEX
 8
PARTS
 10
  2.5000
 20
  8.9000
 30
0.0
 0
SEQEND
 8
PARTS
 0
POLYLINE
 8
PARTS
 66
1
 10
0.0
 20
0.0
 30
0.0
 0
VERTEX
 8
PARTS
 10
  2.6000
 20
  8.9000
 30
0.0
 42
  0.4142
 0
VERTEX
 8
PARTS
 10
  2.5500
 20
  8.9500
 30
0.0
 0
SEQEND
 8
PARTS
 0
POLYLINE
 8
PARTS
 66
1
 10
0.0
 20
0.0
 30
0.0
 0
VERTEX
 8
PARTS
 10
  2.6500
 20
  8.9500
 30
0.0
 42
  0.4142
 0
VERTEX
 8
PARTS
 10
  2.6000
 20
  8.9000
 30
0.0
 0
SEQEND
 8
PARTS
 0
POLYLINE
 8
PARTS
 66
1
 10
0.0
 20
0.0
 30
0.0
 0
VERTEX
 8
PARTS
 10
  2.7000
 20
  8.9000
 30
0.0
 42
  0.4142
 0
VERTEX
 8
PARTS
 10
  2.6500
 20
  8.9500
 30
0.0
 0
SEQEND
 8
PARTS
 0
POLYLINE
 8
PARTS
 66
1
 10
0.0
 20
0.0
 30
0.0
 0
VERTEX
 8
PARTS
 10
  2.7500
 20
  8.9500
 30
0.0
 42
  0.4142
 0
VERTEX
 8
PARTS
 10
  2.7000
 20
  8.9000
 30
0.0
 0
SEQEND
 8
PARTS
 0
POLYLINE
 8
PARTS
 66
1
 10
0.0
 20
0.0
 30
0.0
 0
VERTEX
 8
PARTS
 10
  2.8000
 20
  8.9000
 30
0.0
 42
  0.4142
 0
VERTEX
 8
PARTS
 10
  2.7500
 20
  8.9500
 30
0.0
 0
SEQEND
 8
PARTS
 0
POLYLINE
 8
PARTS
 66
1
 10
0.0
 20
0.0
 30
0.0
 0
VERTEX
 8
PARTS
 10
  2.8500
 20
  8.9500
 30
0.0
 42
  0.4142
 0
VERTEX
 8
PARTS
 10
  2.8000
 20
  8.9000
 30
0.0
 0
SEQEND
 8
PARTS
 0
POLYLINE
 8
PARTS
 66
1
 10
0.0
 20
0.0
 30
0.0
 0
VERTEX
 8
PARTS
 10
  2.9000
 20
  8.9000
 30
0.0
 42
  0.4142
 0
VERTEX
 8
PARTS
 10
  2.8500
 20
  8.9500
 30
0.0
 0
SEQEND
 8
PARTS
 0
TEXT
 8
PARTTEXT
 10
  9.4900
 20
  9.1086
 30
0.0
 40
  0.0514
 1
U1A
 0
TEXT
 8
PARTTEXT
 10
  9.4900
 20
  9.0186
 30
0.0
 40
  0.0514
 1
CLC412
 0
LINE
 8
PARTS
 10
  8.7000
 20
  8.9000
 30
0.0
 11
  9.0000
 21
  8.9000
 31
0.0
 0
TEXT
 8
PARTS
 10
  8.9000
 20
  8.9300
 30
0.0
 40
  0.0500
 1
3
 0
LINE
 8
PARTS
 10
  8.7000
 20
  8.7000
 30
0.0
 11
  9.0000
 21
  8.7000
 31
0.0
 0
TEXT
 8
PARTS
 10
  8.9000
 20
  8.7300
 30
0.0
 40
  0.0500
 1
2
 0
LINE
 8
PARTS
 10
  9.7000
 20
  8.8000
 30
0.0
 11
  9.4000
 21
  8.8000
 31
0.0
 0
TEXT
 8
PARTS
 10
  9.4600
 20
  8.8300
 30
0.0
 40
  0.0500
 1
1
 0
LINE
 8
PARTS
 10
  9.1000
 20
  9.3000
 30
0.0
 11
  9.1000
 21
  9.0000
 31
0.0
 0
TEXT
 8
PARTS
 10
  9.0700
 20
  9.0600
 30
0.0
 40
  0.0500
 50
 90.0000
 1
8
 0
LINE
 8
PARTS
 10
  9.1000
 20
  8.3000
 30
0.0
 11
  9.1000
 21
  8.6000
 31
0.0
 0
TEXT
 8
PARTS
 10
  9.0700
 20
  8.4800
 30
0.0
 40
  0.0500
 50
 90.0000
 1
4
 0
POLYLINE
 8
PARTS
 66
1
 10
0.0
 20
0.0
 30
0.0
 0
VERTEX
 8
PARTS
 10
  9.0000
 20
  9.0000
 30
0.0
 0
VERTEX
 8
PARTS
 10
  9.4000
 20
  8.8000
 30
0.0
 0
SEQEND
 8
PARTS
 0
POLYLINE
 8
PARTS
 66
1
 10
0.0
 20
0.0
 30
0.0
 0
VERTEX
 8
PARTS
 10
  9.4000
 20
  8.8000
 30
0.0
 0
VERTEX
 8
PARTS
 10
  9.0000
 20
  8.6000
 30
0.0
 0
SEQEND
 8
PARTS
 0
POLYLINE
 8
PARTS
 66
1
 10
0.0
 20
0.0
 30
0.0
 0
VERTEX
 8
PARTS
 10
  9.0000
 20
  8.6000
 30
0.0
 0
VERTEX
 8
PARTS
 10
  9.0000
 20
  9.0000
 30
0.0
 0
SEQEND
 8
PARTS
 0
POLYLINE
 8
PARTS
 66
1
 10
0.0
 20
0.0
 30
0.0
 0
VERTEX
 8
PARTS
 10
  9.1000
 20
  9.0000
 30
0.0
 0
VERTEX
 8
PARTS
 10
  9.1000
 20
  8.9500
 30
0.0
 0
SEQEND
 8
PARTS
 0
POLYLINE
 8
PARTS
 66
1
 10
0.0
 20
0.0
 30
0.0
 0
VERTEX
 8
PARTS
 10
  9.1000
 20
  8.6500
 30
0.0
 0
VERTEX
 8
PARTS
 10
  9.1000
 20
  8.6000
 30
0.0
 0
SEQEND
 8
PARTS
 0
TEXT
 8
PARTTEXT
 10
  9.0300
 20
  8.8486
 30
0.0
 40
  0.0514
 1
+
 0
TEXT
 8
PARTTEXT
 10
  9.0300
 20
  8.6486
 30
0.0
 40
  0.0514
 1
-
 0
LINE
 8
PARTS
 10
 10.9000
 20
  4.6000
 30
0.0
 11
 11.0000
 21
  4.6000
 31
0.0
 0
TEXT
 8
PARTS
 10
 10.9400
 20
  4.6300
 30
0.0
 40
  0.0500
 1

 0
LINE
 8
PARTS
 10
 11.1000
 20
  4.4000
 30
0.0
 11
 11.1000
 21
  4.5000
 31
0.0
 0
TEXT
 8
PARTS
 10
 11.0700
 20
  4.3800
 30
0.0
 40
  0.0500
 50
 90.0000
 1

 0
POLYLINE
 8
PARTS
 66
1
 70
1
 10
0.0
 20
0.0
 30
0.0
 0
VERTEX
 8
PARTS
 10
 11.1300
 20
  4.6000
 30
0.0
 42
  0.0985
 0
VERTEX
 8
PARTS
 10
 11.1277
 20
  4.6115
 30
0.0
 42
  0.0985
 0
VERTEX
 8
PARTS
 10
 11.1212
 20
  4.6212
 30
0.0
 42
  0.0985
 0
VERTEX
 8
PARTS
 10
 11.1115
 20
  4.6277
 30
0.0
 42
  0.0985
 0
VERTEX
 8
PARTS
 10
 11.1000
 20
  4.6300
 30
0.0
 42
  0.0985
 0
VERTEX
 8
PARTS
 10
 11.0885
 20
  4.6277
 30
0.0
 42
  0.0985
 0
VERTEX
 8
PARTS
 10
 11.0788
 20
  4.6212
 30
0.0
 42
  0.0985
 0
VERTEX
 8
PARTS
 10
 11.0723
 20
  4.6115
 30
0.0
 42
  0.0985
 0
VERTEX
 8
PARTS
 10
 11.0700
 20
  4.6000
 30
0.0
 42
  0.0985
 0
VERTEX
 8
PARTS
 10
 11.0723
 20
  4.5885
 30
0.0
 42
  0.0985
 0
VERTEX
 8
PARTS
 10
 11.0788
 20
  4.5788
 30
0.0
 42
  0.0985
 0
VERTEX
 8
PARTS
 10
 11.0885
 20
  4.5723
 30
0.0
 42
  0.0985
 0
VERTEX
 8
PARTS
 10
 11.1000
 20
  4.5700
 30
0.0
 42
  0.0985
 0
VERTEX
 8
PARTS
 10
 11.1115
 20
  4.5723
 30
0.0
 42
  0.0985
 0
VERTEX
 8
PARTS
 10
 11.1212
 20
  4.5788
 30
0.0
 42
  0.0985
 0
VERTEX
 8
PARTS
 10
 11.1277
 20
  4.5885
 30
0.0
 42
  0.0985
 0
SEQEND
 8
PARTS
 0
POLYLINE
 8
PARTS
 66
1
 10
0.0
 20
0.0
 30
0.0
 0
VERTEX
 8
PARTS
 10
 11.0000
 20
  4.6000
 30
0.0
 0
VERTEX
 8
PARTS
 10
 11.0700
 20
  4.6000
 30
0.0
 0
SEQEND
 8
PARTS
 0
POLYLINE
 8
PARTS
 66
1
 70
1
 10
0.0
 20
0.0
 30
0.0
 0
VERTEX
 8
PARTS
 10
 11.2000
 20
  4.6000
 30
0.0
 42
  0.0985
 0
VERTEX
 8
PARTS
 10
 11.1924
 20
  4.6383
 30
0.0
 42
  0.0985
 0
VERTEX
 8
PARTS
 10
 11.1707
 20
  4.6707
 30
0.0
 42
  0.0985
 0
VERTEX
 8
PARTS
 10
 11.1383
 20
  4.6924
 30
0.0
 42
  0.0985
 0
VERTEX
 8
PARTS
 10
 11.1000
 20
  4.7000
 30
0.0
 42
  0.0985
 0
VERTEX
 8
PARTS
 10
 11.0617
 20
  4.6924
 30
0.0
 42
  0.0985
 0
VERTEX
 8
PARTS
 10
 11.0293
 20
  4.6707
 30
0.0
 42
  0.0985
 0
VERTEX
 8
PARTS
 10
 11.0076
 20
  4.6383
 30
0.0
 42
  0.0985
 0
VERTEX
 8
PARTS
 10
 11.0000
 20
  4.6000
 30
0.0
 42
  0.0985
 0
VERTEX
 8
PARTS
 10
 11.0076
 20
  4.5617
 30
0.0
 42
  0.0985
 0
VERTEX
 8
PARTS
 10
 11.0293
 20
  4.5293
 30
0.0
 42
  0.0985
 0
VERTEX
 8
PARTS
 10
 11.0617
 20
  4.5076
 30
0.0
 42
  0.0985
 0
VERTEX
 8
PARTS
 10
 11.1000
 20
  4.5000
 30
0.0
 42
  0.0985
 0
VERTEX
 8
PARTS
 10
 11.1383
 20
  4.5076
 30
0.0
 42
  0.0985
 0
VERTEX
 8
PARTS
 10
 11.1707
 20
  4.5293
 30
0.0
 42
  0.0985
 0
VERTEX
 8
PARTS
 10
 11.1924
 20
  4.5617
 30
0.0
 42
  0.0985
 0
SEQEND
 8
PARTS
 0
TEXT
 8
PARTTEXT
 10
  4.7400
 20
  4.4286
 30
0.0
 40
  0.0514
 1
290pF
 0
LINE
 8
PARTS
 10
  4.6000
 20
  4.6000
 30
0.0
 11
  4.6000
 21
  4.5000
 31
0.0
 0
TEXT
 8
PARTS
 10
  4.5700
 20
  4.5600
 30
0.0
 40
  0.0500
 50
 90.0000
 1

 0
LINE
 8
PARTS
 10
  4.6000
 20
  4.3000
 30
0.0
 11
  4.6000
 21
  4.4000
 31
0.0
 0
TEXT
 8
PARTS
 10
  4.5700
 20
  4.2800
 30
0.0
 40
  0.0500
 50
 90.0000
 1

 0
POLYLINE
 8
PARTS
 66
1
 10
0.0
 20
0.0
 30
0.0
 0
VERTEX
 8
PARTS
 10
  4.6000
 20
  4.5000
 30
0.0
 0
VERTEX
 8
PARTS
 10
  4.6000
 20
  4.4800
 30
0.0
 0
SEQEND
 8
PARTS
 0
POLYLINE
 8
PARTS
 66
1
 10
0.0
 20
0.0
 30
0.0
 0
VERTEX
 8
PARTS
 10
  4.5100
 20
  4.4300
 30
0.0
 0
VERTEX
 8
PARTS
 10
  4.6900
 20
  4.4300
 30
0.0
 0
SEQEND
 8
PARTS
 0
POLYLINE
 8
PARTS
 66
1
 10
0.0
 20
0.0
 30
0.0
 0
VERTEX
 8
PARTS
 10
  4.5100
 20
  4.4800
 30
0.0
 0
VERTEX
 8
PARTS
 10
  4.6900
 20
  4.4800
 30
0.0
 0
SEQEND
 8
PARTS
 0
POLYLINE
 8
PARTS
 66
1
 10
0.0
 20
0.0
 30
0.0
 0
VERTEX
 8
PARTS
 10
  4.6000
 20
  4.4000
 30
0.0
 0
VERTEX
 8
PARTS
 10
  4.6000
 20
  4.4300
 30
0.0
 0
SEQEND
 8
PARTS
 0
LINE
 8
PARTS
 10
  6.8000
 20
  8.9000
 30
0.0
 11
  6.9000
 21
  8.9000
 31
0.0
 0
TEXT
 8
PARTS
 10
  6.8400
 20
  8.9300
 30
0.0
 40
  0.0500
 1

 0
LINE
 8
PARTS
 10
  7.0000
 20
  8.5000
 30
0.0
 11
  7.0000
 21
  8.8000
 31
0.0
 0
TEXT
 8
PARTS
 10
  6.9700
 20
  8.6800
 30
0.0
 40
  0.0500
 50
 90.0000
 1

 0
POLYLINE
 8
PARTS
 66
1
 70
1
 10
0.0
 20
0.0
 30
0.0
 0
VERTEX
 8
PARTS
 10
  7.0300
 20
  8.9000
 30
0.0
 42
  0.0985
 0
VERTEX
 8
PARTS
 10
  7.0277
 20
  8.9115
 30
0.0
 42
  0.0985
 0
VERTEX
 8
PARTS
 10
  7.0212
 20
  8.9212
 30
0.0
 42
  0.0985
 0
VERTEX
 8
PARTS
 10
  7.0115
 20
  8.9277
 30
0.0
 42
  0.0985
 0
VERTEX
 8
PARTS
 10
  7.0000
 20
  8.9300
 30
0.0
 42
  0.0985
 0
VERTEX
 8
PARTS
 10
  6.9885
 20
  8.9277
 30
0.0
 42
  0.0985
 0
VERTEX
 8
PARTS
 10
  6.9788
 20
  8.9212
 30
0.0
 42
  0.0985
 0
VERTEX
 8
PARTS
 10
  6.9723
 20
  8.9115
 30
0.0
 42
  0.0985
 0
VERTEX
 8
PARTS
 10
  6.9700
 20
  8.9000
 30
0.0
 42
  0.0985
 0
VERTEX
 8
PARTS
 10
  6.9723
 20
  8.8885
 30
0.0
 42
  0.0985
 0
VERTEX
 8
PARTS
 10
  6.9788
 20
  8.8788
 30
0.0
 42
  0.0985
 0
VERTEX
 8
PARTS
 10
  6.9885
 20
  8.8723
 30
0.0
 42
  0.0985
 0
VERTEX
 8
PARTS
 10
  7.0000
 20
  8.8700
 30
0.0
 42
  0.0985
 0
VERTEX
 8
PARTS
 10
  7.0115
 20
  8.8723
 30
0.0
 42
  0.0985
 0
VERTEX
 8
PARTS
 10
  7.0212
 20
  8.8788
 30
0.0
 42
  0.0985
 0
VERTEX
 8
PARTS
 10
  7.0277
 20
  8.8885
 30
0.0
 42
  0.0985
 0
SEQEND
 8
PARTS
 0
POLYLINE
 8
PARTS
 66
1
 10
0.0
 20
0.0
 30
0.0
 0
VERTEX
 8
PARTS
 10
  6.9000
 20
  8.9000
 30
0.0
 0
VERTEX
 8
PARTS
 10
  6.9700
 20
  8.9000
 30
0.0
 0
SEQEND
 8
PARTS
 0
POLYLINE
 8
PARTS
 66
1
 70
1
 10
0.0
 20
0.0
 30
0.0
 0
VERTEX
 8
PARTS
 10
  7.1000
 20
  8.9000
 30
0.0
 42
  0.0985
 0
VERTEX
 8
PARTS
 10
  7.0924
 20
  8.9383
 30
0.0
 42
  0.0985
 0
VERTEX
 8
PARTS
 10
  7.0707
 20
  8.9707
 30
0.0
 42
  0.0985
 0
VERTEX
 8
PARTS
 10
  7.0383
 20
  8.9924
 30
0.0
 42
  0.0985
 0
VERTEX
 8
PARTS
 10
  7.0000
 20
  9.0000
 30
0.0
 42
  0.0985
 0
VERTEX
 8
PARTS
 10
  6.9617
 20
  8.9924
 30
0.0
 42
  0.0985
 0
VERTEX
 8
PARTS
 10
  6.9293
 20
  8.9707
 30
0.0
 42
  0.0985
 0
VERTEX
 8
PARTS
 10
  6.9076
 20
  8.9383
 30
0.0
 42
  0.0985
 0
VERTEX
 8
PARTS
 10
  6.9000
 20
  8.9000
 30
0.0
 42
  0.0985
 0
VERTEX
 8
PARTS
 10
  6.9076
 20
  8.8617
 30
0.0
 42
  0.0985
 0
VERTEX
 8
PARTS
 10
  6.9293
 20
  8.8293
 30
0.0
 42
  0.0985
 0
VERTEX
 8
PARTS
 10
  6.9617
 20
  8.8076
 30
0.0
 42
  0.0985
 0
VERTEX
 8
PARTS
 10
  7.0000
 20
  8.8000
 30
0.0
 42
  0.0985
 0
VERTEX
 8
PARTS
 10
  7.0383
 20
  8.8076
 30
0.0
 42
  0.0985
 0
VERTEX
 8
PARTS
 10
  7.0707
 20
  8.8293
 30
0.0
 42
  0.0985
 0
VERTEX
 8
PARTS
 10
  7.0924
 20
  8.8617
 30
0.0
 42
  0.0985
 0
SEQEND
 8
PARTS
 0
TEXT
 8
PARTTEXT
 10
  2.4000
 20
  4.7886
 30
0.0
 40
  0.0514
 1
625nH
 0
LINE
 8
PARTS
 10
  2.3000
 20
  4.7000
 30
0.0
 11
  2.4000
 21
  4.7000
 31
0.0
 0
TEXT
 8
PARTS
 10
  2.3400
 20
  4.7300
 30
0.0
 40
  0.0500
 1

 0
LINE
 8
PARTS
 10
  2.9000
 20
  4.7000
 30
0.0
 11
  2.8000
 21
  4.7000
 31
0.0
 0
TEXT
 8
PARTS
 10
  2.8600
 20
  4.7300
 30
0.0
 40
  0.0500
 1

 0
POLYLINE
 8
PARTS
 66
1
 10
0.0
 20
0.0
 30
0.0
 0
VERTEX
 8
PARTS
 10
  2.4500
 20
  4.7500
 30
0.0
 42
  0.4142
 0
VERTEX
 8
PARTS
 10
  2.4000
 20
  4.7000
 30
0.0
 0
SEQEND
 8
PARTS
 0
POLYLINE
 8
PARTS
 66
1
 10
0.0
 20
0.0
 30
0.0
 0
VERTEX
 8
PARTS
 10
  2.5000
 20
  4.7000
 30
0.0
 42
  0.4142
 0
VERTEX
 8
PARTS
 10
  2.4500
 20
  4.7500
 30
0.0
 0
SEQEND
 8
PARTS
 0
POLYLINE
 8
PARTS
 66
1
 10
0.0
 20
0.0
 30
0.0
 0
VERTEX
 8
PARTS
 10
  2.5500
 20
  4.7500
 30
0.0
 42
  0.4142
 0
VERTEX
 8
PARTS
 10
  2.5000
 20
  4.7000
 30
0.0
 0
SEQEND
 8
PARTS
 0
POLYLINE
 8
PARTS
 66
1
 10
0.0
 20
0.0
 30
0.0
 0
VERTEX
 8
PARTS
 10
  2.6000
 20
  4.7000
 30
0.0
 42
  0.4142
 0
VERTEX
 8
PARTS
 10
  2.5500
 20
  4.7500
 30
0.0
 0
SEQEND
 8
PARTS
 0
POLYLINE
 8
PARTS
 66
1
 10
0.0
 20
0.0
 30
0.0
 0
VERTEX
 8
PARTS
 10
  2.6500
 20
  4.7500
 30
0.0
 42
  0.4142
 0
VERTEX
 8
PARTS
 10
  2.6000
 20
  4.7000
 30
0.0
 0
SEQEND
 8
PARTS
 0
POLYLINE
 8
PARTS
 66
1
 10
0.0
 20
0.0
 30
0.0
 0
VERTEX
 8
PARTS
 10
  2.7000
 20
  4.7000
 30
0.0
 42
  0.4142
 0
VERTEX
 8
PARTS
 10
  2.6500
 20
  4.7500
 30
0.0
 0
SEQEND
 8
PARTS
 0
POLYLINE
 8
PARTS
 66
1
 10
0.0
 20
0.0
 30
0.0
 0
VERTEX
 8
PARTS
 10
  2.7500
 20
  4.7500
 30
0.0
 42
  0.4142
 0
VERTEX
 8
PARTS
 10
  2.7000
 20
  4.7000
 30
0.0
 0
SEQEND
 8
PARTS
 0
POLYLINE
 8
PARTS
 66
1
 10
0.0
 20
0.0
 30
0.0
 0
VERTEX
 8
PARTS
 10
  2.8000
 20
  4.7000
 30
0.0
 42
  0.4142
 0
VERTEX
 8
PARTS
 10
  2.7500
 20
  4.7500
 30
0.0
 0
SEQEND
 8
PARTS
 0
TEXT
 8
PARTTEXT
 10
  5.7000
 20
  8.9886
 30
0.0
 40
  0.0514
 1
450nH
 0
LINE
 8
PARTS
 10
  5.6000
 20
  8.9000
 30
0.0
 11
  5.7000
 21
  8.9000
 31
0.0
 0
TEXT
 8
PARTS
 10
  5.6400
 20
  8.9300
 30
0.0
 40
  0.0500
 1

 0
LINE
 8
PARTS
 10
  6.2000
 20
  8.9000
 30
0.0
 11
  6.1000
 21
  8.9000
 31
0.0
 0
TEXT
 8
PARTS
 10
  6.1600
 20
  8.9300
 30
0.0
 40
  0.0500
 1

 0
POLYLINE
 8
PARTS
 66
1
 10
0.0
 20
0.0
 30
0.0
 0
VERTEX
 8
PARTS
 10
  5.7500
 20
  8.9500
 30
0.0
 42
  0.4142
 0
VERTEX
 8
PARTS
 10
  5.7000
 20
  8.9000
 30
0.0
 0
SEQEND
 8
PARTS
 0
POLYLINE
 8
PARTS
 66
1
 10
0.0
 20
0.0
 30
0.0
 0
VERTEX
 8
PARTS
 10
  5.8000
 20
  8.9000
 30
0.0
 42
  0.4142
 0
VERTEX
 8
PARTS
 10
  5.7500
 20
  8.9500
 30
0.0
 0
SEQEND
 8
PARTS
 0
POLYLINE
 8
PARTS
 66
1
 10
0.0
 20
0.0
 30
0.0
 0
VERTEX
 8
PARTS
 10
  5.8500
 20
  8.9500
 30
0.0
 42
  0.4142
 0
VERTEX
 8
PARTS
 10
  5.8000
 20
  8.9000
 30
0.0
 0
SEQEND
 8
PARTS
 0
POLYLINE
 8
PARTS
 66
1
 10
0.0
 20
0.0
 30
0.0
 0
VERTEX
 8
PARTS
 10
  5.9000
 20
  8.9000
 30
0.0
 42
  0.4142
 0
VERTEX
 8
PARTS
 10
  5.8500
 20
  8.9500
 30
0.0
 0
SEQEND
 8
PARTS
 0
POLYLINE
 8
PARTS
 66
1
 10
0.0
 20
0.0
 30
0.0
 0
VERTEX
 8
PARTS
 10
  5.9500
 20
  8.9500
 30
0.0
 42
  0.4142
 0
VERTEX
 8
PARTS
 10
  5.9000
 20
  8.9000
 30
0.0
 0
SEQEND
 8
PARTS
 0
POLYLINE
 8
PARTS
 66
1
 10
0.0
 20
0.0
 30
0.0
 0
VERTEX
 8
PARTS
 10
  6.0000
 20
  8.9000
 30
0.0
 42
  0.4142
 0
VERTEX
 8
PARTS
 10
  5.9500
 20
  8.9500
 30
0.0
 0
SEQEND
 8
PARTS
 0
POLYLINE
 8
PARTS
 66
1
 10
0.0
 20
0.0
 30
0.0
 0
VERTEX
 8
PARTS
 10
  6.0500
 20
  8.9500
 30
0.0
 42
  0.4142
 0
VERTEX
 8
PARTS
 10
  6.0000
 20
  8.9000
 30
0.0
 0
SEQEND
 8
PARTS
 0
POLYLINE
 8
PARTS
 66
1
 10
0.0
 20
0.0
 30
0.0
 0
VERTEX
 8
PARTS
 10
  6.1000
 20
  8.9000
 30
0.0
 42
  0.4142
 0
VERTEX
 8
PARTS
 10
  6.0500
 20
  8.9500
 30
0.0
 0
SEQEND
 8
PARTS
 0
TEXT
 8
PARTTEXT
 10
  3.2400
 20
  8.6286
 30
0.0
 40
  0.0514
 1
390pF
 0
LINE
 8
PARTS
 10
  3.1000
 20
  8.8000
 30
0.0
 11
  3.1000
 21
  8.7000
 31
0.0
 0
TEXT
 8
PARTS
 10
  3.0700
 20
  8.7600
 30
0.0
 40
  0.0500
 50
 90.0000
 1

 0
LINE
 8
PARTS
 10
  3.1000
 20
  8.5000
 30
0.0
 11
  3.1000
 21
  8.6000
 31
0.0
 0
TEXT
 8
PARTS
 10
  3.0700
 20
  8.4800
 30
0.0
 40
  0.0500
 50
 90.0000
 1

 0
POLYLINE
 8
PARTS
 66
1
 10
0.0
 20
0.0
 30
0.0
 0
VERTEX
 8
PARTS
 10
  3.1000
 20
  8.7000
 30
0.0
 0
VERTEX
 8
PARTS
 10
  3.1000
 20
  8.6800
 30
0.0
 0
SEQEND
 8
PARTS
 0
POLYLINE
 8
PARTS
 66
1
 10
0.0
 20
0.0
 30
0.0
 0
VERTEX
 8
PARTS
 10
  3.0100
 20
  8.6300
 30
0.0
 0
VERTEX
 8
PARTS
 10
  3.1900
 20
  8.6300
 30
0.0
 0
SEQEND
 8
PARTS
 0
POLYLINE
 8
PARTS
 66
1
 10
0.0
 20
0.0
 30
0.0
 0
VERTEX
 8
PARTS
 10
  3.0100
 20
  8.6800
 30
0.0
 0
VERTEX
 8
PARTS
 10
  3.1900
 20
  8.6800
 30
0.0
 0
SEQEND
 8
PARTS
 0
POLYLINE
 8
PARTS
 66
1
 10
0.0
 20
0.0
 30
0.0
 0
VERTEX
 8
PARTS
 10
  3.1000
 20
  8.6000
 30
0.0
 0
VERTEX
 8
PARTS
 10
  3.1000
 20
  8.6300
 30
0.0
 0
SEQEND
 8
PARTS
 0
TEXT
 8
PARTTEXT
 10
 10.5200
 20
  1.6486
 30
0.0
 40
  0.0514
 1
51,1%
 0
LINE
 8
PARTS
 10
 10.4000
 20
  1.4000
 30
0.0
 11
 10.4000
 21
  1.5000
 31
0.0
 0
TEXT
 8
PARTS
 10
 10.3700
 20
  1.3800
 30
0.0
 40
  0.0500
 50
 90.0000
 1

 0
LINE
 8
PARTS
 10
 10.4000
 20
  1.9000
 30
0.0
 11
 10.4000
 21
  1.8000
 31
0.0
 0
TEXT
 8
PARTS
 10
 10.3700
 20
  1.8600
 30
0.0
 40
  0.0500
 50
 90.0000
 1

 0
POLYLINE
 8
PARTS
 66
1
 10
0.0
 20
0.0
 30
0.0
 0
VERTEX
 8
PARTS
 10
 10.4000
 20
  1.5000
 30
0.0
 0
VERTEX
 8
PARTS
 10
 10.3700
 20
  1.5300
 30
0.0
 0
SEQEND
 8
PARTS
 0
POLYLINE
 8
PARTS
 66
1
 10
0.0
 20
0.0
 30
0.0
 0
VERTEX
 8
PARTS
 10
 10.3700
 20
  1.5300
 30
0.0
 0
VERTEX
 8
PARTS
 10
 10.4300
 20
  1.5900
 30
0.0
 0
SEQEND
 8
PARTS
 0
POLYLINE
 8
PARTS
 66
1
 10
0.0
 20
0.0
 30
0.0
 0
VERTEX
 8
PARTS
 10
 10.4300
 20
  1.5900
 30
0.0
 0
VERTEX
 8
PARTS
 10
 10.3700
 20
  1.6500
 30
0.0
 0
SEQEND
 8
PARTS
 0
POLYLINE
 8
PARTS
 66
1
 10
0.0
 20
0.0
 30
0.0
 0
VERTEX
 8
PARTS
 10
 10.3700
 20
  1.6500
 30
0.0
 0
VERTEX
 8
PARTS
 10
 10.4300
 20
  1.7100
 30
0.0
 0
SEQEND
 8
PARTS
 0
POLYLINE
 8
PARTS
 66
1
 10
0.0
 20
0.0
 30
0.0
 0
VERTEX
 8
PARTS
 10
 10.4300
 20
  1.7100
 30
0.0
 0
VERTEX
 8
PARTS
 10
 10.3700
 20
  1.7700
 30
0.0
 0
SEQEND
 8
PARTS
 0
POLYLINE
 8
PARTS
 66
1
 10
0.0
 20
0.0
 30
0.0
 0
VERTEX
 8
PARTS
 10
 10.3700
 20
  1.7700
 30
0.0
 0
VERTEX
 8
PARTS
 10
 10.4000
 20
  1.8000
 30
0.0
 0
SEQEND
 8
PARTS
 0
TEXT
 8
PARTTEXT
 10
  9.9600
 20
  0.7186
 30
0.0
 40
  0.0514
 1
.1uF
 0
LINE
 8
PARTS
 10
 10.4000
 20
  0.5000
 30
0.0
 11
 10.4000
 21
  0.6000
 31
0.0
 0
TEXT
 8
PARTS
 10
 10.3700
 20
  0.4800
 30
0.0
 40
  0.0500
 50
 90.0000
 1
1
 0
LINE
 8
PARTS
 10
 10.4000
 20
  0.9000
 30
0.0
 11
 10.4000
 21
  0.8000
 31
0.0
 0
TEXT
 8
PARTS
 10
 10.3700
 20
  0.8600
 30
0.0
 40
  0.0500
 50
 90.0000
 1
2
 0
POLYLINE
 8
PARTS
 66
1
 10
0.0
 20
0.0
 30
0.0
 0
VERTEX
 8
PARTS
 10
 10.4000
 20
  0.7400
 30
0.0
 0
VERTEX
 8
PARTS
 10
 10.4000
 20
  0.8000
 30
0.0
 0
SEQEND
 8
PARTS
 0
POLYLINE
 8
PARTS
 66
1
 10
0.0
 20
0.0
 30
0.0
 0
VERTEX
 8
PARTS
 10
 10.5000
 20
  0.7000
 30
0.0
 0
VERTEX
 8
PARTS
 10
 10.3000
 20
  0.7000
 30
0.0
 0
SEQEND
 8
PARTS
 0
POLYLINE
 8
PARTS
 66
1
 10
0.0
 20
0.0
 30
0.0
 0
VERTEX
 8
PARTS
 10
 10.4000
 20
  0.6000
 30
0.0
 0
VERTEX
 8
PARTS
 10
 10.4000
 20
  0.7000
 30
0.0
 0
SEQEND
 8
PARTS
 0
POLYLINE
 8
PARTS
 66
1
 10
0.0
 20
0.0
 30
0.0
 0
VERTEX
 8
PARTS
 10
 10.3000
 20
  0.7700
 30
0.0
 42
  0.1654
 0
VERTEX
 8
PARTS
 10
 10.4000
 20
  0.7400
 30
0.0
 0
SEQEND
 8
PARTS
 0
POLYLINE
 8
PARTS
 66
1
 10
0.0
 20
0.0
 30
0.0
 0
VERTEX
 8
PARTS
 10
 10.4000
 20
  0.7400
 30
0.0
 42
  0.1654
 0
VERTEX
 8
PARTS
 10
 10.5000
 20
  0.7700
 30
0.0
 0
SEQEND
 8
PARTS
 0
TEXT
 8
PARTTEXT
 10
 10.3700
 20
  0.7014
 30
0.0
 40
  0.0514
 50
180.0000
 1
+
 0
TEXT
 8
PARTTEXT
 10
  4.8000
 20
  4.7886
 30
0.0
 40
  0.0514
 1
650nH
 0
LINE
 8
PARTS
 10
  4.7000
 20
  4.7000
 30
0.0
 11
  4.8000
 21
  4.7000
 31
0.0
 0
TEXT
 8
PARTS
 10
  4.7400
 20
  4.7300
 30
0.0
 40
  0.0500
 1

 0
LINE
 8
PARTS
 10
  5.3000
 20
  4.7000
 30
0.0
 11
  5.2000
 21
  4.7000
 31
0.0
 0
TEXT
 8
PARTS
 10
  5.2600
 20
  4.7300
 30
0.0
 40
  0.0500
 1

 0
POLYLINE
 8
PARTS
 66
1
 10
0.0
 20
0.0
 30
0.0
 0
VERTEX
 8
PARTS
 10
  4.8500
 20
  4.7500
 30
0.0
 42
  0.4142
 0
VERTEX
 8
PARTS
 10
  4.8000
 20
  4.7000
 30
0.0
 0
SEQEND
 8
PARTS
 0
POLYLINE
 8
PARTS
 66
1
 10
0.0
 20
0.0
 30
0.0
 0
VERTEX
 8
PARTS
 10
  4.9000
 20
  4.7000
 30
0.0
 42
  0.4142
 0
VERTEX
 8
PARTS
 10
  4.8500
 20
  4.7500
 30
0.0
 0
SEQEND
 8
PARTS
 0
POLYLINE
 8
PARTS
 66
1
 10
0.0
 20
0.0
 30
0.0
 0
VERTEX
 8
PARTS
 10
  4.9500
 20
  4.7500
 30
0.0
 42
  0.4142
 0
VERTEX
 8
PARTS
 10
  4.9000
 20
  4.7000
 30
0.0
 0
SEQEND
 8
PARTS
 0
POLYLINE
 8
PARTS
 66
1
 10
0.0
 20
0.0
 30
0.0
 0
VERTEX
 8
PARTS
 10
  5.0000
 20
  4.7000
 30
0.0
 42
  0.4142
 0
VERTEX
 8
PARTS
 10
  4.9500
 20
  4.7500
 30
0.0
 0
SEQEND
 8
PARTS
 0
POLYLINE
 8
PARTS
 66
1
 10
0.0
 20
0.0
 30
0.0
 0
VERTEX
 8
PARTS
 10
  5.0500
 20
  4.7500
 30
0.0
 42
  0.4142
 0
VERTEX
 8
PARTS
 10
  5.0000
 20
  4.7000
 30
0.0
 0
SEQEND
 8
PARTS
 0
POLYLINE
 8
PARTS
 66
1
 10
0.0
 20
0.0
 30
0.0
 0
VERTEX
 8
PARTS
 10
  5.1000
 20
  4.7000
 30
0.0
 42
  0.4142
 0
VERTEX
 8
PARTS
 10
  5.0500
 20
  4.7500
 30
0.0
 0
SEQEND
 8
PARTS
 0
POLYLINE
 8
PARTS
 66
1
 10
0.0
 20
0.0
 30
0.0
 0
VERTEX
 8
PARTS
 10
  5.1500
 20
  4.7500
 30
0.0
 42
  0.4142
 0
VERTEX
 8
PARTS
 10
  5.1000
 20
  4.7000
 30
0.0
 0
SEQEND
 8
PARTS
 0
POLYLINE
 8
PARTS
 66
1
 10
0.0
 20
0.0
 30
0.0
 0
VERTEX
 8
PARTS
 10
  5.2000
 20
  4.7000
 30
0.0
 42
  0.4142
 0
VERTEX
 8
PARTS
 10
  5.1500
 20
  4.7500
 30
0.0
 0
SEQEND
 8
PARTS
 0
TEXT
 8
PARTTEXT
 10
  1.6000
 20
  4.7886
 30
0.0
 40
  0.0514
 1
525nH
 0
LINE
 8
PARTS
 10
  1.5000
 20
  4.7000
 30
0.0
 11
  1.6000
 21
  4.7000
 31
0.0
 0
TEXT
 8
PARTS
 10
  1.5400
 20
  4.7300
 30
0.0
 40
  0.0500
 1

 0
LINE
 8
PARTS
 10
  2.1000
 20
  4.7000
 30
0.0
 11
  2.0000
 21
  4.7000
 31
0.0
 0
TEXT
 8
PARTS
 10
  2.0600
 20
  4.7300
 30
0.0
 40
  0.0500
 1

 0
POLYLINE
 8
PARTS
 66
1
 10
0.0
 20
0.0
 30
0.0
 0
VERTEX
 8
PARTS
 10
  1.6500
 20
  4.7500
 30
0.0
 42
  0.4142
 0
VERTEX
 8
PARTS
 10
  1.6000
 20
  4.7000
 30
0.0
 0
SEQEND
 8
PARTS
 0
POLYLINE
 8
PARTS
 66
1
 10
0.0
 20
0.0
 30
0.0
 0
VERTEX
 8
PARTS
 10
  1.7000
 20
  4.7000
 30
0.0
 42
  0.4142
 0
VERTEX
 8
PARTS
 10
  1.6500
 20
  4.7500
 30
0.0
 0
SEQEND
 8
PARTS
 0
POLYLINE
 8
PARTS
 66
1
 10
0.0
 20
0.0
 30
0.0
 0
VERTEX
 8
PARTS
 10
  1.7500
 20
  4.7500
 30
0.0
 42
  0.4142
 0
VERTEX
 8
PARTS
 10
  1.7000
 20
  4.7000
 30
0.0
 0
SEQEND
 8
PARTS
 0
POLYLINE
 8
PARTS
 66
1
 10
0.0
 20
0.0
 30
0.0
 0
VERTEX
 8
PARTS
 10
  1.8000
 20
  4.7000
 30
0.0
 42
  0.4142
 0
VERTEX
 8
PARTS
 10
  1.7500
 20
  4.7500
 30
0.0
 0
SEQEND
 8
PARTS
 0
POLYLINE
 8
PARTS
 66
1
 10
0.0
 20
0.0
 30
0.0
 0
VERTEX
 8
PARTS
 10
  1.8500
 20
  4.7500
 30
0.0
 42
  0.4142
 0
VERTEX
 8
PARTS
 10
  1.8000
 20
  4.7000
 30
0.0
 0
SEQEND
 8
PARTS
 0
POLYLINE
 8
PARTS
 66
1
 10
0.0
 20
0.0
 30
0.0
 0
VERTEX
 8
PARTS
 10
  1.9000
 20
  4.7000
 30
0.0
 42
  0.4142
 0
VERTEX
 8
PARTS
 10
  1.8500
 20
  4.7500
 30
0.0
 0
SEQEND
 8
PARTS
 0
POLYLINE
 8
PARTS
 66
1
 10
0.0
 20
0.0
 30
0.0
 0
VERTEX
 8
PARTS
 10
  1.9500
 20
  4.7500
 30
0.0
 42
  0.4142
 0
VERTEX
 8
PARTS
 10
  1.9000
 20
  4.7000
 30
0.0
 0
SEQEND
 8
PARTS
 0
POLYLINE
 8
PARTS
 66
1
 10
0.0
 20
0.0
 30
0.0
 0
VERTEX
 8
PARTS
 10
  2.0000
 20
  4.7000
 30
0.0
 42
  0.4142
 0
VERTEX
 8
PARTS
 10
  1.9500
 20
  4.7500
 30
0.0
 0
SEQEND
 8
PARTS
 0
TEXT
 8
PARTTEXT
 10
  9.8500
 20
  6.7086
 30
0.0
 40
  0.0514
 1
51
 0
LINE
 8
PARTS
 10
  9.7000
 20
  6.9000
 30
0.0
 11
  9.8000
 21
  6.9000
 31
0.0
 0
TEXT
 8
PARTS
 10
  9.7400
 20
  6.9300
 30
0.0
 40
  0.0500
 1

 0
LINE
 8
PARTS
 10
 10.2000
 20
  6.9000
 30
0.0
 11
 10.1000
 21
  6.9000
 31
0.0
 0
TEXT
 8
PARTS
 10
 10.1600
 20
  6.9300
 30
0.0
 40
  0.0500
 1

 0
POLYLINE
 8
PARTS
 66
1
 10
0.0
 20
0.0
 30
0.0
 0
VERTEX
 8
PARTS
 10
  9.8000
 20
  6.9000
 30
0.0
 0
VERTEX
 8
PARTS
 10
  9.8300
 20
  6.9300
 30
0.0
 0
SEQEND
 8
PARTS
 0
POLYLINE
 8
PARTS
 66
1
 10
0.0
 20
0.0
 30
0.0
 0
VERTEX
 8
PARTS
 10
  9.8300
 20
  6.9300
 30
0.0
 0
VERTEX
 8
PARTS
 10
  9.8900
 20
  6.8700
 30
0.0
 0
SEQEND
 8
PARTS
 0
POLYLINE
 8
PARTS
 66
1
 10
0.0
 20
0.0
 30
0.0
 0
VERTEX
 8
PARTS
 10
  9.8900
 20
  6.8700
 30
0.0
 0
VERTEX
 8
PARTS
 10
  9.9500
 20
  6.9300
 30
0.0
 0
SEQEND
 8
PARTS
 0
POLYLINE
 8
PARTS
 66
1
 10
0.0
 20
0.0
 30
0.0
 0
VERTEX
 8
PARTS
 10
  9.9500
 20
  6.9300
 30
0.0
 0
VERTEX
 8
PARTS
 10
 10.0100
 20
  6.8700
 30
0.0
 0
SEQEND
 8
PARTS
 0
POLYLINE
 8
PARTS
 66
1
 10
0.0
 20
0.0
 30
0.0
 0
VERTEX
 8
PARTS
 10
 10.0100
 20
  6.8700
 30
0.0
 0
VERTEX
 8
PARTS
 10
 10.0700
 20
  6.9300
 30
0.0
 0
SEQEND
 8
PARTS
 0
POLYLINE
 8
PARTS
 66
1
 10
0.0
 20
0.0
 30
0.0
 0
VERTEX
 8
PARTS
 10
 10.0700
 20
  6.9300
 30
0.0
 0
VERTEX
 8
PARTS
 10
 10.1000
 20
  6.9000
 30
0.0
 0
SEQEND
 8
PARTS
 0
TEXT
 8
PARTTEXT
 10
 10.1900
 20
  4.9086
 30
0.0
 40
  0.0514
 1
U2A
 0
TEXT
 8
PARTTEXT
 10
 10.1900
 20
  4.8186
 30
0.0
 40
  0.0514
 1
CLC412
 0
LINE
 8
PARTS
 10
  9.4000
 20
  4.7000
 30
0.0
 11
  9.7000
 21
  4.7000
 31
0.0
 0
TEXT
 8
PARTS
 10
  9.6000
 20
  4.7300
 30
0.0
 40
  0.0500
 1
3
 0
LINE
 8
PARTS
 10
  9.4000
 20
  4.5000
 30
0.0
 11
  9.7000
 21
  4.5000
 31
0.0
 0
TEXT
 8
PARTS
 10
  9.6000
 20
  4.5300
 30
0.0
 40
  0.0500
 1
2
 0
LINE
 8
PARTS
 10
 10.4000
 20
  4.6000
 30
0.0
 11
 10.1000
 21
  4.6000
 31
0.0
 0
TEXT
 8
PARTS
 10
 10.1600
 20
  4.6300
 30
0.0
 40
  0.0500
 1
1
 0
LINE
 8
PARTS
 10
  9.8000
 20
  5.1000
 30
0.0
 11
  9.8000
 21
  4.8000
 31
0.0
 0
TEXT
 8
PARTS
 10
  9.7700
 20
  4.8600
 30
0.0
 40
  0.0500
 50
 90.0000
 1
8
 0
LINE
 8
PARTS
 10
  9.8000
 20
  4.1000
 30
0.0
 11
  9.8000
 21
  4.4000
 31
0.0
 0
TEXT
 8
PARTS
 10
  9.7700
 20
  4.2800
 30
0.0
 40
  0.0500
 50
 90.0000
 1
4
 0
POLYLINE
 8
PARTS
 66
1
 10
0.0
 20
0.0
 30
0.0
 0
VERTEX
 8
PARTS
 10
  9.7000
 20
  4.8000
 30
0.0
 0
VERTEX
 8
PARTS
 10
 10.1000
 20
  4.6000
 30
0.0
 0
SEQEND
 8
PARTS
 0
POLYLINE
 8
PARTS
 66
1
 10
0.0
 20
0.0
 30
0.0
 0
VERTEX
 8
PARTS
 10
 10.1000
 20
  4.6000
 30
0.0
 0
VERTEX
 8
PARTS
 10
  9.7000
 20
  4.4000
 30
0.0
 0
SEQEND
 8
PARTS
 0
POLYLINE
 8
PARTS
 66
1
 10
0.0
 20
0.0
 30
0.0
 0
VERTEX
 8
PARTS
 10
  9.7000
 20
  4.4000
 30
0.0
 0
VERTEX
 8
PARTS
 10
  9.7000
 20
  4.8000
 30
0.0
 0
SEQEND
 8
PARTS
 0
POLYLINE
 8
PARTS
 66
1
 10
0.0
 20
0.0
 30
0.0
 0
VERTEX
 8
PARTS
 10
  9.8000
 20
  4.8000
 30
0.0
 0
VERTEX
 8
PARTS
 10
  9.8000
 20
  4.7500
 30
0.0
 0
SEQEND
 8
PARTS
 0
POLYLINE
 8
PARTS
 66
1
 10
0.0
 20
0.0
 30
0.0
 0
VERTEX
 8
PARTS
 10
  9.8000
 20
  4.4500
 30
0.0
 0
VERTEX
 8
PARTS
 10
  9.8000
 20
  4.4000
 30
0.0
 0
SEQEND
 8
PARTS
 0
TEXT
 8
PARTTEXT
 10
  9.7300
 20
  4.6486
 30
0.0
 40
  0.0514
 1
+
 0
TEXT
 8
PARTTEXT
 10
  9.7300
 20
  4.4486
 30
0.0
 40
  0.0514
 1
-
 0
LINE
 8
PARTS
 10
  8.0000
 20
  8.9000
 30
0.0
 11
  7.9000
 21
  8.9000
 31
0.0
 0
TEXT
 8
PARTS
 10
  7.9600
 20
  8.9300
 30
0.0
 40
  0.0500
 1

 0
LINE
 8
PARTS
 10
  7.8000
 20
  8.7000
 30
0.0
 11
  7.8000
 21
  8.8000
 31
0.0
 0
TEXT
 8
PARTS
 10
  7.7700
 20
  8.6800
 30
0.0
 40
  0.0500
 50
 90.0000
 1

 0
POLYLINE
 8
PARTS
 66
1
 70
1
 10
0.0
 20
0.0
 30
0.0
 0
VERTEX
 8
PARTS
 10
  7.8300
 20
  8.9000
 30
0.0
 42
  0.0985
 0
VERTEX
 8
PARTS
 10
  7.8277
 20
  8.9115
 30
0.0
 42
  0.0985
 0
VERTEX
 8
PARTS
 10
  7.8212
 20
  8.9212
 30
0.0
 42
  0.0985
 0
VERTEX
 8
PARTS
 10
  7.8115
 20
  8.9277
 30
0.0
 42
  0.0985
 0
VERTEX
 8
PARTS
 10
  7.8000
 20
  8.9300
 30
0.0
 42
  0.0985
 0
VERTEX
 8
PARTS
 10
  7.7885
 20
  8.9277
 30
0.0
 42
  0.0985
 0
VERTEX
 8
PARTS
 10
  7.7788
 20
  8.9212
 30
0.0
 42
  0.0985
 0
VERTEX
 8
PARTS
 10
  7.7723
 20
  8.9115
 30
0.0
 42
  0.0985
 0
VERTEX
 8
PARTS
 10
  7.7700
 20
  8.9000
 30
0.0
 42
  0.0985
 0
VERTEX
 8
PARTS
 10
  7.7723
 20
  8.8885
 30
0.0
 42
  0.0985
 0
VERTEX
 8
PARTS
 10
  7.7788
 20
  8.8788
 30
0.0
 42
  0.0985
 0
VERTEX
 8
PARTS
 10
  7.7885
 20
  8.8723
 30
0.0
 42
  0.0985
 0
VERTEX
 8
PARTS
 10
  7.8000
 20
  8.8700
 30
0.0
 42
  0.0985
 0
VERTEX
 8
PARTS
 10
  7.8115
 20
  8.8723
 30
0.0
 42
  0.0985
 0
VERTEX
 8
PARTS
 10
  7.8212
 20
  8.8788
 30
0.0
 42
  0.0985
 0
VERTEX
 8
PARTS
 10
  7.8277
 20
  8.8885
 30
0.0
 42
  0.0985
 0
SEQEND
 8
PARTS
 0
POLYLINE
 8
PARTS
 66
1
 10
0.0
 20
0.0
 30
0.0
 0
VERTEX
 8
PARTS
 10
  7.9000
 20
  8.9000
 30
0.0
 0
VERTEX
 8
PARTS
 10
  7.8300
 20
  8.9000
 30
0.0
 0
SEQEND
 8
PARTS
 0
POLYLINE
 8
PARTS
 66
1
 70
1
 10
0.0
 20
0.0
 30
0.0
 0
VERTEX
 8
PARTS
 10
  7.9000
 20
  8.9000
 30
0.0
 42
  0.0985
 0
VERTEX
 8
PARTS
 10
  7.8924
 20
  8.9383
 30
0.0
 42
  0.0985
 0
VERTEX
 8
PARTS
 10
  7.8707
 20
  8.9707
 30
0.0
 42
  0.0985
 0
VERTEX
 8
PARTS
 10
  7.8383
 20
  8.9924
 30
0.0
 42
  0.0985
 0
VERTEX
 8
PARTS
 10
  7.8000
 20
  9.0000
 30
0.0
 42
  0.0985
 0
VERTEX
 8
PARTS
 10
  7.7617
 20
  8.9924
 30
0.0
 42
  0.0985
 0
VERTEX
 8
PARTS
 10
  7.7293
 20
  8.9707
 30
0.0
 42
  0.0985
 0
VERTEX
 8
PARTS
 10
  7.7076
 20
  8.9383
 30
0.0
 42
  0.0985
 0
VERTEX
 8
PARTS
 10
  7.7000
 20
  8.9000
 30
0.0
 42
  0.0985
 0
VERTEX
 8
PARTS
 10
  7.7076
 20
  8.8617
 30
0.0
 42
  0.0985
 0
VERTEX
 8
PARTS
 10
  7.7293
 20
  8.8293
 30
0.0
 42
  0.0985
 0
VERTEX
 8
PARTS
 10
  7.7617
 20
  8.8076
 30
0.0
 42
  0.0985
 0
VERTEX
 8
PARTS
 10
  7.8000
 20
  8.8000
 30
0.0
 42
  0.0985
 0
VERTEX
 8
PARTS
 10
  7.8383
 20
  8.8076
 30
0.0
 42
  0.0985
 0
VERTEX
 8
PARTS
 10
  7.8707
 20
  8.8293
 30
0.0
 42
  0.0985
 0
VERTEX
 8
PARTS
 10
  7.8924
 20
  8.8617
 30
0.0
 42
  0.0985
 0
SEQEND
 8
PARTS
 0
LINE
 8
PARTS
 10
  1.3000
 20
  8.9000
 30
0.0
 11
  1.2000
 21
  8.9000
 31
0.0
 0
TEXT
 8
PARTS
 10
  1.2600
 20
  8.9300
 30
0.0
 40
  0.0500
 1

 0
LINE
 8
PARTS
 10
  1.1000
 20
  8.5000
 30
0.0
 11
  1.1000
 21
  8.8000
 31
0.0
 0
TEXT
 8
PARTS
 10
  1.0700
 20
  8.6800
 30
0.0
 40
  0.0500
 50
 90.0000
 1

 0
POLYLINE
 8
PARTS
 66
1
 70
1
 10
0.0
 20
0.0
 30
0.0
 0
VERTEX
 8
PARTS
 10
  1.1300
 20
  8.9000
 30
0.0
 42
  0.0985
 0
VERTEX
 8
PARTS
 10
  1.1277
 20
  8.9115
 30
0.0
 42
  0.0985
 0
VERTEX
 8
PARTS
 10
  1.1212
 20
  8.9212
 30
0.0
 42
  0.0985
 0
VERTEX
 8
PARTS
 10
  1.1115
 20
  8.9277
 30
0.0
 42
  0.0985
 0
VERTEX
 8
PARTS
 10
  1.1000
 20
  8.9300
 30
0.0
 42
  0.0985
 0
VERTEX
 8
PARTS
 10
  1.0885
 20
  8.9277
 30
0.0
 42
  0.0985
 0
VERTEX
 8
PARTS
 10
  1.0788
 20
  8.9212
 30
0.0
 42
  0.0985
 0
VERTEX
 8
PARTS
 10
  1.0723
 20
  8.9115
 30
0.0
 42
  0.0985
 0
VERTEX
 8
PARTS
 10
  1.0700
 20
  8.9000
 30
0.0
 42
  0.0985
 0
VERTEX
 8
PARTS
 10
  1.0723
 20
  8.8885
 30
0.0
 42
  0.0985
 0
VERTEX
 8
PARTS
 10
  1.0788
 20
  8.8788
 30
0.0
 42
  0.0985
 0
VERTEX
 8
PARTS
 10
  1.0885
 20
  8.8723
 30
0.0
 42
  0.0985
 0
VERTEX
 8
PARTS
 10
  1.1000
 20
  8.8700
 30
0.0
 42
  0.0985
 0
VERTEX
 8
PARTS
 10
  1.1115
 20
  8.8723
 30
0.0
 42
  0.0985
 0
VERTEX
 8
PARTS
 10
  1.1212
 20
  8.8788
 30
0.0
 42
  0.0985
 0
VERTEX
 8
PARTS
 10
  1.1277
 20
  8.8885
 30
0.0
 42
  0.0985
 0
SEQEND
 8
PARTS
 0
POLYLINE
 8
PARTS
 66
1
 10
0.0
 20
0.0
 30
0.0
 0
VERTEX
 8
PARTS
 10
  1.2000
 20
  8.9000
 30
0.0
 0
VERTEX
 8
PARTS
 10
  1.1300
 20
  8.9000
 30
0.0
 0
SEQEND
 8
PARTS
 0
POLYLINE
 8
PARTS
 66
1
 70
1
 10
0.0
 20
0.0
 30
0.0
 0
VERTEX
 8
PARTS
 10
  1.2000
 20
  8.9000
 30
0.0
 42
  0.0985
 0
VERTEX
 8
PARTS
 10
  1.1924
 20
  8.9383
 30
0.0
 42
  0.0985
 0
VERTEX
 8
PARTS
 10
  1.1707
 20
  8.9707
 30
0.0
 42
  0.0985
 0
VERTEX
 8
PARTS
 10
  1.1383
 20
  8.9924
 30
0.0
 42
  0.0985
 0
VERTEX
 8
PARTS
 10
  1.1000
 20
  9.0000
 30
0.0
 42
  0.0985
 0
VERTEX
 8
PARTS
 10
  1.0617
 20
  8.9924
 30
0.0
 42
  0.0985
 0
VERTEX
 8
PARTS
 10
  1.0293
 20
  8.9707
 30
0.0
 42
  0.0985
 0
VERTEX
 8
PARTS
 10
  1.0076
 20
  8.9383
 30
0.0
 42
  0.0985
 0
VERTEX
 8
PARTS
 10
  1.0000
 20
  8.9000
 30
0.0
 42
  0.0985
 0
VERTEX
 8
PARTS
 10
  1.0076
 20
  8.8617
 30
0.0
 42
  0.0985
 0
VERTEX
 8
PARTS
 10
  1.0293
 20
  8.8293
 30
0.0
 42
  0.0985
 0
VERTEX
 8
PARTS
 10
  1.0617
 20
  8.8076
 30
0.0
 42
  0.0985
 0
VERTEX
 8
PARTS
 10
  1.1000
 20
  8.8000
 30
0.0
 42
  0.0985
 0
VERTEX
 8
PARTS
 10
  1.1383
 20
  8.8076
 30
0.0
 42
  0.0985
 0
VERTEX
 8
PARTS
 10
  1.1707
 20
  8.8293
 30
0.0
 42
  0.0985
 0
VERTEX
 8
PARTS
 10
  1.1924
 20
  8.8617
 30
0.0
 42
  0.0985
 0
SEQEND
 8
PARTS
 0
TEXT
 8
PARTTEXT
 10
  4.9000
 20
  8.9886
 30
0.0
 40
  0.0514
 1
490nH
 0
LINE
 8
PARTS
 10
  4.8000
 20
  8.9000
 30
0.0
 11
  4.9000
 21
  8.9000
 31
0.0
 0
TEXT
 8
PARTS
 10
  4.8400
 20
  8.9300
 30
0.0
 40
  0.0500
 1

 0
LINE
 8
PARTS
 10
  5.4000
 20
  8.9000
 30
0.0
 11
  5.3000
 21
  8.9000
 31
0.0
 0
TEXT
 8
PARTS
 10
  5.3600
 20
  8.9300
 30
0.0
 40
  0.0500
 1

 0
POLYLINE
 8
PARTS
 66
1
 10
0.0
 20
0.0
 30
0.0
 0
VERTEX
 8
PARTS
 10
  4.9500
 20
  8.9500
 30
0.0
 42
  0.4142
 0
VERTEX
 8
PARTS
 10
  4.9000
 20
  8.9000
 30
0.0
 0
SEQEND
 8
PARTS
 0
POLYLINE
 8
PARTS
 66
1
 10
0.0
 20
0.0
 30
0.0
 0
VERTEX
 8
PARTS
 10
  5.0000
 20
  8.9000
 30
0.0
 42
  0.4142
 0
VERTEX
 8
PARTS
 10
  4.9500
 20
  8.9500
 30
0.0
 0
SEQEND
 8
PARTS
 0
POLYLINE
 8
PARTS
 66
1
 10
0.0
 20
0.0
 30
0.0
 0
VERTEX
 8
PARTS
 10
  5.0500
 20
  8.9500
 30
0.0
 42
  0.4142
 0
VERTEX
 8
PARTS
 10
  5.0000
 20
  8.9000
 30
0.0
 0
SEQEND
 8
PARTS
 0
POLYLINE
 8
PARTS
 66
1
 10
0.0
 20
0.0
 30
0.0
 0
VERTEX
 8
PARTS
 10
  5.1000
 20
  8.9000
 30
0.0
 42
  0.4142
 0
VERTEX
 8
PARTS
 10
  5.0500
 20
  8.9500
 30
0.0
 0
SEQEND
 8
PARTS
 0
POLYLINE
 8
PARTS
 66
1
 10
0.0
 20
0.0
 30
0.0
 0
VERTEX
 8
PARTS
 10
  5.1500
 20
  8.9500
 30
0.0
 42
  0.4142
 0
VERTEX
 8
PARTS
 10
  5.1000
 20
  8.9000
 30
0.0
 0
SEQEND
 8
PARTS
 0
POLYLINE
 8
PARTS
 66
1
 10
0.0
 20
0.0
 30
0.0
 0
VERTEX
 8
PARTS
 10
  5.2000
 20
  8.9000
 30
0.0
 42
  0.4142
 0
VERTEX
 8
PARTS
 10
  5.1500
 20
  8.9500
 30
0.0
 0
SEQEND
 8
PARTS
 0
POLYLINE
 8
PARTS
 66
1
 10
0.0
 20
0.0
 30
0.0
 0
VERTEX
 8
PARTS
 10
  5.2500
 20
  8.9500
 30
0.0
 42
  0.4142
 0
VERTEX
 8
PARTS
 10
  5.2000
 20
  8.9000
 30
0.0
 0
SEQEND
 8
PARTS
 0
POLYLINE
 8
PARTS
 66
1
 10
0.0
 20
0.0
 30
0.0
 0
VERTEX
 8
PARTS
 10
  5.3000
 20
  8.9000
 30
0.0
 42
  0.4142
 0
VERTEX
 8
PARTS
 10
  5.2500
 20
  8.9500
 30
0.0
 0
SEQEND
 8
PARTS
 0
LINE
 8
PARTS
 10
 10.2000
 20
  8.8000
 30
0.0
 11
 10.3000
 21
  8.8000
 31
0.0
 0
TEXT
 8
PARTS
 10
 10.2400
 20
  8.8300
 30
0.0
 40
  0.0500
 1

 0
LINE
 8
PARTS
 10
 10.4000
 20
  8.6000
 30
0.0
 11
 10.4000
 21
  8.7000
 31
0.0
 0
TEXT
 8
PARTS
 10
 10.3700
 20
  8.5800
 30
0.0
 40
  0.0500
 50
 90.0000
 1

 0
POLYLINE
 8
PARTS
 66
1
 70
1
 10
0.0
 20
0.0
 30
0.0
 0
VERTEX
 8
PARTS
 10
 10.4300
 20
  8.8000
 30
0.0
 42
  0.0985
 0
VERTEX
 8
PARTS
 10
 10.4277
 20
  8.8115
 30
0.0
 42
  0.0985
 0
VERTEX
 8
PARTS
 10
 10.4212
 20
  8.8212
 30
0.0
 42
  0.0985
 0
VERTEX
 8
PARTS
 10
 10.4115
 20
  8.8277
 30
0.0
 42
  0.0985
 0
VERTEX
 8
PARTS
 10
 10.4000
 20
  8.8300
 30
0.0
 42
  0.0985
 0
VERTEX
 8
PARTS
 10
 10.3885
 20
  8.8277
 30
0.0
 42
  0.0985
 0
VERTEX
 8
PARTS
 10
 10.3788
 20
  8.8212
 30
0.0
 42
  0.0985
 0
VERTEX
 8
PARTS
 10
 10.3723
 20
  8.8115
 30
0.0
 42
  0.0985
 0
VERTEX
 8
PARTS
 10
 10.3700
 20
  8.8000
 30
0.0
 42
  0.0985
 0
VERTEX
 8
PARTS
 10
 10.3723
 20
  8.7885
 30
0.0
 42
  0.0985
 0
VERTEX
 8
PARTS
 10
 10.3788
 20
  8.7788
 30
0.0
 42
  0.0985
 0
VERTEX
 8
PARTS
 10
 10.3885
 20
  8.7723
 30
0.0
 42
  0.0985
 0
VERTEX
 8
PARTS
 10
 10.4000
 20
  8.7700
 30
0.0
 42
  0.0985
 0
VERTEX
 8
PARTS
 10
 10.4115
 20
  8.7723
 30
0.0
 42
  0.0985
 0
VERTEX
 8
PARTS
 10
 10.4212
 20
  8.7788
 30
0.0
 42
  0.0985
 0
VERTEX
 8
PARTS
 10
 10.4277
 20
  8.7885
 30
0.0
 42
  0.0985
 0
SEQEND
 8
PARTS
 0
POLYLINE
 8
PARTS
 66
1
 10
0.0
 20
0.0
 30
0.0
 0
VERTEX
 8
PARTS
 10
 10.3000
 20
  8.8000
 30
0.0
 0
VERTEX
 8
PARTS
 10
 10.3700
 20
  8.8000
 30
0.0
 0
SEQEND
 8
PARTS
 0
POLYLINE
 8
PARTS
 66
1
 70
1
 10
0.0
 20
0.0
 30
0.0
 0
VERTEX
 8
PARTS
 10
 10.5000
 20
  8.8000
 30
0.0
 42
  0.0985
 0
VERTEX
 8
PARTS
 10
 10.4924
 20
  8.8383
 30
0.0
 42
  0.0985
 0
VERTEX
 8
PARTS
 10
 10.4707
 20
  8.8707
 30
0.0
 42
  0.0985
 0
VERTEX
 8
PARTS
 10
 10.4383
 20
  8.8924
 30
0.0
 42
  0.0985
 0
VERTEX
 8
PARTS
 10
 10.4000
 20
  8.9000
 30
0.0
 42
  0.0985
 0
VERTEX
 8
PARTS
 10
 10.3617
 20
  8.8924
 30
0.0
 42
  0.0985
 0
VERTEX
 8
PARTS
 10
 10.3293
 20
  8.8707
 30
0.0
 42
  0.0985
 0
VERTEX
 8
PARTS
 10
 10.3076
 20
  8.8383
 30
0.0
 42
  0.0985
 0
VERTEX
 8
PARTS
 10
 10.3000
 20
  8.8000
 30
0.0
 42
  0.0985
 0
VERTEX
 8
PARTS
 10
 10.3076
 20
  8.7617
 30
0.0
 42
  0.0985
 0
VERTEX
 8
PARTS
 10
 10.3293
 20
  8.7293
 30
0.0
 42
  0.0985
 0
VERTEX
 8
PARTS
 10
 10.3617
 20
  8.7076
 30
0.0
 42
  0.0985
 0
VERTEX
 8
PARTS
 10
 10.4000
 20
  8.7000
 30
0.0
 42
  0.0985
 0
VERTEX
 8
PARTS
 10
 10.4383
 20
  8.7076
 30
0.0
 42
  0.0985
 0
VERTEX
 8
PARTS
 10
 10.4707
 20
  8.7293
 30
0.0
 42
  0.0985
 0
VERTEX
 8
PARTS
 10
 10.4924
 20
  8.7617
 30
0.0
 42
  0.0985
 0
SEQEND
 8
PARTS
 0
TEXT
 8
PARTTEXT
 10
 10.5200
 20
  3.5486
 30
0.0
 40
  0.0514
 1
51,1%
 0
LINE
 8
PARTS
 10
 10.4000
 20
  3.3000
 30
0.0
 11
 10.4000
 21
  3.4000
 31
0.0
 0
TEXT
 8
PARTS
 10
 10.3700
 20
  3.2800
 30
0.0
 40
  0.0500
 50
 90.0000
 1

 0
LINE
 8
PARTS
 10
 10.4000
 20
  3.8000
 30
0.0
 11
 10.4000
 21
  3.7000
 31
0.0
 0
TEXT
 8
PARTS
 10
 10.3700
 20
  3.7600
 30
0.0
 40
  0.0500
 50
 90.0000
 1

 0
POLYLINE
 8
PARTS
 66
1
 10
0.0
 20
0.0
 30
0.0
 0
VERTEX
 8
PARTS
 10
 10.4000
 20
  3.4000
 30
0.0
 0
VERTEX
 8
PARTS
 10
 10.3700
 20
  3.4300
 30
0.0
 0
SEQEND
 8
PARTS
 0
POLYLINE
 8
PARTS
 66
1
 10
0.0
 20
0.0
 30
0.0
 0
VERTEX
 8
PARTS
 10
 10.3700
 20
  3.4300
 30
0.0
 0
VERTEX
 8
PARTS
 10
 10.4300
 20
  3.4900
 30
0.0
 0
SEQEND
 8
PARTS
 0
POLYLINE
 8
PARTS
 66
1
 10
0.0
 20
0.0
 30
0.0
 0
VERTEX
 8
PARTS
 10
 10.4300
 20
  3.4900
 30
0.0
 0
VERTEX
 8
PARTS
 10
 10.3700
 20
  3.5500
 30
0.0
 0
SEQEND
 8
PARTS
 0
POLYLINE
 8
PARTS
 66
1
 10
0.0
 20
0.0
 30
0.0
 0
VERTEX
 8
PARTS
 10
 10.3700
 20
  3.5500
 30
0.0
 0
VERTEX
 8
PARTS
 10
 10.4300
 20
  3.6100
 30
0.0
 0
SEQEND
 8
PARTS
 0
POLYLINE
 8
PARTS
 66
1
 10
0.0
 20
0.0
 30
0.0
 0
VERTEX
 8
PARTS
 10
 10.4300
 20
  3.6100
 30
0.0
 0
VERTEX
 8
PARTS
 10
 10.3700
 20
  3.6700
 30
0.0
 0
SEQEND
 8
PARTS
 0
POLYLINE
 8
PARTS
 66
1
 10
0.0
 20
0.0
 30
0.0
 0
VERTEX
 8
PARTS
 10
 10.3700
 20
  3.6700
 30
0.0
 0
VERTEX
 8
PARTS
 10
 10.4000
 20
  3.7000
 30
0.0
 0
SEQEND
 8
PARTS
 0
TEXT
 8
PARTTEXT
 10
  5.5400
 20
  4.4286
 30
0.0
 40
  0.0514
 1
290pF
 0
LINE
 8
PARTS
 10
  5.4000
 20
  4.6000
 30
0.0
 11
  5.4000
 21
  4.5000
 31
0.0
 0
TEXT
 8
PARTS
 10
  5.3700
 20
  4.5600
 30
0.0
 40
  0.0500
 50
 90.0000
 1

 0
LINE
 8
PARTS
 10
  5.4000
 20
  4.3000
 30
0.0
 11
  5.4000
 21
  4.4000
 31
0.0
 0
TEXT
 8
PARTS
 10
  5.3700
 20
  4.2800
 30
0.0
 40
  0.0500
 50
 90.0000
 1

 0
POLYLINE
 8
PARTS
 66
1
 10
0.0
 20
0.0
 30
0.0
 0
VERTEX
 8
PARTS
 10
  5.4000
 20
  4.5000
 30
0.0
 0
VERTEX
 8
PARTS
 10
  5.4000
 20
  4.4800
 30
0.0
 0
SEQEND
 8
PARTS
 0
POLYLINE
 8
PARTS
 66
1
 10
0.0
 20
0.0
 30
0.0
 0
VERTEX
 8
PARTS
 10
  5.3100
 20
  4.4300
 30
0.0
 0
VERTEX
 8
PARTS
 10
  5.4900
 20
  4.4300
 30
0.0
 0
SEQEND
 8
PARTS
 0
POLYLINE
 8
PARTS
 66
1
 10
0.0
 20
0.0
 30
0.0
 0
VERTEX
 8
PARTS
 10
  5.3100
 20
  4.4800
 30
0.0
 0
VERTEX
 8
PARTS
 10
  5.4900
 20
  4.4800
 30
0.0
 0
SEQEND
 8
PARTS
 0
POLYLINE
 8
PARTS
 66
1
 10
0.0
 20
0.0
 30
0.0
 0
VERTEX
 8
PARTS
 10
  5.4000
 20
  4.4000
 30
0.0
 0
VERTEX
 8
PARTS
 10
  5.4000
 20
  4.4300
 30
0.0
 0
SEQEND
 8
PARTS
 0
LINE
 8
PARTS
 10
  1.2000
 20
  4.7000
 30
0.0
 11
  1.1000
 21
  4.7000
 31
0.0
 0
TEXT
 8
PARTS
 10
  1.1600
 20
  4.7300
 30
0.0
 40
  0.0500
 1

 0
LINE
 8
PARTS
 10
  1.0000
 20
  4.3000
 30
0.0
 11
  1.0000
 21
  4.6000
 31
0.0
 0
TEXT
 8
PARTS
 10
  0.9700
 20
  4.4800
 30
0.0
 40
  0.0500
 50
 90.0000
 1

 0
POLYLINE
 8
PARTS
 66
1
 70
1
 10
0.0
 20
0.0
 30
0.0
 0
VERTEX
 8
PARTS
 10
  1.0300
 20
  4.7000
 30
0.0
 42
  0.0985
 0
VERTEX
 8
PARTS
 10
  1.0277
 20
  4.7115
 30
0.0
 42
  0.0985
 0
VERTEX
 8
PARTS
 10
  1.0212
 20
  4.7212
 30
0.0
 42
  0.0985
 0
VERTEX
 8
PARTS
 10
  1.0115
 20
  4.7277
 30
0.0
 42
  0.0985
 0
VERTEX
 8
PARTS
 10
  1.0000
 20
  4.7300
 30
0.0
 42
  0.0985
 0
VERTEX
 8
PARTS
 10
  0.9885
 20
  4.7277
 30
0.0
 42
  0.0985
 0
VERTEX
 8
PARTS
 10
  0.9788
 20
  4.7212
 30
0.0
 42
  0.0985
 0
VERTEX
 8
PARTS
 10
  0.9723
 20
  4.7115
 30
0.0
 42
  0.0985
 0
VERTEX
 8
PARTS
 10
  0.9700
 20
  4.7000
 30
0.0
 42
  0.0985
 0
VERTEX
 8
PARTS
 10
  0.9723
 20
  4.6885
 30
0.0
 42
  0.0985
 0
VERTEX
 8
PARTS
 10
  0.9788
 20
  4.6788
 30
0.0
 42
  0.0985
 0
VERTEX
 8
PARTS
 10
  0.9885
 20
  4.6723
 30
0.0
 42
  0.0985
 0
VERTEX
 8
PARTS
 10
  1.0000
 20
  4.6700
 30
0.0
 42
  0.0985
 0
VERTEX
 8
PARTS
 10
  1.0115
 20
  4.6723
 30
0.0
 42
  0.0985
 0
VERTEX
 8
PARTS
 10
  1.0212
 20
  4.6788
 30
0.0
 42
  0.0985
 0
VERTEX
 8
PARTS
 10
  1.0277
 20
  4.6885
 30
0.0
 42
  0.0985
 0
SEQEND
 8
PARTS
 0
POLYLINE
 8
PARTS
 66
1
 10
0.0
 20
0.0
 30
0.0
 0
VERTEX
 8
PARTS
 10
  1.1000
 20
  4.7000
 30
0.0
 0
VERTEX
 8
PARTS
 10
  1.0300
 20
  4.7000
 30
0.0
 0
SEQEND
 8
PARTS
 0
POLYLINE
 8
PARTS
 66
1
 70
1
 10
0.0
 20
0.0
 30
0.0
 0
VERTEX
 8
PARTS
 10
  1.1000
 20
  4.7000
 30
0.0
 42
  0.0985
 0
VERTEX
 8
PARTS
 10
  1.0924
 20
  4.7383
 30
0.0
 42
  0.0985
 0
VERTEX
 8
PARTS
 10
  1.0707
 20
  4.7707
 30
0.0
 42
  0.0985
 0
VERTEX
 8
PARTS
 10
  1.0383
 20
  4.7924
 30
0.0
 42
  0.0985
 0
VERTEX
 8
PARTS
 10
  1.0000
 20
  4.8000
 30
0.0
 42
  0.0985
 0
VERTEX
 8
PARTS
 10
  0.9617
 20
  4.7924
 30
0.0
 42
  0.0985
 0
VERTEX
 8
PARTS
 10
  0.9293
 20
  4.7707
 30
0.0
 42
  0.0985
 0
VERTEX
 8
PARTS
 10
  0.9076
 20
  4.7383
 30
0.0
 42
  0.0985
 0
VERTEX
 8
PARTS
 10
  0.9000
 20
  4.7000
 30
0.0
 42
  0.0985
 0
VERTEX
 8
PARTS
 10
  0.9076
 20
  4.6617
 30
0.0
 42
  0.0985
 0
VERTEX
 8
PARTS
 10
  0.9293
 20
  4.6293
 30
0.0
 42
  0.0985
 0
VERTEX
 8
PARTS
 10
  0.9617
 20
  4.6076
 30
0.0
 42
  0.0985
 0
VERTEX
 8
PARTS
 10
  1.0000
 20
  4.6000
 30
0.0
 42
  0.0985
 0
VERTEX
 8
PARTS
 10
  1.0383
 20
  4.6076
 30
0.0
 42
  0.0985
 0
VERTEX
 8
PARTS
 10
  1.0707
 20
  4.6293
 30
0.0
 42
  0.0985
 0
VERTEX
 8
PARTS
 10
  1.0924
 20
  4.6617
 30
0.0
 42
  0.0985
 0
SEQEND
 8
PARTS
 0
TEXT
 8
PARTTEXT
 10
  3.1400
 20
  4.4286
 30
0.0
 40
  0.0514
 1
290pF
 0
LINE
 8
PARTS
 10
  3.0000
 20
  4.6000
 30
0.0
 11
  3.0000
 21
  4.5000
 31
0.0
 0
TEXT
 8
PARTS
 10
  2.9700
 20
  4.5600
 30
0.0
 40
  0.0500
 50
 90.0000
 1

 0
LINE
 8
PARTS
 10
  3.0000
 20
  4.3000
 30
0.0
 11
  3.0000
 21
  4.4000
 31
0.0
 0
TEXT
 8
PARTS
 10
  2.9700
 20
  4.2800
 30
0.0
 40
  0.0500
 50
 90.0000
 1

 0
POLYLINE
 8
PARTS
 66
1
 10
0.0
 20
0.0
 30
0.0
 0
VERTEX
 8
PARTS
 10
  3.0000
 20
  4.5000
 30
0.0
 0
VERTEX
 8
PARTS
 10
  3.0000
 20
  4.4800
 30
0.0
 0
SEQEND
 8
PARTS
 0
POLYLINE
 8
PARTS
 66
1
 10
0.0
 20
0.0
 30
0.0
 0
VERTEX
 8
PARTS
 10
  2.9100
 20
  4.4300
 30
0.0
 0
VERTEX
 8
PARTS
 10
  3.0900
 20
  4.4300
 30
0.0
 0
SEQEND
 8
PARTS
 0
POLYLINE
 8
PARTS
 66
1
 10
0.0
 20
0.0
 30
0.0
 0
VERTEX
 8
PARTS
 10
  2.9100
 20
  4.4800
 30
0.0
 0
VERTEX
 8
PARTS
 10
  3.0900
 20
  4.4800
 30
0.0
 0
SEQEND
 8
PARTS
 0
POLYLINE
 8
PARTS
 66
1
 10
0.0
 20
0.0
 30
0.0
 0
VERTEX
 8
PARTS
 10
  3.0000
 20
  4.4000
 30
0.0
 0
VERTEX
 8
PARTS
 10
  3.0000
 20
  4.4300
 30
0.0
 0
SEQEND
 8
PARTS
 0
TEXT
 8
PARTTEXT
 10
  9.8500
 20
  8.6086
 30
0.0
 40
  0.0514
 1
51
 0
LINE
 8
PARTS
 10
  9.7000
 20
  8.8000
 30
0.0
 11
  9.8000
 21
  8.8000
 31
0.0
 0
TEXT
 8
PARTS
 10
  9.7400
 20
  8.8300
 30
0.0
 40
  0.0500
 1

 0
LINE
 8
PARTS
 10
 10.2000
 20
  8.8000
 30
0.0
 11
 10.1000
 21
  8.8000
 31
0.0
 0
TEXT
 8
PARTS
 10
 10.1600
 20
  8.8300
 30
0.0
 40
  0.0500
 1

 0
POLYLINE
 8
PARTS
 66
1
 10
0.0
 20
0.0
 30
0.0
 0
VERTEX
 8
PARTS
 10
  9.8000
 20
  8.8000
 30
0.0
 0
VERTEX
 8
PARTS
 10
  9.8300
 20
  8.8300
 30
0.0
 0
SEQEND
 8
PARTS
 0
POLYLINE
 8
PARTS
 66
1
 10
0.0
 20
0.0
 30
0.0
 0
VERTEX
 8
PARTS
 10
  9.8300
 20
  8.8300
 30
0.0
 0
VERTEX
 8
PARTS
 10
  9.8900
 20
  8.7700
 30
0.0
 0
SEQEND
 8
PARTS
 0
POLYLINE
 8
PARTS
 66
1
 10
0.0
 20
0.0
 30
0.0
 0
VERTEX
 8
PARTS
 10
  9.8900
 20
  8.7700
 30
0.0
 0
VERTEX
 8
PARTS
 10
  9.9500
 20
  8.8300
 30
0.0
 0
SEQEND
 8
PARTS
 0
POLYLINE
 8
PARTS
 66
1
 10
0.0
 20
0.0
 30
0.0
 0
VERTEX
 8
PARTS
 10
  9.9500
 20
  8.8300
 30
0.0
 0
VERTEX
 8
PARTS
 10
 10.0100
 20
  8.7700
 30
0.0
 0
SEQEND
 8
PARTS
 0
POLYLINE
 8
PARTS
 66
1
 10
0.0
 20
0.0
 30
0.0
 0
VERTEX
 8
PARTS
 10
 10.0100
 20
  8.7700
 30
0.0
 0
VERTEX
 8
PARTS
 10
 10.0700
 20
  8.8300
 30
0.0
 0
SEQEND
 8
PARTS
 0
POLYLINE
 8
PARTS
 66
1
 10
0.0
 20
0.0
 30
0.0
 0
VERTEX
 8
PARTS
 10
 10.0700
 20
  8.8300
 30
0.0
 0
VERTEX
 8
PARTS
 10
 10.1000
 20
  8.8000
 30
0.0
 0
SEQEND
 8
PARTS
 0
LINE
 8
PARTS
 10
  7.9000
 20
  4.7000
 30
0.0
 11
  7.8000
 21
  4.7000
 31
0.0
 0
TEXT
 8
PARTS
 10
  7.8600
 20
  4.7300
 30
0.0
 40
  0.0500
 1

 0
LINE
 8
PARTS
 10
  7.7000
 20
  4.5000
 30
0.0
 11
  7.7000
 21
  4.6000
 31
0.0
 0
TEXT
 8
PARTS
 10
  7.6700
 20
  4.4800
 30
0.0
 40
  0.0500
 50
 90.0000
 1

 0
POLYLINE
 8
PARTS
 66
1
 70
1
 10
0.0
 20
0.0
 30
0.0
 0
VERTEX
 8
PARTS
 10
  7.7300
 20
  4.7000
 30
0.0
 42
  0.0985
 0
VERTEX
 8
PARTS
 10
  7.7277
 20
  4.7115
 30
0.0
 42
  0.0985
 0
VERTEX
 8
PARTS
 10
  7.7212
 20
  4.7212
 30
0.0
 42
  0.0985
 0
VERTEX
 8
PARTS
 10
  7.7115
 20
  4.7277
 30
0.0
 42
  0.0985
 0
VERTEX
 8
PARTS
 10
  7.7000
 20
  4.7300
 30
0.0
 42
  0.0985
 0
VERTEX
 8
PARTS
 10
  7.6885
 20
  4.7277
 30
0.0
 42
  0.0985
 0
VERTEX
 8
PARTS
 10
  7.6788
 20
  4.7212
 30
0.0
 42
  0.0985
 0
VERTEX
 8
PARTS
 10
  7.6723
 20
  4.7115
 30
0.0
 42
  0.0985
 0
VERTEX
 8
PARTS
 10
  7.6700
 20
  4.7000
 30
0.0
 42
  0.0985
 0
VERTEX
 8
PARTS
 10
  7.6723
 20
  4.6885
 30
0.0
 42
  0.0985
 0
VERTEX
 8
PARTS
 10
  7.6788
 20
  4.6788
 30
0.0
 42
  0.0985
 0
VERTEX
 8
PARTS
 10
  7.6885
 20
  4.6723
 30
0.0
 42
  0.0985
 0
VERTEX
 8
PARTS
 10
  7.7000
 20
  4.6700
 30
0.0
 42
  0.0985
 0
VERTEX
 8
PARTS
 10
  7.7115
 20
  4.6723
 30
0.0
 42
  0.0985
 0
VERTEX
 8
PARTS
 10
  7.7212
 20
  4.6788
 30
0.0
 42
  0.0985
 0
VERTEX
 8
PARTS
 10
  7.7277
 20
  4.6885
 30
0.0
 42
  0.0985
 0
SEQEND
 8
PARTS
 0
POLYLINE
 8
PARTS
 66
1
 10
0.0
 20
0.0
 30
0.0
 0
VERTEX
 8
PARTS
 10
  7.8000
 20
  4.7000
 30
0.0
 0
VERTEX
 8
PARTS
 10
  7.7300
 20
  4.7000
 30
0.0
 0
SEQEND
 8
PARTS
 0
POLYLINE
 8
PARTS
 66
1
 70
1
 10
0.0
 20
0.0
 30
0.0
 0
VERTEX
 8
PARTS
 10
  7.8000
 20
  4.7000
 30
0.0
 42
  0.0985
 0
VERTEX
 8
PARTS
 10
  7.7924
 20
  4.7383
 30
0.0
 42
  0.0985
 0
VERTEX
 8
PARTS
 10
  7.7707
 20
  4.7707
 30
0.0
 42
  0.0985
 0
VERTEX
 8
PARTS
 10
  7.7383
 20
  4.7924
 30
0.0
 42
  0.0985
 0
VERTEX
 8
PARTS
 10
  7.7000
 20
  4.8000
 30
0.0
 42
  0.0985
 0
VERTEX
 8
PARTS
 10
  7.6617
 20
  4.7924
 30
0.0
 42
  0.0985
 0
VERTEX
 8
PARTS
 10
  7.6293
 20
  4.7707
 30
0.0
 42
  0.0985
 0
VERTEX
 8
PARTS
 10
  7.6076
 20
  4.7383
 30
0.0
 42
  0.0985
 0
VERTEX
 8
PARTS
 10
  7.6000
 20
  4.7000
 30
0.0
 42
  0.0985
 0
VERTEX
 8
PARTS
 10
  7.6076
 20
  4.6617
 30
0.0
 42
  0.0985
 0
VERTEX
 8
PARTS
 10
  7.6293
 20
  4.6293
 30
0.0
 42
  0.0985
 0
VERTEX
 8
PARTS
 10
  7.6617
 20
  4.6076
 30
0.0
 42
  0.0985
 0
VERTEX
 8
PARTS
 10
  7.7000
 20
  4.6000
 30
0.0
 42
  0.0985
 0
VERTEX
 8
PARTS
 10
  7.7383
 20
  4.6076
 30
0.0
 42
  0.0985
 0
VERTEX
 8
PARTS
 10
  7.7707
 20
  4.6293
 30
0.0
 42
  0.0985
 0
VERTEX
 8
PARTS
 10
  7.7924
 20
  4.6617
 30
0.0
 42
  0.0985
 0
SEQEND
 8
PARTS
 0
TEXT
 8
PARTTEXT
 10
  9.4900
 20
  7.2086
 30
0.0
 40
  0.0514
 1
U1B
 0
TEXT
 8
PARTTEXT
 10
  9.4900
 20
  7.1186
 30
0.0
 40
  0.0514
 1
CLC412
 0
LINE
 8
PARTS
 10
  8.7000
 20
  7.0000
 30
0.0
 11
  9.0000
 21
  7.0000
 31
0.0
 0
TEXT
 8
PARTS
 10
  8.9000
 20
  7.0300
 30
0.0
 40
  0.0500
 1
5
 0
LINE
 8
PARTS
 10
  8.7000
 20
  6.8000
 30
0.0
 11
  9.0000
 21
  6.8000
 31
0.0
 0
TEXT
 8
PARTS
 10
  8.9000
 20
  6.8300
 30
0.0
 40
  0.0500
 1
6
 0
LINE
 8
PARTS
 10
  9.7000
 20
  6.9000
 30
0.0
 11
  9.4000
 21
  6.9000
 31
0.0
 0
TEXT
 8
PARTS
 10
  9.4600
 20
  6.9300
 30
0.0
 40
  0.0500
 1
7
 0
LINE
 8
PARTS
 10
  9.1000
 20
  7.4000
 30
0.0
 11
  9.1000
 21
  7.1000
 31
0.0
 0
TEXT
 8
PARTS
 10
  9.0700
 20
  7.1600
 30
0.0
 40
  0.0500
 50
 90.0000
 1
8
 0
LINE
 8
PARTS
 10
  9.1000
 20
  6.4000
 30
0.0
 11
  9.1000
 21
  6.7000
 31
0.0
 0
TEXT
 8
PARTS
 10
  9.0700
 20
  6.5800
 30
0.0
 40
  0.0500
 50
 90.0000
 1
4
 0
POLYLINE
 8
PARTS
 66
1
 10
0.0
 20
0.0
 30
0.0
 0
VERTEX
 8
PARTS
 10
  9.0000
 20
  7.1000
 30
0.0
 0
VERTEX
 8
PARTS
 10
  9.4000
 20
  6.9000
 30
0.0
 0
SEQEND
 8
PARTS
 0
POLYLINE
 8
PARTS
 66
1
 10
0.0
 20
0.0
 30
0.0
 0
VERTEX
 8
PARTS
 10
  9.4000
 20
  6.9000
 30
0.0
 0
VERTEX
 8
PARTS
 10
  9.0000
 20
  6.7000
 30
0.0
 0
SEQEND
 8
PARTS
 0
POLYLINE
 8
PARTS
 66
1
 10
0.0
 20
0.0
 30
0.0
 0
VERTEX
 8
PARTS
 10
  9.0000
 20
  6.7000
 30
0.0
 0
VERTEX
 8
PARTS
 10
  9.0000
 20
  7.1000
 30
0.0
 0
SEQEND
 8
PARTS
 0
POLYLINE
 8
PARTS
 66
1
 10
0.0
 20
0.0
 30
0.0
 0
VERTEX
 8
PARTS
 10
  9.1000
 20
  7.1000
 30
0.0
 0
VERTEX
 8
PARTS
 10
  9.1000
 20
  7.0500
 30
0.0
 0
SEQEND
 8
PARTS
 0
POLYLINE
 8
PARTS
 66
1
 10
0.0
 20
0.0
 30
0.0
 0
VERTEX
 8
PARTS
 10
  9.1000
 20
  6.7500
 30
0.0
 0
VERTEX
 8
PARTS
 10
  9.1000
 20
  6.7000
 30
0.0
 0
SEQEND
 8
PARTS
 0
TEXT
 8
PARTTEXT
 10
  9.0300
 20
  6.9486
 30
0.0
 40
  0.0514
 1
+
 0
TEXT
 8
PARTTEXT
 10
  9.0300
 20
  6.7486
 30
0.0
 40
  0.0514
 1
-
 0
TEXT
 8
PARTTEXT
 10
  8.6500
 20
  3.6086
 30
0.0
 40
  0.0514
 1
215,1%
 0
LINE
 8
PARTS
 10
  8.5000
 20
  3.8000
 30
0.0
 11
  8.6000
 21
  3.8000
 31
0.0
 0
TEXT
 8
PARTS
 10
  8.5400
 20
  3.8300
 30
0.0
 40
  0.0500
 1

 0
LINE
 8
PARTS
 10
  9.0000
 20
  3.8000
 30
0.0
 11
  8.9000
 21
  3.8000
 31
0.0
 0
TEXT
 8
PARTS
 10
  8.9600
 20
  3.8300
 30
0.0
 40
  0.0500
 1

 0
POLYLINE
 8
PARTS
 66
1
 10
0.0
 20
0.0
 30
0.0
 0
VERTEX
 8
PARTS
 10
  8.6000
 20
  3.8000
 30
0.0
 0
VERTEX
 8
PARTS
 10
  8.6300
 20
  3.8300
 30
0.0
 0
SEQEND
 8
PARTS
 0
POLYLINE
 8
PARTS
 66
1
 10
0.0
 20
0.0
 30
0.0
 0
VERTEX
 8
PARTS
 10
  8.6300
 20
  3.8300
 30
0.0
 0
VERTEX
 8
PARTS
 10
  8.6900
 20
  3.7700
 30
0.0
 0
SEQEND
 8
PARTS
 0
POLYLINE
 8
PARTS
 66
1
 10
0.0
 20
0.0
 30
0.0
 0
VERTEX
 8
PARTS
 10
  8.6900
 20
  3.7700
 30
0.0
 0
VERTEX
 8
PARTS
 10
  8.7500
 20
  3.8300
 30
0.0
 0
SEQEND
 8
PARTS
 0
POLYLINE
 8
PARTS
 66
1
 10
0.0
 20
0.0
 30
0.0
 0
VERTEX
 8
PARTS
 10
  8.7500
 20
  3.8300
 30
0.0
 0
VERTEX
 8
PARTS
 10
  8.8100
 20
  3.7700
 30
0.0
 0
SEQEND
 8
PARTS
 0
POLYLINE
 8
PARTS
 66
1
 10
0.0
 20
0.0
 30
0.0
 0
VERTEX
 8
PARTS
 10
  8.8100
 20
  3.7700
 30
0.0
 0
VERTEX
 8
PARTS
 10
  8.8700
 20
  3.8300
 30
0.0
 0
SEQEND
 8
PARTS
 0
POLYLINE
 8
PARTS
 66
1
 10
0.0
 20
0.0
 30
0.0
 0
VERTEX
 8
PARTS
 10
  8.8700
 20
  3.8300
 30
0.0
 0
VERTEX
 8
PARTS
 10
  8.9000
 20
  3.8000
 30
0.0
 0
SEQEND
 8
PARTS
 0
TEXT
 8
PARTTEXT
 10
  3.3000
 20
  8.9886
 30
0.0
 40
  0.0514
 1
495nH
 0
LINE
 8
PARTS
 10
  3.2000
 20
  8.9000
 30
0.0
 11
  3.3000
 21
  8.9000
 31
0.0
 0
TEXT
 8
PARTS
 10
  3.2400
 20
  8.9300
 30
0.0
 40
  0.0500
 1

 0
LINE
 8
PARTS
 10
  3.8000
 20
  8.9000
 30
0.0
 11
  3.7000
 21
  8.9000
 31
0.0
 0
TEXT
 8
PARTS
 10
  3.7600
 20
  8.9300
 30
0.0
 40
  0.0500
 1

 0
POLYLINE
 8
PARTS
 66
1
 10
0.0
 20
0.0
 30
0.0
 0
VERTEX
 8
PARTS
 10
  3.3500
 20
  8.9500
 30
0.0
 42
  0.4142
 0
VERTEX
 8
PARTS
 10
  3.3000
 20
  8.9000
 30
0.0
 0
SEQEND
 8
PARTS
 0
POLYLINE
 8
PARTS
 66
1
 10
0.0
 20
0.0
 30
0.0
 0
VERTEX
 8
PARTS
 10
  3.4000
 20
  8.9000
 30
0.0
 42
  0.4142
 0
VERTEX
 8
PARTS
 10
  3.3500
 20
  8.9500
 30
0.0
 0
SEQEND
 8
PARTS
 0
POLYLINE
 8
PARTS
 66
1
 10
0.0
 20
0.0
 30
0.0
 0
VERTEX
 8
PARTS
 10
  3.4500
 20
  8.9500
 30
0.0
 42
  0.4142
 0
VERTEX
 8
PARTS
 10
  3.4000
 20
  8.9000
 30
0.0
 0
SEQEND
 8
PARTS
 0
POLYLINE
 8
PARTS
 66
1
 10
0.0
 20
0.0
 30
0.0
 0
VERTEX
 8
PARTS
 10
  3.5000
 20
  8.9000
 30
0.0
 42
  0.4142
 0
VERTEX
 8
PARTS
 10
  3.4500
 20
  8.9500
 30
0.0
 0
SEQEND
 8
PARTS
 0
POLYLINE
 8
PARTS
 66
1
 10
0.0
 20
0.0
 30
0.0
 0
VERTEX
 8
PARTS
 10
  3.5500
 20
  8.9500
 30
0.0
 42
  0.4142
 0
VERTEX
 8
PARTS
 10
  3.5000
 20
  8.9000
 30
0.0
 0
SEQEND
 8
PARTS
 0
POLYLINE
 8
PARTS
 66
1
 10
0.0
 20
0.0
 30
0.0
 0
VERTEX
 8
PARTS
 10
  3.6000
 20
  8.9000
 30
0.0
 42
  0.4142
 0
VERTEX
 8
PARTS
 10
  3.5500
 20
  8.9500
 30
0.0
 0
SEQEND
 8
PARTS
 0
POLYLINE
 8
PARTS
 66
1
 10
0.0
 20
0.0
 30
0.0
 0
VERTEX
 8
PARTS
 10
  3.6500
 20
  8.9500
 30
0.0
 42
  0.4142
 0
VERTEX
 8
PARTS
 10
  3.6000
 20
  8.9000
 30
0.0
 0
SEQEND
 8
PARTS
 0
POLYLINE
 8
PARTS
 66
1
 10
0.0
 20
0.0
 30
0.0
 0
VERTEX
 8
PARTS
 10
  3.7000
 20
  8.9000
 30
0.0
 42
  0.4142
 0
VERTEX
 8
PARTS
 10
  3.6500
 20
  8.9500
 30
0.0
 0
SEQEND
 8
PARTS
 0
TEXT
 8
PARTTEXT
 10
  9.4500
 20
  0.7286
 30
0.0
 40
  0.0514
 1
6.8uF
 0
LINE
 8
PARTS
 10
  9.3000
 20
  0.9000
 30
0.0
 11
  9.3000
 21
  0.8000
 31
0.0
 0
TEXT
 8
PARTS
 10
  9.2700
 20
  0.8600
 30
0.0
 40
  0.0500
 50
 90.0000
 1
1
 0
LINE
 8
PARTS
 10
  9.3000
 20
  0.5000
 30
0.0
 11
  9.3000
 21
  0.6000
 31
0.0
 0
TEXT
 8
PARTS
 10
  9.2700
 20
  0.4800
 30
0.0
 40
  0.0500
 50
 90.0000
 1
2
 0
POLYLINE
 8
PARTS
 66
1
 10
0.0
 20
0.0
 30
0.0
 0
VERTEX
 8
PARTS
 10
  9.3000
 20
  0.6600
 30
0.0
 0
VERTEX
 8
PARTS
 10
  9.3000
 20
  0.6000
 30
0.0
 0
SEQEND
 8
PARTS
 0
POLYLINE
 8
PARTS
 66
1
 10
0.0
 20
0.0
 30
0.0
 0
VERTEX
 8
PARTS
 10
  9.2000
 20
  0.7000
 30
0.0
 0
VERTEX
 8
PARTS
 10
  9.4000
 20
  0.7000
 30
0.0
 0
SEQEND
 8
PARTS
 0
POLYLINE
 8
PARTS
 66
1
 10
0.0
 20
0.0
 30
0.0
 0
VERTEX
 8
PARTS
 10
  9.3000
 20
  0.8000
 30
0.0
 0
VERTEX
 8
PARTS
 10
  9.3000
 20
  0.7000
 30
0.0
 0
SEQEND
 8
PARTS
 0
POLYLINE
 8
PARTS
 66
1
 10
0.0
 20
0.0
 30
0.0
 0
VERTEX
 8
PARTS
 10
  9.4000
 20
  0.6300
 30
0.0
 42
  0.1654
 0
VERTEX
 8
PARTS
 10
  9.3000
 20
  0.6600
 30
0.0
 0
SEQEND
 8
PARTS
 0
POLYLINE
 8
PARTS
 66
1
 10
0.0
 20
0.0
 30
0.0
 0
VERTEX
 8
PARTS
 10
  9.3000
 20
  0.6600
 30
0.0
 42
  0.1654
 0
VERTEX
 8
PARTS
 10
  9.2000
 20
  0.6300
 30
0.0
 0
SEQEND
 8
PARTS
 0
TEXT
 8
PARTTEXT
 10
  9.3300
 20
  0.6986
 30
0.0
 40
  0.0514
 1
+
 0
TEXT
 8
PARTTEXT
 10
 10.4800
 20
  4.0686
 30
0.0
 40
  0.0514
 1
261,1%
 0
LINE
 8
PARTS
 10
 10.4000
 20
  3.8000
 30
0.0
 11
 10.4000
 21
  3.9000
 31
0.0
 0
TEXT
 8
PARTS
 10
 10.3700
 20
  3.7800
 30
0.0
 40
  0.0500
 50
 90.0000
 1

 0
LINE
 8
PARTS
 10
 10.4000
 20
  4.3000
 30
0.0
 11
 10.4000
 21
  4.2000
 31
0.0
 0
TEXT
 8
PARTS
 10
 10.3700
 20
  4.2600
 30
0.0
 40
  0.0500
 50
 90.0000
 1

 0
POLYLINE
 8
PARTS
 66
1
 10
0.0
 20
0.0
 30
0.0
 0
VERTEX
 8
PARTS
 10
 10.4000
 20
  3.9000
 30
0.0
 0
VERTEX
 8
PARTS
 10
 10.3700
 20
  3.9300
 30
0.0
 0
SEQEND
 8
PARTS
 0
POLYLINE
 8
PARTS
 66
1
 10
0.0
 20
0.0
 30
0.0
 0
VERTEX
 8
PARTS
 10
 10.3700
 20
  3.9300
 30
0.0
 0
VERTEX
 8
PARTS
 10
 10.4300
 20
  3.9900
 30
0.0
 0
SEQEND
 8
PARTS
 0
POLYLINE
 8
PARTS
 66
1
 10
0.0
 20
0.0
 30
0.0
 0
VERTEX
 8
PARTS
 10
 10.4300
 20
  3.9900
 30
0.0
 0
VERTEX
 8
PARTS
 10
 10.3700
 20
  4.0500
 30
0.0
 0
SEQEND
 8
PARTS
 0
POLYLINE
 8
PARTS
 66
1
 10
0.0
 20
0.0
 30
0.0
 0
VERTEX
 8
PARTS
 10
 10.3700
 20
  4.0500
 30
0.0
 0
VERTEX
 8
PARTS
 10
 10.4300
 20
  4.1100
 30
0.0
 0
SEQEND
 8
PARTS
 0
POLYLINE
 8
PARTS
 66
1
 10
0.0
 20
0.0
 30
0.0
 0
VERTEX
 8
PARTS
 10
 10.4300
 20
  4.1100
 30
0.0
 0
VERTEX
 8
PARTS
 10
 10.3700
 20
  4.1700
 30
0.0
 0
SEQEND
 8
PARTS
 0
POLYLINE
 8
PARTS
 66
1
 10
0.0
 20
0.0
 30
0.0
 0
VERTEX
 8
PARTS
 10
 10.3700
 20
  4.1700
 30
0.0
 0
VERTEX
 8
PARTS
 10
 10.4000
 20
  4.2000
 30
0.0
 0
SEQEND
 8
PARTS
 0
TEXT
 8
PARTTEXT
 10
  5.6000
 20
  4.7886
 30
0.0
 40
  0.0514
 1
630nH
 0
LINE
 8
PARTS
 10
  5.5000
 20
  4.7000
 30
0.0
 11
  5.6000
 21
  4.7000
 31
0.0
 0
TEXT
 8
PARTS
 10
  5.5400
 20
  4.7300
 30
0.0
 40
  0.0500
 1

 0
LINE
 8
PARTS
 10
  6.1000
 20
  4.7000
 30
0.0
 11
  6.0000
 21
  4.7000
 31
0.0
 0
TEXT
 8
PARTS
 10
  6.0600
 20
  4.7300
 30
0.0
 40
  0.0500
 1

 0
POLYLINE
 8
PARTS
 66
1
 10
0.0
 20
0.0
 30
0.0
 0
VERTEX
 8
PARTS
 10
  5.6500
 20
  4.7500
 30
0.0
 42
  0.4142
 0
VERTEX
 8
PARTS
 10
  5.6000
 20
  4.7000
 30
0.0
 0
SEQEND
 8
PARTS
 0
POLYLINE
 8
PARTS
 66
1
 10
0.0
 20
0.0
 30
0.0
 0
VERTEX
 8
PARTS
 10
  5.7000
 20
  4.7000
 30
0.0
 42
  0.4142
 0
VERTEX
 8
PARTS
 10
  5.6500
 20
  4.7500
 30
0.0
 0
SEQEND
 8
PARTS
 0
POLYLINE
 8
PARTS
 66
1
 10
0.0
 20
0.0
 30
0.0
 0
VERTEX
 8
PARTS
 10
  5.7500
 20
  4.7500
 30
0.0
 42
  0.4142
 0
VERTEX
 8
PARTS
 10
  5.7000
 20
  4.7000
 30
0.0
 0
SEQEND
 8
PARTS
 0
POLYLINE
 8
PARTS
 66
1
 10
0.0
 20
0.0
 30
0.0
 0
VERTEX
 8
PARTS
 10
  5.8000
 20
  4.7000
 30
0.0
 42
  0.4142
 0
VERTEX
 8
PARTS
 10
  5.7500
 20
  4.7500
 30
0.0
 0
SEQEND
 8
PARTS
 0
POLYLINE
 8
PARTS
 66
1
 10
0.0
 20
0.0
 30
0.0
 0
VERTEX
 8
PARTS
 10
  5.8500
 20
  4.7500
 30
0.0
 42
  0.4142
 0
VERTEX
 8
PARTS
 10
  5.8000
 20
  4.7000
 30
0.0
 0
SEQEND
 8
PARTS
 0
POLYLINE
 8
PARTS
 66
1
 10
0.0
 20
0.0
 30
0.0
 0
VERTEX
 8
PARTS
 10
  5.9000
 20
  4.7000
 30
0.0
 42
  0.4142
 0
VERTEX
 8
PARTS
 10
  5.8500
 20
  4.7500
 30
0.0
 0
SEQEND
 8
PARTS
 0
POLYLINE
 8
PARTS
 66
1
 10
0.0
 20
0.0
 30
0.0
 0
VERTEX
 8
PARTS
 10
  5.9500
 20
  4.7500
 30
0.0
 42
  0.4142
 0
VERTEX
 8
PARTS
 10
  5.9000
 20
  4.7000
 30
0.0
 0
SEQEND
 8
PARTS
 0
POLYLINE
 8
PARTS
 66
1
 10
0.0
 20
0.0
 30
0.0
 0
VERTEX
 8
PARTS
 10
  6.0000
 20
  4.7000
 30
0.0
 42
  0.4142
 0
VERTEX
 8
PARTS
 10
  5.9500
 20
  4.7500
 30
0.0
 0
SEQEND
 8
PARTS
 0
TEXT
 8
PARTTEXT
 10
  4.0400
 20
  8.6286
 30
0.0
 40
  0.0514
 1
390pF
 0
LINE
 8
PARTS
 10
  3.9000
 20
  8.8000
 30
0.0
 11
  3.9000
 21
  8.7000
 31
0.0
 0
TEXT
 8
PARTS
 10
  3.8700
 20
  8.7600
 30
0.0
 40
  0.0500
 50
 90.0000
 1

 0
LINE
 8
PARTS
 10
  3.9000
 20
  8.5000
 30
0.0
 11
  3.9000
 21
  8.6000
 31
0.0
 0
TEXT
 8
PARTS
 10
  3.8700
 20
  8.4800
 30
0.0
 40
  0.0500
 50
 90.0000
 1

 0
POLYLINE
 8
PARTS
 66
1
 10
0.0
 20
0.0
 30
0.0
 0
VERTEX
 8
PARTS
 10
  3.9000
 20
  8.7000
 30
0.0
 0
VERTEX
 8
PARTS
 10
  3.9000
 20
  8.6800
 30
0.0
 0
SEQEND
 8
PARTS
 0
POLYLINE
 8
PARTS
 66
1
 10
0.0
 20
0.0
 30
0.0
 0
VERTEX
 8
PARTS
 10
  3.8100
 20
  8.6300
 30
0.0
 0
VERTEX
 8
PARTS
 10
  3.9900
 20
  8.6300
 30
0.0
 0
SEQEND
 8
PARTS
 0
POLYLINE
 8
PARTS
 66
1
 10
0.0
 20
0.0
 30
0.0
 0
VERTEX
 8
PARTS
 10
  3.8100
 20
  8.6800
 30
0.0
 0
VERTEX
 8
PARTS
 10
  3.9900
 20
  8.6800
 30
0.0
 0
SEQEND
 8
PARTS
 0
POLYLINE
 8
PARTS
 66
1
 10
0.0
 20
0.0
 30
0.0
 0
VERTEX
 8
PARTS
 10
  3.9000
 20
  8.6000
 30
0.0
 0
VERTEX
 8
PARTS
 10
  3.9000
 20
  8.6300
 30
0.0
 0
SEQEND
 8
PARTS
 0
TEXT
 8
PARTTEXT
 10
  3.2000
 20
  4.7886
 30
0.0
 40
  0.0514
 1
645nH
 0
LINE
 8
PARTS
 10
  3.1000
 20
  4.7000
 30
0.0
 11
  3.2000
 21
  4.7000
 31
0.0
 0
TEXT
 8
PARTS
 10
  3.1400
 20
  4.7300
 30
0.0
 40
  0.0500
 1

 0
LINE
 8
PARTS
 10
  3.7000
 20
  4.7000
 30
0.0
 11
  3.6000
 21
  4.7000
 31
0.0
 0
TEXT
 8
PARTS
 10
  3.6600
 20
  4.7300
 30
0.0
 40
  0.0500
 1

 0
POLYLINE
 8
PARTS
 66
1
 10
0.0
 20
0.0
 30
0.0
 0
VERTEX
 8
PARTS
 10
  3.2500
 20
  4.7500
 30
0.0
 42
  0.4142
 0
VERTEX
 8
PARTS
 10
  3.2000
 20
  4.7000
 30
0.0
 0
SEQEND
 8
PARTS
 0
POLYLINE
 8
PARTS
 66
1
 10
0.0
 20
0.0
 30
0.0
 0
VERTEX
 8
PARTS
 10
  3.3000
 20
  4.7000
 30
0.0
 42
  0.4142
 0
VERTEX
 8
PARTS
 10
  3.2500
 20
  4.7500
 30
0.0
 0
SEQEND
 8
PARTS
 0
POLYLINE
 8
PARTS
 66
1
 10
0.0
 20
0.0
 30
0.0
 0
VERTEX
 8
PARTS
 10
  3.3500
 20
  4.7500
 30
0.0
 42
  0.4142
 0
VERTEX
 8
PARTS
 10
  3.3000
 20
  4.7000
 30
0.0
 0
SEQEND
 8
PARTS
 0
POLYLINE
 8
PARTS
 66
1
 10
0.0
 20
0.0
 30
0.0
 0
VERTEX
 8
PARTS
 10
  3.4000
 20
  4.7000
 30
0.0
 42
  0.4142
 0
VERTEX
 8
PARTS
 10
  3.3500
 20
  4.7500
 30
0.0
 0
SEQEND
 8
PARTS
 0
POLYLINE
 8
PARTS
 66
1
 10
0.0
 20
0.0
 30
0.0
 0
VERTEX
 8
PARTS
 10
  3.4500
 20
  4.7500
 30
0.0
 42
  0.4142
 0
VERTEX
 8
PARTS
 10
  3.4000
 20
  4.7000
 30
0.0
 0
SEQEND
 8
PARTS
 0
POLYLINE
 8
PARTS
 66
1
 10
0.0
 20
0.0
 30
0.0
 0
VERTEX
 8
PARTS
 10
  3.5000
 20
  4.7000
 30
0.0
 42
  0.4142
 0
VERTEX
 8
PARTS
 10
  3.4500
 20
  4.7500
 30
0.0
 0
SEQEND
 8
PARTS
 0
POLYLINE
 8
PARTS
 66
1
 10
0.0
 20
0.0
 30
0.0
 0
VERTEX
 8
PARTS
 10
  3.5500
 20
  4.7500
 30
0.0
 42
  0.4142
 0
VERTEX
 8
PARTS
 10
  3.5000
 20
  4.7000
 30
0.0
 0
SEQEND
 8
PARTS
 0
POLYLINE
 8
PARTS
 66
1
 10
0.0
 20
0.0
 30
0.0
 0
VERTEX
 8
PARTS
 10
  3.6000
 20
  4.7000
 30
0.0
 42
  0.4142
 0
VERTEX
 8
PARTS
 10
  3.5500
 20
  4.7500
 30
0.0
 0
SEQEND
 8
PARTS
 0
TEXT
 8
PARTTEXT
 10
  2.3400
 20
  4.4286
 30
0.0
 40
  0.0514
 1
270pF
 0
LINE
 8
PARTS
 10
  2.2000
 20
  4.6000
 30
0.0
 11
  2.2000
 21
  4.5000
 31
0.0
 0
TEXT
 8
PARTS
 10
  2.1700
 20
  4.5600
 30
0.0
 40
  0.0500
 50
 90.0000
 1

 0
LINE
 8
PARTS
 10
  2.2000
 20
  4.3000
 30
0.0
 11
  2.2000
 21
  4.4000
 31
0.0
 0
TEXT
 8
PARTS
 10
  2.1700
 20
  4.2800
 30
0.0
 40
  0.0500
 50
 90.0000
 1

 0
POLYLINE
 8
PARTS
 66
1
 10
0.0
 20
0.0
 30
0.0
 0
VERTEX
 8
PARTS
 10
  2.2000
 20
  4.5000
 30
0.0
 0
VERTEX
 8
PARTS
 10
  2.2000
 20
  4.4800
 30
0.0
 0
SEQEND
 8
PARTS
 0
POLYLINE
 8
PARTS
 66
1
 10
0.0
 20
0.0
 30
0.0
 0
VERTEX
 8
PARTS
 10
  2.1100
 20
  4.4300
 30
0.0
 0
VERTEX
 8
PARTS
 10
  2.2900
 20
  4.4300
 30
0.0
 0
SEQEND
 8
PARTS
 0
POLYLINE
 8
PARTS
 66
1
 10
0.0
 20
0.0
 30
0.0
 0
VERTEX
 8
PARTS
 10
  2.1100
 20
  4.4800
 30
0.0
 0
VERTEX
 8
PARTS
 10
  2.2900
 20
  4.4800
 30
0.0
 0
SEQEND
 8
PARTS
 0
POLYLINE
 8
PARTS
 66
1
 10
0.0
 20
0.0
 30
0.0
 0
VERTEX
 8
PARTS
 10
  2.2000
 20
  4.4000
 30
0.0
 0
VERTEX
 8
PARTS
 10
  2.2000
 20
  4.4300
 30
0.0
 0
SEQEND
 8
PARTS
 0
TEXT
 8
PARTTEXT
 10
 10.5500
 20
  2.5086
 30
0.0
 40
  0.0514
 1
51
 0
LINE
 8
PARTS
 10
 10.4000
 20
  2.7000
 30
0.0
 11
 10.5000
 21
  2.7000
 31
0.0
 0
TEXT
 8
PARTS
 10
 10.4400
 20
  2.7300
 30
0.0
 40
  0.0500
 1

 0
LINE
 8
PARTS
 10
 10.9000
 20
  2.7000
 30
0.0
 11
 10.8000
 21
  2.7000
 31
0.0
 0
TEXT
 8
PARTS
 10
 10.8600
 20
  2.7300
 30
0.0
 40
  0.0500
 1

 0
POLYLINE
 8
PARTS
 66
1
 10
0.0
 20
0.0
 30
0.0
 0
VERTEX
 8
PARTS
 10
 10.5000
 20
  2.7000
 30
0.0
 0
VERTEX
 8
PARTS
 10
 10.5300
 20
  2.7300
 30
0.0
 0
SEQEND
 8
PARTS
 0
POLYLINE
 8
PARTS
 66
1
 10
0.0
 20
0.0
 30
0.0
 0
VERTEX
 8
PARTS
 10
 10.5300
 20
  2.7300
 30
0.0
 0
VERTEX
 8
PARTS
 10
 10.5900
 20
  2.6700
 30
0.0
 0
SEQEND
 8
PARTS
 0
POLYLINE
 8
PARTS
 66
1
 10
0.0
 20
0.0
 30
0.0
 0
VERTEX
 8
PARTS
 10
 10.5900
 20
  2.6700
 30
0.0
 0
VERTEX
 8
PARTS
 10
 10.6500
 20
  2.7300
 30
0.0
 0
SEQEND
 8
PARTS
 0
POLYLINE
 8
PARTS
 66
1
 10
0.0
 20
0.0
 30
0.0
 0
VERTEX
 8
PARTS
 10
 10.6500
 20
  2.7300
 30
0.0
 0
VERTEX
 8
PARTS
 10
 10.7100
 20
  2.6700
 30
0.0
 0
SEQEND
 8
PARTS
 0
POLYLINE
 8
PARTS
 66
1
 10
0.0
 20
0.0
 30
0.0
 0
VERTEX
 8
PARTS
 10
 10.7100
 20
  2.6700
 30
0.0
 0
VERTEX
 8
PARTS
 10
 10.7700
 20
  2.7300
 30
0.0
 0
SEQEND
 8
PARTS
 0
POLYLINE
 8
PARTS
 66
1
 10
0.0
 20
0.0
 30
0.0
 0
VERTEX
 8
PARTS
 10
 10.7700
 20
  2.7300
 30
0.0
 0
VERTEX
 8
PARTS
 10
 10.8000
 20
  2.7000
 30
0.0
 0
SEQEND
 8
PARTS
 0
TEXT
 8
PARTTEXT
 10
 10.5500
 20
  4.4086
 30
0.0
 40
  0.0514
 1
51
 0
LINE
 8
PARTS
 10
 10.4000
 20
  4.6000
 30
0.0
 11
 10.5000
 21
  4.6000
 31
0.0
 0
TEXT
 8
PARTS
 10
 10.4400
 20
  4.6300
 30
0.0
 40
  0.0500
 1

 0
LINE
 8
PARTS
 10
 10.9000
 20
  4.6000
 30
0.0
 11
 10.8000
 21
  4.6000
 31
0.0
 0
TEXT
 8
PARTS
 10
 10.8600
 20
  4.6300
 30
0.0
 40
  0.0500
 1

 0
POLYLINE
 8
PARTS
 66
1
 10
0.0
 20
0.0
 30
0.0
 0
VERTEX
 8
PARTS
 10
 10.5000
 20
  4.6000
 30
0.0
 0
VERTEX
 8
PARTS
 10
 10.5300
 20
  4.6300
 30
0.0
 0
SEQEND
 8
PARTS
 0
POLYLINE
 8
PARTS
 66
1
 10
0.0
 20
0.0
 30
0.0
 0
VERTEX
 8
PARTS
 10
 10.5300
 20
  4.6300
 30
0.0
 0
VERTEX
 8
PARTS
 10
 10.5900
 20
  4.5700
 30
0.0
 0
SEQEND
 8
PARTS
 0
POLYLINE
 8
PARTS
 66
1
 10
0.0
 20
0.0
 30
0.0
 0
VERTEX
 8
PARTS
 10
 10.5900
 20
  4.5700
 30
0.0
 0
VERTEX
 8
PARTS
 10
 10.6500
 20
  4.6300
 30
0.0
 0
SEQEND
 8
PARTS
 0
POLYLINE
 8
PARTS
 66
1
 10
0.0
 20
0.0
 30
0.0
 0
VERTEX
 8
PARTS
 10
 10.6500
 20
  4.6300
 30
0.0
 0
VERTEX
 8
PARTS
 10
 10.7100
 20
  4.5700
 30
0.0
 0
SEQEND
 8
PARTS
 0
POLYLINE
 8
PARTS
 66
1
 10
0.0
 20
0.0
 30
0.0
 0
VERTEX
 8
PARTS
 10
 10.7100
 20
  4.5700
 30
0.0
 0
VERTEX
 8
PARTS
 10
 10.7700
 20
  4.6300
 30
0.0
 0
SEQEND
 8
PARTS
 0
POLYLINE
 8
PARTS
 66
1
 10
0.0
 20
0.0
 30
0.0
 0
VERTEX
 8
PARTS
 10
 10.7700
 20
  4.6300
 30
0.0
 0
VERTEX
 8
PARTS
 10
 10.8000
 20
  4.6000
 30
0.0
 0
SEQEND
 8
PARTS
 0
TEXT
 8
PARTTEXT
 10
 10.1900
 20
  3.0086
 30
0.0
 40
  0.0514
 1
U2B
 0
TEXT
 8
PARTTEXT
 10
 10.1900
 20
  2.9186
 30
0.0
 40
  0.0514
 1
CLC412
 0
LINE
 8
PARTS
 10
  9.4000
 20
  2.8000
 30
0.0
 11
  9.7000
 21
  2.8000
 31
0.0
 0
TEXT
 8
PARTS
 10
  9.6000
 20
  2.8300
 30
0.0
 40
  0.0500
 1
5
 0
LINE
 8
PARTS
 10
  9.4000
 20
  2.6000
 30
0.0
 11
  9.7000
 21
  2.6000
 31
0.0
 0
TEXT
 8
PARTS
 10
  9.6000
 20
  2.6300
 30
0.0
 40
  0.0500
 1
6
 0
LINE
 8
PARTS
 10
 10.4000
 20
  2.7000
 30
0.0
 11
 10.1000
 21
  2.7000
 31
0.0
 0
TEXT
 8
PARTS
 10
 10.1600
 20
  2.7300
 30
0.0
 40
  0.0500
 1
7
 0
LINE
 8
PARTS
 10
  9.8000
 20
  3.2000
 30
0.0
 11
  9.8000
 21
  2.9000
 31
0.0
 0
TEXT
 8
PARTS
 10
  9.7700
 20
  2.9600
 30
0.0
 40
  0.0500
 50
 90.0000
 1
8
 0
LINE
 8
PARTS
 10
  9.8000
 20
  2.2000
 30
0.0
 11
  9.8000
 21
  2.5000
 31
0.0
 0
TEXT
 8
PARTS
 10
  9.7700
 20
  2.3800
 30
0.0
 40
  0.0500
 50
 90.0000
 1
4
 0
POLYLINE
 8
PARTS
 66
1
 10
0.0
 20
0.0
 30
0.0
 0
VERTEX
 8
PARTS
 10
  9.7000
 20
  2.9000
 30
0.0
 0
VERTEX
 8
PARTS
 10
 10.1000
 20
  2.7000
 30
0.0
 0
SEQEND
 8
PARTS
 0
POLYLINE
 8
PARTS
 66
1
 10
0.0
 20
0.0
 30
0.0
 0
VERTEX
 8
PARTS
 10
 10.1000
 20
  2.7000
 30
0.0
 0
VERTEX
 8
PARTS
 10
  9.7000
 20
  2.5000
 30
0.0
 0
SEQEND
 8
PARTS
 0
POLYLINE
 8
PARTS
 66
1
 10
0.0
 20
0.0
 30
0.0
 0
VERTEX
 8
PARTS
 10
  9.7000
 20
  2.5000
 30
0.0
 0
VERTEX
 8
PARTS
 10
  9.7000
 20
  2.9000
 30
0.0
 0
SEQEND
 8
PARTS
 0
POLYLINE
 8
PARTS
 66
1
 10
0.0
 20
0.0
 30
0.0
 0
VERTEX
 8
PARTS
 10
  9.8000
 20
  2.9000
 30
0.0
 0
VERTEX
 8
PARTS
 10
  9.8000
 20
  2.8500
 30
0.0
 0
SEQEND
 8
PARTS
 0
POLYLINE
 8
PARTS
 66
1
 10
0.0
 20
0.0
 30
0.0
 0
VERTEX
 8
PARTS
 10
  9.8000
 20
  2.5500
 30
0.0
 0
VERTEX
 8
PARTS
 10
  9.8000
 20
  2.5000
 30
0.0
 0
SEQEND
 8
PARTS
 0
TEXT
 8
PARTTEXT
 10
  9.7300
 20
  2.7486
 30
0.0
 40
  0.0514
 1
+
 0
TEXT
 8
PARTTEXT
 10
  9.7300
 20
  2.5486
 30
0.0
 40
  0.0514
 1
-
 0
TEXT
 8
PARTTEXT
 10
  6.4400
 20
  8.6286
 30
0.0
 40
  0.0514
 1
250pF
 0
LINE
 8
PARTS
 10
  6.3000
 20
  8.8000
 30
0.0
 11
  6.3000
 21
  8.7000
 31
0.0
 0
TEXT
 8
PARTS
 10
  6.2700
 20
  8.7600
 30
0.0
 40
  0.0500
 50
 90.0000
 1

 0
LINE
 8
PARTS
 10
  6.3000
 20
  8.5000
 30
0.0
 11
  6.3000
 21
  8.6000
 31
0.0
 0
TEXT
 8
PARTS
 10
  6.2700
 20
  8.4800
 30
0.0
 40
  0.0500
 50
 90.0000
 1

 0
POLYLINE
 8
PARTS
 66
1
 10
0.0
 20
0.0
 30
0.0
 0
VERTEX
 8
PARTS
 10
  6.3000
 20
  8.7000
 30
0.0
 0
VERTEX
 8
PARTS
 10
  6.3000
 20
  8.6800
 30
0.0
 0
SEQEND
 8
PARTS
 0
POLYLINE
 8
PARTS
 66
1
 10
0.0
 20
0.0
 30
0.0
 0
VERTEX
 8
PARTS
 10
  6.2100
 20
  8.6300
 30
0.0
 0
VERTEX
 8
PARTS
 10
  6.3900
 20
  8.6300
 30
0.0
 0
SEQEND
 8
PARTS
 0
POLYLINE
 8
PARTS
 66
1
 10
0.0
 20
0.0
 30
0.0
 0
VERTEX
 8
PARTS
 10
  6.2100
 20
  8.6800
 30
0.0
 0
VERTEX
 8
PARTS
 10
  6.3900
 20
  8.6800
 30
0.0
 0
SEQEND
 8
PARTS
 0
POLYLINE
 8
PARTS
 66
1
 10
0.0
 20
0.0
 30
0.0
 0
VERTEX
 8
PARTS
 10
  6.3000
 20
  8.6000
 30
0.0
 0
VERTEX
 8
PARTS
 10
  6.3000
 20
  8.6300
 30
0.0
 0
SEQEND
 8
PARTS
 0
LINE
 8
PARTS
 10
  6.7000
 20
  4.7000
 30
0.0
 11
  6.8000
 21
  4.7000
 31
0.0
 0
TEXT
 8
PARTS
 10
  6.7400
 20
  4.7300
 30
0.0
 40
  0.0500
 1

 0
LINE
 8
PARTS
 10
  6.9000
 20
  4.3000
 30
0.0
 11
  6.9000
 21
  4.6000
 31
0.0
 0
TEXT
 8
PARTS
 10
  6.8700
 20
  4.4800
 30
0.0
 40
  0.0500
 50
 90.0000
 1

 0
POLYLINE
 8
PARTS
 66
1
 70
1
 10
0.0
 20
0.0
 30
0.0
 0
VERTEX
 8
PARTS
 10
  6.9300
 20
  4.7000
 30
0.0
 42
  0.0985
 0
VERTEX
 8
PARTS
 10
  6.9277
 20
  4.7115
 30
0.0
 42
  0.0985
 0
VERTEX
 8
PARTS
 10
  6.9212
 20
  4.7212
 30
0.0
 42
  0.0985
 0
VERTEX
 8
PARTS
 10
  6.9115
 20
  4.7277
 30
0.0
 42
  0.0985
 0
VERTEX
 8
PARTS
 10
  6.9000
 20
  4.7300
 30
0.0
 42
  0.0985
 0
VERTEX
 8
PARTS
 10
  6.8885
 20
  4.7277
 30
0.0
 42
  0.0985
 0
VERTEX
 8
PARTS
 10
  6.8788
 20
  4.7212
 30
0.0
 42
  0.0985
 0
VERTEX
 8
PARTS
 10
  6.8723
 20
  4.7115
 30
0.0
 42
  0.0985
 0
VERTEX
 8
PARTS
 10
  6.8700
 20
  4.7000
 30
0.0
 42
  0.0985
 0
VERTEX
 8
PARTS
 10
  6.8723
 20
  4.6885
 30
0.0
 42
  0.0985
 0
VERTEX
 8
PARTS
 10
  6.8788
 20
  4.6788
 30
0.0
 42
  0.0985
 0
VERTEX
 8
PARTS
 10
  6.8885
 20
  4.6723
 30
0.0
 42
  0.0985
 0
VERTEX
 8
PARTS
 10
  6.9000
 20
  4.6700
 30
0.0
 42
  0.0985
 0
VERTEX
 8
PARTS
 10
  6.9115
 20
  4.6723
 30
0.0
 42
  0.0985
 0
VERTEX
 8
PARTS
 10
  6.9212
 20
  4.6788
 30
0.0
 42
  0.0985
 0
VERTEX
 8
PARTS
 10
  6.9277
 20
  4.6885
 30
0.0
 42
  0.0985
 0
SEQEND
 8
PARTS
 0
POLYLINE
 8
PARTS
 66
1
 10
0.0
 20
0.0
 30
0.0
 0
VERTEX
 8
PARTS
 10
  6.8000
 20
  4.7000
 30
0.0
 0
VERTEX
 8
PARTS
 10
  6.8700
 20
  4.7000
 30
0.0
 0
SEQEND
 8
PARTS
 0
POLYLINE
 8
PARTS
 66
1
 70
1
 10
0.0
 20
0.0
 30
0.0
 0
VERTEX
 8
PARTS
 10
  7.0000
 20
  4.7000
 30
0.0
 42
  0.0985
 0
VERTEX
 8
PARTS
 10
  6.9924
 20
  4.7383
 30
0.0
 42
  0.0985
 0
VERTEX
 8
PARTS
 10
  6.9707
 20
  4.7707
 30
0.0
 42
  0.0985
 0
VERTEX
 8
PARTS
 10
  6.9383
 20
  4.7924
 30
0.0
 42
  0.0985
 0
VERTEX
 8
PARTS
 10
  6.9000
 20
  4.8000
 30
0.0
 42
  0.0985
 0
VERTEX
 8
PARTS
 10
  6.8617
 20
  4.7924
 30
0.0
 42
  0.0985
 0
VERTEX
 8
PARTS
 10
  6.8293
 20
  4.7707
 30
0.0
 42
  0.0985
 0
VERTEX
 8
PARTS
 10
  6.8076
 20
  4.7383
 30
0.0
 42
  0.0985
 0
VERTEX
 8
PARTS
 10
  6.8000
 20
  4.7000
 30
0.0
 42
  0.0985
 0
VERTEX
 8
PARTS
 10
  6.8076
 20
  4.6617
 30
0.0
 42
  0.0985
 0
VERTEX
 8
PARTS
 10
  6.8293
 20
  4.6293
 30
0.0
 42
  0.0985
 0
VERTEX
 8
PARTS
 10
  6.8617
 20
  4.6076
 30
0.0
 42
  0.0985
 0
VERTEX
 8
PARTS
 10
  6.9000
 20
  4.6000
 30
0.0
 42
  0.0985
 0
VERTEX
 8
PARTS
 10
  6.9383
 20
  4.6076
 30
0.0
 42
  0.0985
 0
VERTEX
 8
PARTS
 10
  6.9707
 20
  4.6293
 30
0.0
 42
  0.0985
 0
VERTEX
 8
PARTS
 10
  6.9924
 20
  4.6617
 30
0.0
 42
  0.0985
 0
SEQEND
 8
PARTS
 0
TEXT
 8
PARTTEXT
 10
  6.3400
 20
  4.4286
 30
0.0
 40
  0.0514
 1
230pF
 0
LINE
 8
PARTS
 10
  6.2000
 20
  4.6000
 30
0.0
 11
  6.2000
 21
  4.5000
 31
0.0
 0
TEXT
 8
PARTS
 10
  6.1700
 20
  4.5600
 30
0.0
 40
  0.0500
 50
 90.0000
 1

 0
LINE
 8
PARTS
 10
  6.2000
 20
  4.3000
 30
0.0
 11
  6.2000
 21
  4.4000
 31
0.0
 0
TEXT
 8
PARTS
 10
  6.1700
 20
  4.2800
 30
0.0
 40
  0.0500
 50
 90.0000
 1

 0
POLYLINE
 8
PARTS
 66
1
 10
0.0
 20
0.0
 30
0.0
 0
VERTEX
 8
PARTS
 10
  6.2000
 20
  4.5000
 30
0.0
 0
VERTEX
 8
PARTS
 10
  6.2000
 20
  4.4800
 30
0.0
 0
SEQEND
 8
PARTS
 0
POLYLINE
 8
PARTS
 66
1
 10
0.0
 20
0.0
 30
0.0
 0
VERTEX
 8
PARTS
 10
  6.1100
 20
  4.4300
 30
0.0
 0
VERTEX
 8
PARTS
 10
  6.2900
 20
  4.4300
 30
0.0
 0
SEQEND
 8
PARTS
 0
POLYLINE
 8
PARTS
 66
1
 10
0.0
 20
0.0
 30
0.0
 0
VERTEX
 8
PARTS
 10
  6.1100
 20
  4.4800
 30
0.0
 0
VERTEX
 8
PARTS
 10
  6.2900
 20
  4.4800
 30
0.0
 0
SEQEND
 8
PARTS
 0
POLYLINE
 8
PARTS
 66
1
 10
0.0
 20
0.0
 30
0.0
 0
VERTEX
 8
PARTS
 10
  6.2000
 20
  4.4000
 30
0.0
 0
VERTEX
 8
PARTS
 10
  6.2000
 20
  4.4300
 30
0.0
 0
SEQEND
 8
PARTS
 0
TEXT
 8
PARTTEXT
 10
  4.1000
 20
  8.9886
 30
0.0
 40
  0.0514
 1
495nH
 0
LINE
 8
PARTS
 10
  4.0000
 20
  8.9000
 30
0.0
 11
  4.1000
 21
  8.9000
 31
0.0
 0
TEXT
 8
PARTS
 10
  4.0400
 20
  8.9300
 30
0.0
 40
  0.0500
 1

 0
LINE
 8
PARTS
 10
  4.6000
 20
  8.9000
 30
0.0
 11
  4.5000
 21
  8.9000
 31
0.0
 0
TEXT
 8
PARTS
 10
  4.5600
 20
  8.9300
 30
0.0
 40
  0.0500
 1

 0
POLYLINE
 8
PARTS
 66
1
 10
0.0
 20
0.0
 30
0.0
 0
VERTEX
 8
PARTS
 10
  4.1500
 20
  8.9500
 30
0.0
 42
  0.4142
 0
VERTEX
 8
PARTS
 10
  4.1000
 20
  8.9000
 30
0.0
 0
SEQEND
 8
PARTS
 0
POLYLINE
 8
PARTS
 66
1
 10
0.0
 20
0.0
 30
0.0
 0
VERTEX
 8
PARTS
 10
  4.2000
 20
  8.9000
 30
0.0
 42
  0.4142
 0
VERTEX
 8
PARTS
 10
  4.1500
 20
  8.9500
 30
0.0
 0
SEQEND
 8
PARTS
 0
POLYLINE
 8
PARTS
 66
1
 10
0.0
 20
0.0
 30
0.0
 0
VERTEX
 8
PARTS
 10
  4.2500
 20
  8.9500
 30
0.0
 42
  0.4142
 0
VERTEX
 8
PARTS
 10
  4.2000
 20
  8.9000
 30
0.0
 0
SEQEND
 8
PARTS
 0
POLYLINE
 8
PARTS
 66
1
 10
0.0
 20
0.0
 30
0.0
 0
VERTEX
 8
PARTS
 10
  4.3000
 20
  8.9000
 30
0.0
 42
  0.4142
 0
VERTEX
 8
PARTS
 10
  4.2500
 20
  8.9500
 30
0.0
 0
SEQEND
 8
PARTS
 0
POLYLINE
 8
PARTS
 66
1
 10
0.0
 20
0.0
 30
0.0
 0
VERTEX
 8
PARTS
 10
  4.3500
 20
  8.9500
 30
0.0
 42
  0.4142
 0
VERTEX
 8
PARTS
 10
  4.3000
 20
  8.9000
 30
0.0
 0
SEQEND
 8
PARTS
 0
POLYLINE
 8
PARTS
 66
1
 10
0.0
 20
0.0
 30
0.0
 0
VERTEX
 8
PARTS
 10
  4.4000
 20
  8.9000
 30
0.0
 42
  0.4142
 0
VERTEX
 8
PARTS
 10
  4.3500
 20
  8.9500
 30
0.0
 0
SEQEND
 8
PARTS
 0
POLYLINE
 8
PARTS
 66
1
 10
0.0
 20
0.0
 30
0.0
 0
VERTEX
 8
PARTS
 10
  4.4500
 20
  8.9500
 30
0.0
 42
  0.4142
 0
VERTEX
 8
PARTS
 10
  4.4000
 20
  8.9000
 30
0.0
 0
SEQEND
 8
PARTS
 0
POLYLINE
 8
PARTS
 66
1
 10
0.0
 20
0.0
 30
0.0
 0
VERTEX
 8
PARTS
 10
  4.5000
 20
  8.9000
 30
0.0
 42
  0.4142
 0
VERTEX
 8
PARTS
 10
  4.4500
 20
  8.9500
 30
0.0
 0
SEQEND
 8
PARTS
 0
TEXT
 8
PARTTEXT
 10
  3.9400
 20
  4.4286
 30
0.0
 40
  0.0514
 1
290pF
 0
LINE
 8
PARTS
 10
  3.8000
 20
  4.6000
 30
0.0
 11
  3.8000
 21
  4.5000
 31
0.0
 0
TEXT
 8
PARTS
 10
  3.7700
 20
  4.5600
 30
0.0
 40
  0.0500
 50
 90.0000
 1

 0
LINE
 8
PARTS
 10
  3.8000
 20
  4.3000
 30
0.0
 11
  3.8000
 21
  4.4000
 31
0.0
 0
TEXT
 8
PARTS
 10
  3.7700
 20
  4.2800
 30
0.0
 40
  0.0500
 50
 90.0000
 1

 0
POLYLINE
 8
PARTS
 66
1
 10
0.0
 20
0.0
 30
0.0
 0
VERTEX
 8
PARTS
 10
  3.8000
 20
  4.5000
 30
0.0
 0
VERTEX
 8
PARTS
 10
  3.8000
 20
  4.4800
 30
0.0
 0
SEQEND
 8
PARTS
 0
POLYLINE
 8
PARTS
 66
1
 10
0.0
 20
0.0
 30
0.0
 0
VERTEX
 8
PARTS
 10
  3.7100
 20
  4.4300
 30
0.0
 0
VERTEX
 8
PARTS
 10
  3.8900
 20
  4.4300
 30
0.0
 0
SEQEND
 8
PARTS
 0
POLYLINE
 8
PARTS
 66
1
 10
0.0
 20
0.0
 30
0.0
 0
VERTEX
 8
PARTS
 10
  3.7100
 20
  4.4800
 30
0.0
 0
VERTEX
 8
PARTS
 10
  3.8900
 20
  4.4800
 30
0.0
 0
SEQEND
 8
PARTS
 0
POLYLINE
 8
PARTS
 66
1
 10
0.0
 20
0.0
 30
0.0
 0
VERTEX
 8
PARTS
 10
  3.8000
 20
  4.4000
 30
0.0
 0
VERTEX
 8
PARTS
 10
  3.8000
 20
  4.4300
 30
0.0
 0
SEQEND
 8
PARTS
 0
LINE
 8
PARTS
 10
 10.9000
 20
  2.7000
 30
0.0
 11
 11.0000
 21
  2.7000
 31
0.0
 0
TEXT
 8
PARTS
 10
 10.9400
 20
  2.7300
 30
0.0
 40
  0.0500
 1

 0
LINE
 8
PARTS
 10
 11.1000
 20
  2.5000
 30
0.0
 11
 11.1000
 21
  2.6000
 31
0.0
 0
TEXT
 8
PARTS
 10
 11.0700
 20
  2.4800
 30
0.0
 40
  0.0500
 50
 90.0000
 1

 0
POLYLINE
 8
PARTS
 66
1
 70
1
 10
0.0
 20
0.0
 30
0.0
 0
VERTEX
 8
PARTS
 10
 11.1300
 20
  2.7000
 30
0.0
 42
  0.0985
 0
VERTEX
 8
PARTS
 10
 11.1277
 20
  2.7115
 30
0.0
 42
  0.0985
 0
VERTEX
 8
PARTS
 10
 11.1212
 20
  2.7212
 30
0.0
 42
  0.0985
 0
VERTEX
 8
PARTS
 10
 11.1115
 20
  2.7277
 30
0.0
 42
  0.0985
 0
VERTEX
 8
PARTS
 10
 11.1000
 20
  2.7300
 30
0.0
 42
  0.0985
 0
VERTEX
 8
PARTS
 10
 11.0885
 20
  2.7277
 30
0.0
 42
  0.0985
 0
VERTEX
 8
PARTS
 10
 11.0788
 20
  2.7212
 30
0.0
 42
  0.0985
 0
VERTEX
 8
PARTS
 10
 11.0723
 20
  2.7115
 30
0.0
 42
  0.0985
 0
VERTEX
 8
PARTS
 10
 11.0700
 20
  2.7000
 30
0.0
 42
  0.0985
 0
VERTEX
 8
PARTS
 10
 11.0723
 20
  2.6885
 30
0.0
 42
  0.0985
 0
VERTEX
 8
PARTS
 10
 11.0788
 20
  2.6788
 30
0.0
 42
  0.0985
 0
VERTEX
 8
PARTS
 10
 11.0885
 20
  2.6723
 30
0.0
 42
  0.0985
 0
VERTEX
 8
PARTS
 10
 11.1000
 20
  2.6700
 30
0.0
 42
  0.0985
 0
VERTEX
 8
PARTS
 10
 11.1115
 20
  2.6723
 30
0.0
 42
  0.0985
 0
VERTEX
 8
PARTS
 10
 11.1212
 20
  2.6788
 30
0.0
 42
  0.0985
 0
VERTEX
 8
PARTS
 10
 11.1277
 20
  2.6885
 30
0.0
 42
  0.0985
 0
SEQEND
 8
PARTS
 0
POLYLINE
 8
PARTS
 66
1
 10
0.0
 20
0.0
 30
0.0
 0
VERTEX
 8
PARTS
 10
 11.0000
 20
  2.7000
 30
0.0
 0
VERTEX
 8
PARTS
 10
 11.0700
 20
  2.7000
 30
0.0
 0
SEQEND
 8
PARTS
 0
POLYLINE
 8
PARTS
 66
1
 70
1
 10
0.0
 20
0.0
 30
0.0
 0
VERTEX
 8
PARTS
 10
 11.2000
 20
  2.7000
 30
0.0
 42
  0.0985
 0
VERTEX
 8
PARTS
 10
 11.1924
 20
  2.7383
 30
0.0
 42
  0.0985
 0
VERTEX
 8
PARTS
 10
 11.1707
 20
  2.7707
 30
0.0
 42
  0.0985
 0
VERTEX
 8
PARTS
 10
 11.1383
 20
  2.7924
 30
0.0
 42
  0.0985
 0
VERTEX
 8
PARTS
 10
 11.1000
 20
  2.8000
 30
0.0
 42
  0.0985
 0
VERTEX
 8
PARTS
 10
 11.0617
 20
  2.7924
 30
0.0
 42
  0.0985
 0
VERTEX
 8
PARTS
 10
 11.0293
 20
  2.7707
 30
0.0
 42
  0.0985
 0
VERTEX
 8
PARTS
 10
 11.0076
 20
  2.7383
 30
0.0
 42
  0.0985
 0
VERTEX
 8
PARTS
 10
 11.0000
 20
  2.7000
 30
0.0
 42
  0.0985
 0
VERTEX
 8
PARTS
 10
 11.0076
 20
  2.6617
 30
0.0
 42
  0.0985
 0
VERTEX
 8
PARTS
 10
 11.0293
 20
  2.6293
 30
0.0
 42
  0.0985
 0
VERTEX
 8
PARTS
 10
 11.0617
 20
  2.6076
 30
0.0
 42
  0.0985
 0
VERTEX
 8
PARTS
 10
 11.1000
 20
  2.6000
 30
0.0
 42
  0.0985
 0
VERTEX
 8
PARTS
 10
 11.1383
 20
  2.6076
 30
0.0
 42
  0.0985
 0
VERTEX
 8
PARTS
 10
 11.1707
 20
  2.6293
 30
0.0
 42
  0.0985
 0
VERTEX
 8
PARTS
 10
 11.1924
 20
  2.6617
 30
0.0
 42
  0.0985
 0
SEQEND
 8
PARTS
 0
TEXT
 8
PARTTEXT
 10
  5.6400
 20
  8.6286
 30
0.0
 40
  0.0514
 1
380pF
 0
LINE
 8
PARTS
 10
  5.5000
 20
  8.8000
 30
0.0
 11
  5.5000
 21
  8.7000
 31
0.0
 0
TEXT
 8
PARTS
 10
  5.4700
 20
  8.7600
 30
0.0
 40
  0.0500
 50
 90.0000
 1

 0
LINE
 8
PARTS
 10
  5.5000
 20
  8.5000
 30
0.0
 11
  5.5000
 21
  8.6000
 31
0.0
 0
TEXT
 8
PARTS
 10
  5.4700
 20
  8.4800
 30
0.0
 40
  0.0500
 50
 90.0000
 1

 0
POLYLINE
 8
PARTS
 66
1
 10
0.0
 20
0.0
 30
0.0
 0
VERTEX
 8
PARTS
 10
  5.5000
 20
  8.7000
 30
0.0
 0
VERTEX
 8
PARTS
 10
  5.5000
 20
  8.6800
 30
0.0
 0
SEQEND
 8
PARTS
 0
POLYLINE
 8
PARTS
 66
1
 10
0.0
 20
0.0
 30
0.0
 0
VERTEX
 8
PARTS
 10
  5.4100
 20
  8.6300
 30
0.0
 0
VERTEX
 8
PARTS
 10
  5.5900
 20
  8.6300
 30
0.0
 0
SEQEND
 8
PARTS
 0
POLYLINE
 8
PARTS
 66
1
 10
0.0
 20
0.0
 30
0.0
 0
VERTEX
 8
PARTS
 10
  5.4100
 20
  8.6800
 30
0.0
 0
VERTEX
 8
PARTS
 10
  5.5900
 20
  8.6800
 30
0.0
 0
SEQEND
 8
PARTS
 0
POLYLINE
 8
PARTS
 66
1
 10
0.0
 20
0.0
 30
0.0
 0
VERTEX
 8
PARTS
 10
  5.5000
 20
  8.6000
 30
0.0
 0
VERTEX
 8
PARTS
 10
  5.5000
 20
  8.6300
 30
0.0
 0
SEQEND
 8
PARTS
 0
LINE
 8
PARTS
 10
 10.2000
 20
  6.9000
 30
0.0
 11
 10.3000
 21
  6.9000
 31
0.0
 0
TEXT
 8
PARTS
 10
 10.2400
 20
  6.9300
 30
0.0
 40
  0.0500
 1

 0
LINE
 8
PARTS
 10
 10.4000
 20
  6.7000
 30
0.0
 11
 10.4000
 21
  6.8000
 31
0.0
 0
TEXT
 8
PARTS
 10
 10.3700
 20
  6.6800
 30
0.0
 40
  0.0500
 50
 90.0000
 1

 0
POLYLINE
 8
PARTS
 66
1
 70
1
 10
0.0
 20
0.0
 30
0.0
 0
VERTEX
 8
PARTS
 10
 10.4300
 20
  6.9000
 30
0.0
 42
  0.0985
 0
VERTEX
 8
PARTS
 10
 10.4277
 20
  6.9115
 30
0.0
 42
  0.0985
 0
VERTEX
 8
PARTS
 10
 10.4212
 20
  6.9212
 30
0.0
 42
  0.0985
 0
VERTEX
 8
PARTS
 10
 10.4115
 20
  6.9277
 30
0.0
 42
  0.0985
 0
VERTEX
 8
PARTS
 10
 10.4000
 20
  6.9300
 30
0.0
 42
  0.0985
 0
VERTEX
 8
PARTS
 10
 10.3885
 20
  6.9277
 30
0.0
 42
  0.0985
 0
VERTEX
 8
PARTS
 10
 10.3788
 20
  6.9212
 30
0.0
 42
  0.0985
 0
VERTEX
 8
PARTS
 10
 10.3723
 20
  6.9115
 30
0.0
 42
  0.0985
 0
VERTEX
 8
PARTS
 10
 10.3700
 20
  6.9000
 30
0.0
 42
  0.0985
 0
VERTEX
 8
PARTS
 10
 10.3723
 20
  6.8885
 30
0.0
 42
  0.0985
 0
VERTEX
 8
PARTS
 10
 10.3788
 20
  6.8788
 30
0.0
 42
  0.0985
 0
VERTEX
 8
PARTS
 10
 10.3885
 20
  6.8723
 30
0.0
 42
  0.0985
 0
VERTEX
 8
PARTS
 10
 10.4000
 20
  6.8700
 30
0.0
 42
  0.0985
 0
VERTEX
 8
PARTS
 10
 10.4115
 20
  6.8723
 30
0.0
 42
  0.0985
 0
VERTEX
 8
PARTS
 10
 10.4212
 20
  6.8788
 30
0.0
 42
  0.0985
 0
VERTEX
 8
PARTS
 10
 10.4277
 20
  6.8885
 30
0.0
 42
  0.0985
 0
SEQEND
 8
PARTS
 0
POLYLINE
 8
PARTS
 66
1
 10
0.0
 20
0.0
 30
0.0
 0
VERTEX
 8
PARTS
 10
 10.3000
 20
  6.9000
 30
0.0
 0
VERTEX
 8
PARTS
 10
 10.3700
 20
  6.9000
 30
0.0
 0
SEQEND
 8
PARTS
 0
POLYLINE
 8
PARTS
 66
1
 70
1
 10
0.0
 20
0.0
 30
0.0
 0
VERTEX
 8
PARTS
 10
 10.5000
 20
  6.9000
 30
0.0
 42
  0.0985
 0
VERTEX
 8
PARTS
 10
 10.4924
 20
  6.9383
 30
0.0
 42
  0.0985
 0
VERTEX
 8
PARTS
 10
 10.4707
 20
  6.9707
 30
0.0
 42
  0.0985
 0
VERTEX
 8
PARTS
 10
 10.4383
 20
  6.9924
 30
0.0
 42
  0.0985
 0
VERTEX
 8
PARTS
 10
 10.4000
 20
  7.0000
 30
0.0
 42
  0.0985
 0
VERTEX
 8
PARTS
 10
 10.3617
 20
  6.9924
 30
0.0
 42
  0.0985
 0
VERTEX
 8
PARTS
 10
 10.3293
 20
  6.9707
 30
0.0
 42
  0.0985
 0
VERTEX
 8
PARTS
 10
 10.3076
 20
  6.9383
 30
0.0
 42
  0.0985
 0
VERTEX
 8
PARTS
 10
 10.3000
 20
  6.9000
 30
0.0
 42
  0.0985
 0
VERTEX
 8
PARTS
 10
 10.3076
 20
  6.8617
 30
0.0
 42
  0.0985
 0
VERTEX
 8
PARTS
 10
 10.3293
 20
  6.8293
 30
0.0
 42
  0.0985
 0
VERTEX
 8
PARTS
 10
 10.3617
 20
  6.8076
 30
0.0
 42
  0.0985
 0
VERTEX
 8
PARTS
 10
 10.4000
 20
  6.8000
 30
0.0
 42
  0.0985
 0
VERTEX
 8
PARTS
 10
 10.4383
 20
  6.8076
 30
0.0
 42
  0.0985
 0
VERTEX
 8
PARTS
 10
 10.4707
 20
  6.8293
 30
0.0
 42
  0.0985
 0
VERTEX
 8
PARTS
 10
 10.4924
 20
  6.8617
 30
0.0
 42
  0.0985
 0
SEQEND
 8
PARTS
 0
TEXT
 8
PARTTEXT
 10
  8.1800
 20
  8.6686
 30
0.0
 40
  0.0514
 1
51
 0
LINE
 8
PARTS
 10
  8.1000
 20
  8.9000
 30
0.0
 11
  8.1000
 21
  8.8000
 31
0.0
 0
TEXT
 8
PARTS
 10
  8.0700
 20
  8.8600
 30
0.0
 40
  0.0500
 50
 90.0000
 1

 0
LINE
 8
PARTS
 10
  8.1000
 20
  8.4000
 30
0.0
 11
  8.1000
 21
  8.5000
 31
0.0
 0
TEXT
 8
PARTS
 10
  8.0700
 20
  8.3800
 30
0.0
 40
  0.0500
 50
 90.0000
 1

 0
POLYLINE
 8
PARTS
 66
1
 10
0.0
 20
0.0
 30
0.0
 0
VERTEX
 8
PARTS
 10
  8.1000
 20
  8.8000
 30
0.0
 0
VERTEX
 8
PARTS
 10
  8.1300
 20
  8.7700
 30
0.0
 0
SEQEND
 8
PARTS
 0
POLYLINE
 8
PARTS
 66
1
 10
0.0
 20
0.0
 30
0.0
 0
VERTEX
 8
PARTS
 10
  8.1300
 20
  8.7700
 30
0.0
 0
VERTEX
 8
PARTS
 10
  8.0700
 20
  8.7100
 30
0.0
 0
SEQEND
 8
PARTS
 0
POLYLINE
 8
PARTS
 66
1
 10
0.0
 20
0.0
 30
0.0
 0
VERTEX
 8
PARTS
 10
  8.0700
 20
  8.7100
 30
0.0
 0
VERTEX
 8
PARTS
 10
  8.1300
 20
  8.6500
 30
0.0
 0
SEQEND
 8
PARTS
 0
POLYLINE
 8
PARTS
 66
1
 10
0.0
 20
0.0
 30
0.0
 0
VERTEX
 8
PARTS
 10
  8.1300
 20
  8.6500
 30
0.0
 0
VERTEX
 8
PARTS
 10
  8.0700
 20
  8.5900
 30
0.0
 0
SEQEND
 8
PARTS
 0
POLYLINE
 8
PARTS
 66
1
 10
0.0
 20
0.0
 30
0.0
 0
VERTEX
 8
PARTS
 10
  8.0700
 20
  8.5900
 30
0.0
 0
VERTEX
 8
PARTS
 10
  8.1300
 20
  8.5300
 30
0.0
 0
SEQEND
 8
PARTS
 0
POLYLINE
 8
PARTS
 66
1
 10
0.0
 20
0.0
 30
0.0
 0
VERTEX
 8
PARTS
 10
  8.1300
 20
  8.5300
 30
0.0
 0
VERTEX
 8
PARTS
 10
  8.1000
 20
  8.5000
 30
0.0
 0
SEQEND
 8
PARTS
 0
TEXT
 8
PARTTEXT
 10
  8.0800
 20
  3.7686
 30
0.0
 40
  0.0514
 1
2K
 0
LINE
 8
PARTS
 10
  8.3000
 20
  4.1000
 30
0.0
 11
  8.3000
 21
  4.0000
 31
0.0
 0
TEXT
 8
PARTS
 10
  8.2700
 20
  4.0600
 30
0.0
 40
  0.0500
 50
 90.0000
 1

 0
LINE
 8
PARTS
 10
  8.3000
 20
  3.4000
 30
0.0
 11
  8.3000
 21
  3.5000
 31
0.0
 0
TEXT
 8
PARTS
 10
  8.2700
 20
  3.3800
 30
0.0
 40
  0.0500
 50
 90.0000
 1

 0
LINE
 8
PARTS
 10
  8.5000
 20
  3.8000
 30
0.0
 11
  8.4000
 21
  3.8000
 31
0.0
 0
TEXT
 8
PARTS
 10
  8.4600
 20
  3.8300
 30
0.0
 40
  0.0500
 1

 0
POLYLINE
 8
PARTS
 66
1
 70
1
 10
0.0
 20
0.0
 30
0.0
 0
VERTEX
 8
PARTS
 10
  8.3300
 20
  3.8000
 30
0.0
 0
VERTEX
 8
PARTS
 10
  8.3800
 20
  3.7500
 30
0.0
 0
VERTEX
 8
PARTS
 10
  8.3800
 20
  3.8500
 30
0.0
 0
VERTEX
 8
PARTS
 10
  8.3300
 20
  3.8000
 30
0.0
 0
SEQEND
 8
PARTS
 0
POLYLINE
 8
PARTS
 66
1
 10
0.0
 20
0.0
 30
0.0
 0
VERTEX
 8
PARTS
 10
  8.3000
 20
  4.0000
 30
0.0
 0
VERTEX
 8
PARTS
 10
  8.3000
 20
  3.9500
 30
0.0
 0
SEQEND
 8
PARTS
 0
POLYLINE
 8
PARTS
 66
1
 10
0.0
 20
0.0
 30
0.0
 0
VERTEX
 8
PARTS
 10
  8.3000
 20
  3.9500
 30
0.0
 0
VERTEX
 8
PARTS
 10
  8.3300
 20
  3.9200
 30
0.0
 0
SEQEND
 8
PARTS
 0
POLYLINE
 8
PARTS
 66
1
 10
0.0
 20
0.0
 30
0.0
 0
VERTEX
 8
PARTS
 10
  8.3300
 20
  3.9200
 30
0.0
 0
VERTEX
 8
PARTS
 10
  8.2700
 20
  3.8600
 30
0.0
 0
SEQEND
 8
PARTS
 0
POLYLINE
 8
PARTS
 66
1
 10
0.0
 20
0.0
 30
0.0
 0
VERTEX
 8
PARTS
 10
  8.2700
 20
  3.8600
 30
0.0
 0
VERTEX
 8
PARTS
 10
  8.3300
 20
  3.8000
 30
0.0
 0
SEQEND
 8
PARTS
 0
POLYLINE
 8
PARTS
 66
1
 10
0.0
 20
0.0
 30
0.0
 0
VERTEX
 8
PARTS
 10
  8.3300
 20
  3.8000
 30
0.0
 0
VERTEX
 8
PARTS
 10
  8.2700
 20
  3.7400
 30
0.0
 0
SEQEND
 8
PARTS
 0
POLYLINE
 8
PARTS
 66
1
 10
0.0
 20
0.0
 30
0.0
 0
VERTEX
 8
PARTS
 10
  8.2700
 20
  3.7400
 30
0.0
 0
VERTEX
 8
PARTS
 10
  8.3300
 20
  3.6800
 30
0.0
 0
SEQEND
 8
PARTS
 0
POLYLINE
 8
PARTS
 66
1
 10
0.0
 20
0.0
 30
0.0
 0
VERTEX
 8
PARTS
 10
  8.3300
 20
  3.6800
 30
0.0
 0
VERTEX
 8
PARTS
 10
  8.2700
 20
  3.6200
 30
0.0
 0
SEQEND
 8
PARTS
 0
POLYLINE
 8
PARTS
 66
1
 10
0.0
 20
0.0
 30
0.0
 0
VERTEX
 8
PARTS
 10
  8.2700
 20
  3.6200
 30
0.0
 0
VERTEX
 8
PARTS
 10
  8.3000
 20
  3.5900
 30
0.0
 0
SEQEND
 8
PARTS
 0
POLYLINE
 8
PARTS
 66
1
 10
0.0
 20
0.0
 30
0.0
 0
VERTEX
 8
PARTS
 10
  8.3000
 20
  3.5900
 30
0.0
 0
VERTEX
 8
PARTS
 10
  8.3000
 20
  3.5000
 30
0.0
 0
SEQEND
 8
PARTS
 0
POLYLINE
 8
PARTS
 66
1
 10
0.0
 20
0.0
 30
0.0
 0
VERTEX
 8
PARTS
 10
  8.3800
 20
  3.8000
 30
0.0
 0
VERTEX
 8
PARTS
 10
  8.4000
 20
  3.8000
 30
0.0
 0
SEQEND
 8
PARTS
 0
TEXT
 8
PARTTEXT
 10
  2.4400
 20
  8.6286
 30
0.0
 40
  0.0514
 1
380pF
 0
LINE
 8
PARTS
 10
  2.3000
 20
  8.8000
 30
0.0
 11
  2.3000
 21
  8.7000
 31
0.0
 0
TEXT
 8
PARTS
 10
  2.2700
 20
  8.7600
 30
0.0
 40
  0.0500
 50
 90.0000
 1

 0
LINE
 8
PARTS
 10
  2.3000
 20
  8.5000
 30
0.0
 11
  2.3000
 21
  8.6000
 31
0.0
 0
TEXT
 8
PARTS
 10
  2.2700
 20
  8.4800
 30
0.0
 40
  0.0500
 50
 90.0000
 1

 0
POLYLINE
 8
PARTS
 66
1
 10
0.0
 20
0.0
 30
0.0
 0
VERTEX
 8
PARTS
 10
  2.3000
 20
  8.7000
 30
0.0
 0
VERTEX
 8
PARTS
 10
  2.3000
 20
  8.6800
 30
0.0
 0
SEQEND
 8
PARTS
 0
POLYLINE
 8
PARTS
 66
1
 10
0.0
 20
0.0
 30
0.0
 0
VERTEX
 8
PARTS
 10
  2.2100
 20
  8.6300
 30
0.0
 0
VERTEX
 8
PARTS
 10
  2.3900
 20
  8.6300
 30
0.0
 0
SEQEND
 8
PARTS
 0
POLYLINE
 8
PARTS
 66
1
 10
0.0
 20
0.0
 30
0.0
 0
VERTEX
 8
PARTS
 10
  2.2100
 20
  8.6800
 30
0.0
 0
VERTEX
 8
PARTS
 10
  2.3900
 20
  8.6800
 30
0.0
 0
SEQEND
 8
PARTS
 0
POLYLINE
 8
PARTS
 66
1
 10
0.0
 20
0.0
 30
0.0
 0
VERTEX
 8
PARTS
 10
  2.3000
 20
  8.6000
 30
0.0
 0
VERTEX
 8
PARTS
 10
  2.3000
 20
  8.6300
 30
0.0
 0
SEQEND
 8
PARTS
 0
TEXT
 8
PARTTEXT
 10
  1.7000
 20
  8.9886
 30
0.0
 40
  0.0514
 1
450nH
 0
LINE
 8
PARTS
 10
  1.6000
 20
  8.9000
 30
0.0
 11
  1.7000
 21
  8.9000
 31
0.0
 0
TEXT
 8
PARTS
 10
  1.6400
 20
  8.9300
 30
0.0
 40
  0.0500
 1

 0
LINE
 8
PARTS
 10
  2.2000
 20
  8.9000
 30
0.0
 11
  2.1000
 21
  8.9000
 31
0.0
 0
TEXT
 8
PARTS
 10
  2.1600
 20
  8.9300
 30
0.0
 40
  0.0500
 1

 0
POLYLINE
 8
PARTS
 66
1
 10
0.0
 20
0.0
 30
0.0
 0
VERTEX
 8
PARTS
 10
  1.7500
 20
  8.9500
 30
0.0
 42
  0.4142
 0
VERTEX
 8
PARTS
 10
  1.7000
 20
  8.9000
 30
0.0
 0
SEQEND
 8
PARTS
 0
POLYLINE
 8
PARTS
 66
1
 10
0.0
 20
0.0
 30
0.0
 0
VERTEX
 8
PARTS
 10
  1.8000
 20
  8.9000
 30
0.0
 42
  0.4142
 0
VERTEX
 8
PARTS
 10
  1.7500
 20
  8.9500
 30
0.0
 0
SEQEND
 8
PARTS
 0
POLYLINE
 8
PARTS
 66
1
 10
0.0
 20
0.0
 30
0.0
 0
VERTEX
 8
PARTS
 10
  1.8500
 20
  8.9500
 30
0.0
 42
  0.4142
 0
VERTEX
 8
PARTS
 10
  1.8000
 20
  8.9000
 30
0.0
 0
SEQEND
 8
PARTS
 0
POLYLINE
 8
PARTS
 66
1
 10
0.0
 20
0.0
 30
0.0
 0
VERTEX
 8
PARTS
 10
  1.9000
 20
  8.9000
 30
0.0
 42
  0.4142
 0
VERTEX
 8
PARTS
 10
  1.8500
 20
  8.9500
 30
0.0
 0
SEQEND
 8
PARTS
 0
POLYLINE
 8
PARTS
 66
1
 10
0.0
 20
0.0
 30
0.0
 0
VERTEX
 8
PARTS
 10
  1.9500
 20
  8.9500
 30
0.0
 42
  0.4142
 0
VERTEX
 8
PARTS
 10
  1.9000
 20
  8.9000
 30
0.0
 0
SEQEND
 8
PARTS
 0
POLYLINE
 8
PARTS
 66
1
 10
0.0
 20
0.0
 30
0.0
 0
VERTEX
 8
PARTS
 10
  2.0000
 20
  8.9000
 30
0.0
 42
  0.4142
 0
VERTEX
 8
PARTS
 10
  1.9500
 20
  8.9500
 30
0.0
 0
SEQEND
 8
PARTS
 0
POLYLINE
 8
PARTS
 66
1
 10
0.0
 20
0.0
 30
0.0
 0
VERTEX
 8
PARTS
 10
  2.0500
 20
  8.9500
 30
0.0
 42
  0.4142
 0
VERTEX
 8
PARTS
 10
  2.0000
 20
  8.9000
 30
0.0
 0
SEQEND
 8
PARTS
 0
POLYLINE
 8
PARTS
 66
1
 10
0.0
 20
0.0
 30
0.0
 0
VERTEX
 8
PARTS
 10
  2.1000
 20
  8.9000
 30
0.0
 42
  0.4142
 0
VERTEX
 8
PARTS
 10
  2.0500
 20
  8.9500
 30
0.0
 0
SEQEND
 8
PARTS
 0
LINE
 8
PARTS
 10
  7.0000
 20
  8.9000
 30
0.0
 11
  7.3000
 21
  8.9000
 31
0.0
 0
TEXT
 8
PARTS
 10
  7.2400
 20
  8.9300
 30
0.0
 40
  0.0500
 1

 0
LINE
 8
PARTS
 10
  7.8000
 20
  8.9000
 30
0.0
 11
  7.5000
 21
  8.9000
 31
0.0
 0
TEXT
 8
PARTS
 10
  7.5600
 20
  8.9300
 30
0.0
 40
  0.0500
 1

 0
LINE
 8
PARTS
 10
  7.4000
 20
  8.5000
 30
0.0
 11
  7.4000
 21
  8.8000
 31
0.0
 0
TEXT
 8
PARTS
 10
  7.3700
 20
  8.6800
 30
0.0
 40
  0.0500
 50
 90.0000
 1

 0
POLYLINE
 8
PARTS
 66
1
 10
0.0
 20
0.0
 30
0.0
 0
VERTEX
 8
PARTS
 10
  7.3000
 20
  8.9000
 30
0.0
 0
VERTEX
 8
PARTS
 10
  7.5000
 20
  8.9000
 30
0.0
 0
SEQEND
 8
PARTS
 0
POLYLINE
 8
PARTS
 66
1
 10
0.0
 20
0.0
 30
0.0
 0
VERTEX
 8
PARTS
 10
  7.3100
 20
  8.8400
 30
0.0
 0
VERTEX
 8
PARTS
 10
  7.5000
 20
  8.8400
 30
0.0
 0
SEQEND
 8
PARTS
 0
POLYLINE
 8
PARTS
 66
1
 10
0.0
 20
0.0
 30
0.0
 0
VERTEX
 8
PARTS
 10
  7.4000
 20
  8.8400
 30
0.0
 0
VERTEX
 8
PARTS
 10
  7.4000
 20
  8.8000
 30
0.0
 0
SEQEND
 8
PARTS
 0
POLYLINE
 8
PARTS
 66
1
 70
1
 10
0.0
 20
0.0
 30
0.0
 0
VERTEX
 8
PARTS
 10
  7.4600
 20
  8.9000
 30
0.0
 42
  0.0985
 0
VERTEX
 8
PARTS
 10
  7.4554
 20
  8.9230
 30
0.0
 42
  0.0985
 0
VERTEX
 8
PARTS
 10
  7.4424
 20
  8.9424
 30
0.0
 42
  0.0985
 0
VERTEX
 8
PARTS
 10
  7.4230
 20
  8.9554
 30
0.0
 42
  0.0985
 0
VERTEX
 8
PARTS
 10
  7.4000
 20
  8.9600
 30
0.0
 42
  0.0985
 0
VERTEX
 8
PARTS
 10
  7.3770
 20
  8.9554
 30
0.0
 42
  0.0985
 0
VERTEX
 8
PARTS
 10
  7.3576
 20
  8.9424
 30
0.0
 42
  0.0985
 0
VERTEX
 8
PARTS
 10
  7.3446
 20
  8.9230
 30
0.0
 42
  0.0985
 0
VERTEX
 8
PARTS
 10
  7.3400
 20
  8.9000
 30
0.0
 42
  0.0985
 0
VERTEX
 8
PARTS
 10
  7.3446
 20
  8.8770
 30
0.0
 42
  0.0985
 0
VERTEX
 8
PARTS
 10
  7.3576
 20
  8.8576
 30
0.0
 42
  0.0985
 0
VERTEX
 8
PARTS
 10
  7.3770
 20
  8.8446
 30
0.0
 42
  0.0985
 0
VERTEX
 8
PARTS
 10
  7.4000
 20
  8.8400
 30
0.0
 42
  0.0985
 0
VERTEX
 8
PARTS
 10
  7.4230
 20
  8.8446
 30
0.0
 42
  0.0985
 0
VERTEX
 8
PARTS
 10
  7.4424
 20
  8.8576
 30
0.0
 42
  0.0985
 0
VERTEX
 8
PARTS
 10
  7.4554
 20
  8.8770
 30
0.0
 42
  0.0985
 0
SEQEND
 8
PARTS
 0
TEXT
 8
PARTTEXT
 10
  9.7800
 20
  6.3686
 30
0.0
 40
  0.0514
 1
261,1%
 0
LINE
 8
PARTS
 10
  9.7000
 20
  6.1000
 30
0.0
 11
  9.7000
 21
  6.2000
 31
0.0
 0
TEXT
 8
PARTS
 10
  9.6700
 20
  6.0800
 30
0.0
 40
  0.0500
 50
 90.0000
 1

 0
LINE
 8
PARTS
 10
  9.7000
 20
  6.6000
 30
0.0
 11
  9.7000
 21
  6.5000
 31
0.0
 0
TEXT
 8
PARTS
 10
  9.6700
 20
  6.5600
 30
0.0
 40
  0.0500
 50
 90.0000
 1

 0
POLYLINE
 8
PARTS
 66
1
 10
0.0
 20
0.0
 30
0.0
 0
VERTEX
 8
PARTS
 10
  9.7000
 20
  6.2000
 30
0.0
 0
VERTEX
 8
PARTS
 10
  9.6700
 20
  6.2300
 30
0.0
 0
SEQEND
 8
PARTS
 0
POLYLINE
 8
PARTS
 66
1
 10
0.0
 20
0.0
 30
0.0
 0
VERTEX
 8
PARTS
 10
  9.6700
 20
  6.2300
 30
0.0
 0
VERTEX
 8
PARTS
 10
  9.7300
 20
  6.2900
 30
0.0
 0
SEQEND
 8
PARTS
 0
POLYLINE
 8
PARTS
 66
1
 10
0.0
 20
0.0
 30
0.0
 0
VERTEX
 8
PARTS
 10
  9.7300
 20
  6.2900
 30
0.0
 0
VERTEX
 8
PARTS
 10
  9.6700
 20
  6.3500
 30
0.0
 0
SEQEND
 8
PARTS
 0
POLYLINE
 8
PARTS
 66
1
 10
0.0
 20
0.0
 30
0.0
 0
VERTEX
 8
PARTS
 10
  9.6700
 20
  6.3500
 30
0.0
 0
VERTEX
 8
PARTS
 10
  9.7300
 20
  6.4100
 30
0.0
 0
SEQEND
 8
PARTS
 0
POLYLINE
 8
PARTS
 66
1
 10
0.0
 20
0.0
 30
0.0
 0
VERTEX
 8
PARTS
 10
  9.7300
 20
  6.4100
 30
0.0
 0
VERTEX
 8
PARTS
 10
  9.6700
 20
  6.4700
 30
0.0
 0
SEQEND
 8
PARTS
 0
POLYLINE
 8
PARTS
 66
1
 10
0.0
 20
0.0
 30
0.0
 0
VERTEX
 8
PARTS
 10
  9.6700
 20
  6.4700
 30
0.0
 0
VERTEX
 8
PARTS
 10
  9.7000
 20
  6.5000
 30
0.0
 0
SEQEND
 8
PARTS
 0
TEXT
 8
PARTTEXT
 10
  9.7800
 20
  8.2686
 30
0.0
 40
  0.0514
 1
261,1%
 0
LINE
 8
PARTS
 10
  9.7000
 20
  8.0000
 30
0.0
 11
  9.7000
 21
  8.1000
 31
0.0
 0
TEXT
 8
PARTS
 10
  9.6700
 20
  7.9800
 30
0.0
 40
  0.0500
 50
 90.0000
 1

 0
LINE
 8
PARTS
 10
  9.7000
 20
  8.5000
 30
0.0
 11
  9.7000
 21
  8.4000
 31
0.0
 0
TEXT
 8
PARTS
 10
  9.6700
 20
  8.4600
 30
0.0
 40
  0.0500
 50
 90.0000
 1

 0
POLYLINE
 8
PARTS
 66
1
 10
0.0
 20
0.0
 30
0.0
 0
VERTEX
 8
PARTS
 10
  9.7000
 20
  8.1000
 30
0.0
 0
VERTEX
 8
PARTS
 10
  9.6700
 20
  8.1300
 30
0.0
 0
SEQEND
 8
PARTS
 0
POLYLINE
 8
PARTS
 66
1
 10
0.0
 20
0.0
 30
0.0
 0
VERTEX
 8
PARTS
 10
  9.6700
 20
  8.1300
 30
0.0
 0
VERTEX
 8
PARTS
 10
  9.7300
 20
  8.1900
 30
0.0
 0
SEQEND
 8
PARTS
 0
POLYLINE
 8
PARTS
 66
1
 10
0.0
 20
0.0
 30
0.0
 0
VERTEX
 8
PARTS
 10
  9.7300
 20
  8.1900
 30
0.0
 0
VERTEX
 8
PARTS
 10
  9.6700
 20
  8.2500
 30
0.0
 0
SEQEND
 8
PARTS
 0
POLYLINE
 8
PARTS
 66
1
 10
0.0
 20
0.0
 30
0.0
 0
VERTEX
 8
PARTS
 10
  9.6700
 20
  8.2500
 30
0.0
 0
VERTEX
 8
PARTS
 10
  9.7300
 20
  8.3100
 30
0.0
 0
SEQEND
 8
PARTS
 0
POLYLINE
 8
PARTS
 66
1
 10
0.0
 20
0.0
 30
0.0
 0
VERTEX
 8
PARTS
 10
  9.7300
 20
  8.3100
 30
0.0
 0
VERTEX
 8
PARTS
 10
  9.6700
 20
  8.3700
 30
0.0
 0
SEQEND
 8
PARTS
 0
POLYLINE
 8
PARTS
 66
1
 10
0.0
 20
0.0
 30
0.0
 0
VERTEX
 8
PARTS
 10
  9.6700
 20
  8.3700
 30
0.0
 0
VERTEX
 8
PARTS
 10
  9.7000
 20
  8.4000
 30
0.0
 0
SEQEND
 8
PARTS
 0
TEXT
 8
PARTTEXT
 10
  1.5400
 20
  4.4286
 30
0.0
 40
  0.0514
 1
125pF
 0
LINE
 8
PARTS
 10
  1.4000
 20
  4.6000
 30
0.0
 11
  1.4000
 21
  4.5000
 31
0.0
 0
TEXT
 8
PARTS
 10
  1.3700
 20
  4.5600
 30
0.0
 40
  0.0500
 50
 90.0000
 1

 0
LINE
 8
PARTS
 10
  1.4000
 20
  4.3000
 30
0.0
 11
  1.4000
 21
  4.4000
 31
0.0
 0
TEXT
 8
PARTS
 10
  1.3700
 20
  4.2800
 30
0.0
 40
  0.0500
 50
 90.0000
 1

 0
POLYLINE
 8
PARTS
 66
1
 10
0.0
 20
0.0
 30
0.0
 0
VERTEX
 8
PARTS
 10
  1.4000
 20
  4.5000
 30
0.0
 0
VERTEX
 8
PARTS
 10
  1.4000
 20
  4.4800
 30
0.0
 0
SEQEND
 8
PARTS
 0
POLYLINE
 8
PARTS
 66
1
 10
0.0
 20
0.0
 30
0.0
 0
VERTEX
 8
PARTS
 10
  1.3100
 20
  4.4300
 30
0.0
 0
VERTEX
 8
PARTS
 10
  1.4900
 20
  4.4300
 30
0.0
 0
SEQEND
 8
PARTS
 0
POLYLINE
 8
PARTS
 66
1
 10
0.0
 20
0.0
 30
0.0
 0
VERTEX
 8
PARTS
 10
  1.3100
 20
  4.4800
 30
0.0
 0
VERTEX
 8
PARTS
 10
  1.4900
 20
  4.4800
 30
0.0
 0
SEQEND
 8
PARTS
 0
POLYLINE
 8
PARTS
 66
1
 10
0.0
 20
0.0
 30
0.0
 0
VERTEX
 8
PARTS
 10
  1.4000
 20
  4.4000
 30
0.0
 0
VERTEX
 8
PARTS
 10
  1.4000
 20
  4.4300
 30
0.0
 0
SEQEND
 8
PARTS
 0
TEXT
 8
PARTTEXT
 10
  1.6400
 20
  8.6286
 30
0.0
 40
  0.0514
 1
250pF
 0
LINE
 8
PARTS
 10
  1.5000
 20
  8.8000
 30
0.0
 11
  1.5000
 21
  8.7000
 31
0.0
 0
TEXT
 8
PARTS
 10
  1.4700
 20
  8.7600
 30
0.0
 40
  0.0500
 50
 90.0000
 1

 0
LINE
 8
PARTS
 10
  1.5000
 20
  8.5000
 30
0.0
 11
  1.5000
 21
  8.6000
 31
0.0
 0
TEXT
 8
PARTS
 10
  1.4700
 20
  8.4800
 30
0.0
 40
  0.0500
 50
 90.0000
 1

 0
POLYLINE
 8
PARTS
 66
1
 10
0.0
 20
0.0
 30
0.0
 0
VERTEX
 8
PARTS
 10
  1.5000
 20
  8.7000
 30
0.0
 0
VERTEX
 8
PARTS
 10
  1.5000
 20
  8.6800
 30
0.0
 0
SEQEND
 8
PARTS
 0
POLYLINE
 8
PARTS
 66
1
 10
0.0
 20
0.0
 30
0.0
 0
VERTEX
 8
PARTS
 10
  1.4100
 20
  8.6300
 30
0.0
 0
VERTEX
 8
PARTS
 10
  1.5900
 20
  8.6300
 30
0.0
 0
SEQEND
 8
PARTS
 0
POLYLINE
 8
PARTS
 66
1
 10
0.0
 20
0.0
 30
0.0
 0
VERTEX
 8
PARTS
 10
  1.4100
 20
  8.6800
 30
0.0
 0
VERTEX
 8
PARTS
 10
  1.5900
 20
  8.6800
 30
0.0
 0
SEQEND
 8
PARTS
 0
POLYLINE
 8
PARTS
 66
1
 10
0.0
 20
0.0
 30
0.0
 0
VERTEX
 8
PARTS
 10
  1.5000
 20
  8.6000
 30
0.0
 0
VERTEX
 8
PARTS
 10
  1.5000
 20
  8.6300
 30
0.0
 0
SEQEND
 8
PARTS
 0
TEXT
 8
PARTTEXT
 10
 10.4800
 20
  2.1686
 30
0.0
 40
  0.0514
 1
261,1%
 0
LINE
 8
PARTS
 10
 10.4000
 20
  1.9000
 30
0.0
 11
 10.4000
 21
  2.0000
 31
0.0
 0
TEXT
 8
PARTS
 10
 10.3700
 20
  1.8800
 30
0.0
 40
  0.0500
 50
 90.0000
 1

 0
LINE
 8
PARTS
 10
 10.4000
 20
  2.4000
 30
0.0
 11
 10.4000
 21
  2.3000
 31
0.0
 0
TEXT
 8
PARTS
 10
 10.3700
 20
  2.3600
 30
0.0
 40
  0.0500
 50
 90.0000
 1

 0
POLYLINE
 8
PARTS
 66
1
 10
0.0
 20
0.0
 30
0.0
 0
VERTEX
 8
PARTS
 10
 10.4000
 20
  2.0000
 30
0.0
 0
VERTEX
 8
PARTS
 10
 10.3700
 20
  2.0300
 30
0.0
 0
SEQEND
 8
PARTS
 0
POLYLINE
 8
PARTS
 66
1
 10
0.0
 20
0.0
 30
0.0
 0
VERTEX
 8
PARTS
 10
 10.3700
 20
  2.0300
 30
0.0
 0
VERTEX
 8
PARTS
 10
 10.4300
 20
  2.0900
 30
0.0
 0
SEQEND
 8
PARTS
 0
POLYLINE
 8
PARTS
 66
1
 10
0.0
 20
0.0
 30
0.0
 0
VERTEX
 8
PARTS
 10
 10.4300
 20
  2.0900
 30
0.0
 0
VERTEX
 8
PARTS
 10
 10.3700
 20
  2.1500
 30
0.0
 0
SEQEND
 8
PARTS
 0
POLYLINE
 8
PARTS
 66
1
 10
0.0
 20
0.0
 30
0.0
 0
VERTEX
 8
PARTS
 10
 10.3700
 20
  2.1500
 30
0.0
 0
VERTEX
 8
PARTS
 10
 10.4300
 20
  2.2100
 30
0.0
 0
SEQEND
 8
PARTS
 0
POLYLINE
 8
PARTS
 66
1
 10
0.0
 20
0.0
 30
0.0
 0
VERTEX
 8
PARTS
 10
 10.4300
 20
  2.2100
 30
0.0
 0
VERTEX
 8
PARTS
 10
 10.3700
 20
  2.2700
 30
0.0
 0
SEQEND
 8
PARTS
 0
POLYLINE
 8
PARTS
 66
1
 10
0.0
 20
0.0
 30
0.0
 0
VERTEX
 8
PARTS
 10
 10.3700
 20
  2.2700
 30
0.0
 0
VERTEX
 8
PARTS
 10
 10.4000
 20
  2.3000
 30
0.0
 0
SEQEND
 8
PARTS
 0
LINE
 8
PARTS
 10
  6.9000
 20
  4.7000
 30
0.0
 11
  7.2000
 21
  4.7000
 31
0.0
 0
TEXT
 8
PARTS
 10
  7.1400
 20
  4.7300
 30
0.0
 40
  0.0500
 1

 0
LINE
 8
PARTS
 10
  7.7000
 20
  4.7000
 30
0.0
 11
  7.4000
 21
  4.7000
 31
0.0
 0
TEXT
 8
PARTS
 10
  7.4600
 20
  4.7300
 30
0.0
 40
  0.0500
 1

 0
LINE
 8
PARTS
 10
  7.3000
 20
  4.3000
 30
0.0
 11
  7.3000
 21
  4.6000
 31
0.0
 0
TEXT
 8
PARTS
 10
  7.2700
 20
  4.4800
 30
0.0
 40
  0.0500
 50
 90.0000
 1

 0
POLYLINE
 8
PARTS
 66
1
 10
0.0
 20
0.0
 30
0.0
 0
VERTEX
 8
PARTS
 10
  7.2000
 20
  4.7000
 30
0.0
 0
VERTEX
 8
PARTS
 10
  7.4000
 20
  4.7000
 30
0.0
 0
SEQEND
 8
PARTS
 0
POLYLINE
 8
PARTS
 66
1
 10
0.0
 20
0.0
 30
0.0
 0
VERTEX
 8
PARTS
 10
  7.2100
 20
  4.6400
 30
0.0
 0
VERTEX
 8
PARTS
 10
  7.4000
 20
  4.6400
 30
0.0
 0
SEQEND
 8
PARTS
 0
POLYLINE
 8
PARTS
 66
1
 10
0.0
 20
0.0
 30
0.0
 0
VERTEX
 8
PARTS
 10
  7.3000
 20
  4.6400
 30
0.0
 0
VERTEX
 8
PARTS
 10
  7.3000
 20
  4.6000
 30
0.0
 0
SEQEND
 8
PARTS
 0
POLYLINE
 8
PARTS
 66
1
 70
1
 10
0.0
 20
0.0
 30
0.0
 0
VERTEX
 8
PARTS
 10
  7.3600
 20
  4.7000
 30
0.0
 42
  0.0985
 0
VERTEX
 8
PARTS
 10
  7.3554
 20
  4.7230
 30
0.0
 42
  0.0985
 0
VERTEX
 8
PARTS
 10
  7.3424
 20
  4.7424
 30
0.0
 42
  0.0985
 0
VERTEX
 8
PARTS
 10
  7.3230
 20
  4.7554
 30
0.0
 42
  0.0985
 0
VERTEX
 8
PARTS
 10
  7.3000
 20
  4.7600
 30
0.0
 42
  0.0985
 0
VERTEX
 8
PARTS
 10
  7.2770
 20
  4.7554
 30
0.0
 42
  0.0985
 0
VERTEX
 8
PARTS
 10
  7.2576
 20
  4.7424
 30
0.0
 42
  0.0985
 0
VERTEX
 8
PARTS
 10
  7.2446
 20
  4.7230
 30
0.0
 42
  0.0985
 0
VERTEX
 8
PARTS
 10
  7.2400
 20
  4.7000
 30
0.0
 42
  0.0985
 0
VERTEX
 8
PARTS
 10
  7.2446
 20
  4.6770
 30
0.0
 42
  0.0985
 0
VERTEX
 8
PARTS
 10
  7.2576
 20
  4.6576
 30
0.0
 42
  0.0985
 0
VERTEX
 8
PARTS
 10
  7.2770
 20
  4.6446
 30
0.0
 42
  0.0985
 0
VERTEX
 8
PARTS
 10
  7.3000
 20
  4.6400
 30
0.0
 42
  0.0985
 0
VERTEX
 8
PARTS
 10
  7.3230
 20
  4.6446
 30
0.0
 42
  0.0985
 0
VERTEX
 8
PARTS
 10
  7.3424
 20
  4.6576
 30
0.0
 42
  0.0985
 0
VERTEX
 8
PARTS
 10
  7.3554
 20
  4.6770
 30
0.0
 42
  0.0985
 0
SEQEND
 8
PARTS
 0
TEXT
 8
PARTTEXT
 10
 10.8500
 20
  0.7086
 30
0.0
 40
  0.0514
 1
6.8uF
 0
LINE
 8
PARTS
 10
 10.7000
 20
  0.5000
 30
0.0
 11
 10.7000
 21
  0.6000
 31
0.0
 0
TEXT
 8
PARTS
 10
 10.6700
 20
  0.4800
 30
0.0
 40
  0.0500
 50
 90.0000
 1
1
 0
LINE
 8
PARTS
 10
 10.7000
 20
  0.9000
 30
0.0
 11
 10.7000
 21
  0.8000
 31
0.0
 0
TEXT
 8
PARTS
 10
 10.6700
 20
  0.8600
 30
0.0
 40
  0.0500
 50
 90.0000
 1
2
 0
POLYLINE
 8
PARTS
 66
1
 10
0.0
 20
0.0
 30
0.0
 0
VERTEX
 8
PARTS
 10
 10.7000
 20
  0.7400
 30
0.0
 0
VERTEX
 8
PARTS
 10
 10.7000
 20
  0.8000
 30
0.0
 0
SEQEND
 8
PARTS
 0
POLYLINE
 8
PARTS
 66
1
 10
0.0
 20
0.0
 30
0.0
 0
VERTEX
 8
PARTS
 10
 10.8000
 20
  0.7000
 30
0.0
 0
VERTEX
 8
PARTS
 10
 10.6000
 20
  0.7000
 30
0.0
 0
SEQEND
 8
PARTS
 0
POLYLINE
 8
PARTS
 66
1
 10
0.0
 20
0.0
 30
0.0
 0
VERTEX
 8
PARTS
 10
 10.7000
 20
  0.6000
 30
0.0
 0
VERTEX
 8
PARTS
 10
 10.7000
 20
  0.7000
 30
0.0
 0
SEQEND
 8
PARTS
 0
POLYLINE
 8
PARTS
 66
1
 10
0.0
 20
0.0
 30
0.0
 0
VERTEX
 8
PARTS
 10
 10.6000
 20
  0.7700
 30
0.0
 42
  0.1654
 0
VERTEX
 8
PARTS
 10
 10.7000
 20
  0.7400
 30
0.0
 0
SEQEND
 8
PARTS
 0
POLYLINE
 8
PARTS
 66
1
 10
0.0
 20
0.0
 30
0.0
 0
VERTEX
 8
PARTS
 10
 10.7000
 20
  0.7400
 30
0.0
 42
  0.1654
 0
VERTEX
 8
PARTS
 10
 10.8000
 20
  0.7700
 30
0.0
 0
SEQEND
 8
PARTS
 0
TEXT
 8
PARTTEXT
 10
 10.6700
 20
  0.7014
 30
0.0
 40
  0.0514
 50
180.0000
 1
+
 0
TEXT
 8
PARTTEXT
 10
  4.0000
 20
  4.7886
 30
0.0
 40
  0.0514
 1
650nH
 0
LINE
 8
PARTS
 10
  3.9000
 20
  4.7000
 30
0.0
 11
  4.0000
 21
  4.7000
 31
0.0
 0
TEXT
 8
PARTS
 10
  3.9400
 20
  4.7300
 30
0.0
 40
  0.0500
 1

 0
LINE
 8
PARTS
 10
  4.5000
 20
  4.7000
 30
0.0
 11
  4.4000
 21
  4.7000
 31
0.0
 0
TEXT
 8
PARTS
 10
  4.4600
 20
  4.7300
 30
0.0
 40
  0.0500
 1

 0
POLYLINE
 8
PARTS
 66
1
 10
0.0
 20
0.0
 30
0.0
 0
VERTEX
 8
PARTS
 10
  4.0500
 20
  4.7500
 30
0.0
 42
  0.4142
 0
VERTEX
 8
PARTS
 10
  4.0000
 20
  4.7000
 30
0.0
 0
SEQEND
 8
PARTS
 0
POLYLINE
 8
PARTS
 66
1
 10
0.0
 20
0.0
 30
0.0
 0
VERTEX
 8
PARTS
 10
  4.1000
 20
  4.7000
 30
0.0
 42
  0.4142
 0
VERTEX
 8
PARTS
 10
  4.0500
 20
  4.7500
 30
0.0
 0
SEQEND
 8
PARTS
 0
POLYLINE
 8
PARTS
 66
1
 10
0.0
 20
0.0
 30
0.0
 0
VERTEX
 8
PARTS
 10
  4.1500
 20
  4.7500
 30
0.0
 42
  0.4142
 0
VERTEX
 8
PARTS
 10
  4.1000
 20
  4.7000
 30
0.0
 0
SEQEND
 8
PARTS
 0
POLYLINE
 8
PARTS
 66
1
 10
0.0
 20
0.0
 30
0.0
 0
VERTEX
 8
PARTS
 10
  4.2000
 20
  4.7000
 30
0.0
 42
  0.4142
 0
VERTEX
 8
PARTS
 10
  4.1500
 20
  4.7500
 30
0.0
 0
SEQEND
 8
PARTS
 0
POLYLINE
 8
PARTS
 66
1
 10
0.0
 20
0.0
 30
0.0
 0
VERTEX
 8
PARTS
 10
  4.2500
 20
  4.7500
 30
0.0
 42
  0.4142
 0
VERTEX
 8
PARTS
 10
  4.2000
 20
  4.7000
 30
0.0
 0
SEQEND
 8
PARTS
 0
POLYLINE
 8
PARTS
 66
1
 10
0.0
 20
0.0
 30
0.0
 0
VERTEX
 8
PARTS
 10
  4.3000
 20
  4.7000
 30
0.0
 42
  0.4142
 0
VERTEX
 8
PARTS
 10
  4.2500
 20
  4.7500
 30
0.0
 0
SEQEND
 8
PARTS
 0
POLYLINE
 8
PARTS
 66
1
 10
0.0
 20
0.0
 30
0.0
 0
VERTEX
 8
PARTS
 10
  4.3500
 20
  4.7500
 30
0.0
 42
  0.4142
 0
VERTEX
 8
PARTS
 10
  4.3000
 20
  4.7000
 30
0.0
 0
SEQEND
 8
PARTS
 0
POLYLINE
 8
PARTS
 66
1
 10
0.0
 20
0.0
 30
0.0
 0
VERTEX
 8
PARTS
 10
  4.4000
 20
  4.7000
 30
0.0
 42
  0.4142
 0
VERTEX
 8
PARTS
 10
  4.3500
 20
  4.7500
 30
0.0
 0
SEQEND
 8
PARTS
 0
TEXT
 8
PARTTEXT
 10
  9.8200
 20
  5.8486
 30
0.0
 40
  0.0514
 1
51,1%
 0
LINE
 8
PARTS
 10
  9.7000
 20
  5.6000
 30
0.0
 11
  9.7000
 21
  5.7000
 31
0.0
 0
TEXT
 8
PARTS
 10
  9.6700
 20
  5.5800
 30
0.0
 40
  0.0500
 50
 90.0000
 1

 0
LINE
 8
PARTS
 10
  9.7000
 20
  6.1000
 30
0.0
 11
  9.7000
 21
  6.0000
 31
0.0
 0
TEXT
 8
PARTS
 10
  9.6700
 20
  6.0600
 30
0.0
 40
  0.0500
 50
 90.0000
 1

 0
POLYLINE
 8
PARTS
 66
1
 10
0.0
 20
0.0
 30
0.0
 0
VERTEX
 8
PARTS
 10
  9.7000
 20
  5.7000
 30
0.0
 0
VERTEX
 8
PARTS
 10
  9.6700
 20
  5.7300
 30
0.0
 0
SEQEND
 8
PARTS
 0
POLYLINE
 8
PARTS
 66
1
 10
0.0
 20
0.0
 30
0.0
 0
VERTEX
 8
PARTS
 10
  9.6700
 20
  5.7300
 30
0.0
 0
VERTEX
 8
PARTS
 10
  9.7300
 20
  5.7900
 30
0.0
 0
SEQEND
 8
PARTS
 0
POLYLINE
 8
PARTS
 66
1
 10
0.0
 20
0.0
 30
0.0
 0
VERTEX
 8
PARTS
 10
  9.7300
 20
  5.7900
 30
0.0
 0
VERTEX
 8
PARTS
 10
  9.6700
 20
  5.8500
 30
0.0
 0
SEQEND
 8
PARTS
 0
POLYLINE
 8
PARTS
 66
1
 10
0.0
 20
0.0
 30
0.0
 0
VERTEX
 8
PARTS
 10
  9.6700
 20
  5.8500
 30
0.0
 0
VERTEX
 8
PARTS
 10
  9.7300
 20
  5.9100
 30
0.0
 0
SEQEND
 8
PARTS
 0
POLYLINE
 8
PARTS
 66
1
 10
0.0
 20
0.0
 30
0.0
 0
VERTEX
 8
PARTS
 10
  9.7300
 20
  5.9100
 30
0.0
 0
VERTEX
 8
PARTS
 10
  9.6700
 20
  5.9700
 30
0.0
 0
SEQEND
 8
PARTS
 0
POLYLINE
 8
PARTS
 66
1
 10
0.0
 20
0.0
 30
0.0
 0
VERTEX
 8
PARTS
 10
  9.6700
 20
  5.9700
 30
0.0
 0
VERTEX
 8
PARTS
 10
  9.7000
 20
  6.0000
 30
0.0
 0
SEQEND
 8
PARTS
 0
TEXT
 8
PARTTEXT
 10
  9.8200
 20
  7.7486
 30
0.0
 40
  0.0514
 1
51,1%
 0
LINE
 8
PARTS
 10
  9.7000
 20
  7.5000
 30
0.0
 11
  9.7000
 21
  7.6000
 31
0.0
 0
TEXT
 8
PARTS
 10
  9.6700
 20
  7.4800
 30
0.0
 40
  0.0500
 50
 90.0000
 1

 0
LINE
 8
PARTS
 10
  9.7000
 20
  8.0000
 30
0.0
 11
  9.7000
 21
  7.9000
 31
0.0
 0
TEXT
 8
PARTS
 10
  9.6700
 20
  7.9600
 30
0.0
 40
  0.0500
 50
 90.0000
 1

 0
POLYLINE
 8
PARTS
 66
1
 10
0.0
 20
0.0
 30
0.0
 0
VERTEX
 8
PARTS
 10
  9.7000
 20
  7.6000
 30
0.0
 0
VERTEX
 8
PARTS
 10
  9.6700
 20
  7.6300
 30
0.0
 0
SEQEND
 8
PARTS
 0
POLYLINE
 8
PARTS
 66
1
 10
0.0
 20
0.0
 30
0.0
 0
VERTEX
 8
PARTS
 10
  9.6700
 20
  7.6300
 30
0.0
 0
VERTEX
 8
PARTS
 10
  9.7300
 20
  7.6900
 30
0.0
 0
SEQEND
 8
PARTS
 0
POLYLINE
 8
PARTS
 66
1
 10
0.0
 20
0.0
 30
0.0
 0
VERTEX
 8
PARTS
 10
  9.7300
 20
  7.6900
 30
0.0
 0
VERTEX
 8
PARTS
 10
  9.6700
 20
  7.7500
 30
0.0
 0
SEQEND
 8
PARTS
 0
POLYLINE
 8
PARTS
 66
1
 10
0.0
 20
0.0
 30
0.0
 0
VERTEX
 8
PARTS
 10
  9.6700
 20
  7.7500
 30
0.0
 0
VERTEX
 8
PARTS
 10
  9.7300
 20
  7.8100
 30
0.0
 0
SEQEND
 8
PARTS
 0
POLYLINE
 8
PARTS
 66
1
 10
0.0
 20
0.0
 30
0.0
 0
VERTEX
 8
PARTS
 10
  9.7300
 20
  7.8100
 30
0.0
 0
VERTEX
 8
PARTS
 10
  9.6700
 20
  7.8700
 30
0.0
 0
SEQEND
 8
PARTS
 0
POLYLINE
 8
PARTS
 66
1
 10
0.0
 20
0.0
 30
0.0
 0
VERTEX
 8
PARTS
 10
  9.6700
 20
  7.8700
 30
0.0
 0
VERTEX
 8
PARTS
 10
  9.7000
 20
  7.9000
 30
0.0
 0
SEQEND
 8
PARTS
 0
TEXT
 8
PARTTEXT
 10
  4.8400
 20
  8.6286
 30
0.0
 40
  0.0514
 1
390pF
 0
LINE
 8
PARTS
 10
  4.7000
 20
  8.8000
 30
0.0
 11
  4.7000
 21
  8.7000
 31
0.0
 0
TEXT
 8
PARTS
 10
  4.6700
 20
  8.7600
 30
0.0
 40
  0.0500
 50
 90.0000
 1

 0
LINE
 8
PARTS
 10
  4.7000
 20
  8.5000
 30
0.0
 11
  4.7000
 21
  8.6000
 31
0.0
 0
TEXT
 8
PARTS
 10
  4.6700
 20
  8.4800
 30
0.0
 40
  0.0500
 50
 90.0000
 1

 0
POLYLINE
 8
PARTS
 66
1
 10
0.0
 20
0.0
 30
0.0
 0
VERTEX
 8
PARTS
 10
  4.7000
 20
  8.7000
 30
0.0
 0
VERTEX
 8
PARTS
 10
  4.7000
 20
  8.6800
 30
0.0
 0
SEQEND
 8
PARTS
 0
POLYLINE
 8
PARTS
 66
1
 10
0.0
 20
0.0
 30
0.0
 0
VERTEX
 8
PARTS
 10
  4.6100
 20
  8.6300
 30
0.0
 0
VERTEX
 8
PARTS
 10
  4.7900
 20
  8.6300
 30
0.0
 0
SEQEND
 8
PARTS
 0
POLYLINE
 8
PARTS
 66
1
 10
0.0
 20
0.0
 30
0.0
 0
VERTEX
 8
PARTS
 10
  4.6100
 20
  8.6800
 30
0.0
 0
VERTEX
 8
PARTS
 10
  4.7900
 20
  8.6800
 30
0.0
 0
SEQEND
 8
PARTS
 0
POLYLINE
 8
PARTS
 66
1
 10
0.0
 20
0.0
 30
0.0
 0
VERTEX
 8
PARTS
 10
  4.7000
 20
  8.6000
 30
0.0
 0
VERTEX
 8
PARTS
 10
  4.7000
 20
  8.6300
 30
0.0
 0
SEQEND
 8
PARTS
 0
POLYLINE
 8
WIRE
 66
1
 10
0.0
 20
0.0
 30
0.0
 0
VERTEX
 8
WIRE
 10
  1.3000
 20
  8.9000
 30
0.0
 0
VERTEX
 8
WIRE
 10
  1.5000
 20
  8.9000
 30
0.0
 0
SEQEND
 8
WIRE
 0
POLYLINE
 8
WIRE
 66
1
 10
0.0
 20
0.0
 30
0.0
 0
VERTEX
 8
WIRE
 10
  2.2000
 20
  8.9000
 30
0.0
 0
VERTEX
 8
WIRE
 10
  2.3000
 20
  8.9000
 30
0.0
 0
SEQEND
 8
WIRE
 0
POLYLINE
 8
WIRE
 66
1
 10
0.0
 20
0.0
 30
0.0
 0
VERTEX
 8
WIRE
 10
  3.0000
 20
  8.9000
 30
0.0
 0
VERTEX
 8
WIRE
 10
  3.1000
 20
  8.9000
 30
0.0
 0
SEQEND
 8
WIRE
 0
POLYLINE
 8
WIRE
 66
1
 70
1
 10
0.0
 20
0.0
 30
0.0
 40
  0.0200
 41
  0.0200
 0
VERTEX
 8
WIRE
 10
  3.0900
 20
  8.9000
 30
0.0
 42
1.0
 0
VERTEX
 8
WIRE
 10
  3.1100
 20
  8.9000
 30
0.0
 42
1.0
 0
SEQEND
 8
WIRE
 0
POLYLINE
 8
WIRE
 66
1
 10
0.0
 20
0.0
 30
0.0
 0
VERTEX
 8
WIRE
 10
  3.8000
 20
  8.9000
 30
0.0
 0
VERTEX
 8
WIRE
 10
  3.9000
 20
  8.9000
 30
0.0
 0
SEQEND
 8
WIRE
 0
POLYLINE
 8
WIRE
 66
1
 10
0.0
 20
0.0
 30
0.0
 0
VERTEX
 8
WIRE
 10
  4.6000
 20
  8.9000
 30
0.0
 0
VERTEX
 8
WIRE
 10
  4.7000
 20
  8.9000
 30
0.0
 0
SEQEND
 8
WIRE
 0
POLYLINE
 8
WIRE
 66
1
 10
0.0
 20
0.0
 30
0.0
 0
VERTEX
 8
WIRE
 10
  5.4000
 20
  8.9000
 30
0.0
 0
VERTEX
 8
WIRE
 10
  5.5000
 20
  8.9000
 30
0.0
 0
SEQEND
 8
WIRE
 0
POLYLINE
 8
WIRE
 66
1
 10
0.0
 20
0.0
 30
0.0
 0
VERTEX
 8
WIRE
 10
  6.2000
 20
  8.9000
 30
0.0
 0
VERTEX
 8
WIRE
 10
  6.3000
 20
  8.9000
 30
0.0
 0
SEQEND
 8
WIRE
 0
POLYLINE
 8
WIRE
 66
1
 10
0.0
 20
0.0
 30
0.0
 0
VERTEX
 8
WIRE
 10
  8.0000
 20
  8.9000
 30
0.0
 0
VERTEX
 8
WIRE
 10
  8.1000
 20
  8.9000
 30
0.0
 0
SEQEND
 8
WIRE
 0
POLYLINE
 8
WIRE
 66
1
 70
1
 10
0.0
 20
0.0
 30
0.0
 40
  0.0200
 41
  0.0200
 0
VERTEX
 8
WIRE
 10
  8.0900
 20
  8.9000
 30
0.0
 42
1.0
 0
VERTEX
 8
WIRE
 10
  8.1100
 20
  8.9000
 30
0.0
 42
1.0
 0
SEQEND
 8
WIRE
 0
POLYLINE
 8
WIRE
 66
1
 10
0.0
 20
0.0
 30
0.0
 0
VERTEX
 8
WIRE
 10
  8.7000
 20
  8.0000
 30
0.0
 0
VERTEX
 8
WIRE
 10
  9.7000
 20
  8.0000
 30
0.0
 0
SEQEND
 8
WIRE
 0
POLYLINE
 8
WIRE
 66
1
 70
1
 10
0.0
 20
0.0
 30
0.0
 40
  0.0200
 41
  0.0200
 0
VERTEX
 8
WIRE
 10
  9.6900
 20
  8.0000
 30
0.0
 42
1.0
 0
VERTEX
 8
WIRE
 10
  9.7100
 20
  8.0000
 30
0.0
 42
1.0
 0
SEQEND
 8
WIRE
 0
POLYLINE
 8
WIRE
 66
1
 10
0.0
 20
0.0
 30
0.0
 0
VERTEX
 8
WIRE
 10
  8.5000
 20
  7.0000
 30
0.0
 0
VERTEX
 8
WIRE
 10
  8.7000
 20
  7.0000
 30
0.0
 0
SEQEND
 8
WIRE
 0
POLYLINE
 8
WIRE
 66
1
 10
0.0
 20
0.0
 30
0.0
 0
VERTEX
 8
WIRE
 10
  8.7000
 20
  6.1000
 30
0.0
 0
VERTEX
 8
WIRE
 10
  9.7000
 20
  6.1000
 30
0.0
 0
SEQEND
 8
WIRE
 0
POLYLINE
 8
WIRE
 66
1
 70
1
 10
0.0
 20
0.0
 30
0.0
 40
  0.0200
 41
  0.0200
 0
VERTEX
 8
WIRE
 10
  9.6900
 20
  6.1000
 30
0.0
 42
1.0
 0
VERTEX
 8
WIRE
 10
  9.7100
 20
  6.1000
 30
0.0
 42
1.0
 0
SEQEND
 8
WIRE
 0
POLYLINE
 8
WIRE
 66
1
 10
0.0
 20
0.0
 30
0.0
 0
VERTEX
 8
WIRE
 10
  1.2000
 20
  4.7000
 30
0.0
 0
VERTEX
 8
WIRE
 10
  1.4000
 20
  4.7000
 30
0.0
 0
SEQEND
 8
WIRE
 0
POLYLINE
 8
WIRE
 66
1
 70
1
 10
0.0
 20
0.0
 30
0.0
 40
  0.0200
 41
  0.0200
 0
VERTEX
 8
WIRE
 10
  1.3900
 20
  4.7000
 30
0.0
 42
1.0
 0
VERTEX
 8
WIRE
 10
  1.4100
 20
  4.7000
 30
0.0
 42
1.0
 0
SEQEND
 8
WIRE
 0
POLYLINE
 8
WIRE
 66
1
 10
0.0
 20
0.0
 30
0.0
 0
VERTEX
 8
WIRE
 10
  2.1000
 20
  4.7000
 30
0.0
 0
VERTEX
 8
WIRE
 10
  2.2000
 20
  4.7000
 30
0.0
 0
SEQEND
 8
WIRE
 0
POLYLINE
 8
WIRE
 66
1
 70
1
 10
0.0
 20
0.0
 30
0.0
 40
  0.0200
 41
  0.0200
 0
VERTEX
 8
WIRE
 10
  2.1900
 20
  4.7000
 30
0.0
 42
1.0
 0
VERTEX
 8
WIRE
 10
  2.2100
 20
  4.7000
 30
0.0
 42
1.0
 0
SEQEND
 8
WIRE
 0
POLYLINE
 8
WIRE
 66
1
 10
0.0
 20
0.0
 30
0.0
 0
VERTEX
 8
WIRE
 10
  2.9000
 20
  4.7000
 30
0.0
 0
VERTEX
 8
WIRE
 10
  3.0000
 20
  4.7000
 30
0.0
 0
SEQEND
 8
WIRE
 0
POLYLINE
 8
WIRE
 66
1
 70
1
 10
0.0
 20
0.0
 30
0.0
 40
  0.0200
 41
  0.0200
 0
VERTEX
 8
WIRE
 10
  2.9900
 20
  4.7000
 30
0.0
 42
1.0
 0
VERTEX
 8
WIRE
 10
  3.0100
 20
  4.7000
 30
0.0
 42
1.0
 0
SEQEND
 8
WIRE
 0
POLYLINE
 8
WIRE
 66
1
 10
0.0
 20
0.0
 30
0.0
 0
VERTEX
 8
WIRE
 10
  3.7000
 20
  4.7000
 30
0.0
 0
VERTEX
 8
WIRE
 10
  3.8000
 20
  4.7000
 30
0.0
 0
SEQEND
 8
WIRE
 0
POLYLINE
 8
WIRE
 66
1
 70
1
 10
0.0
 20
0.0
 30
0.0
 40
  0.0200
 41
  0.0200
 0
VERTEX
 8
WIRE
 10
  3.7900
 20
  4.7000
 30
0.0
 42
1.0
 0
VERTEX
 8
WIRE
 10
  3.8100
 20
  4.7000
 30
0.0
 42
1.0
 0
SEQEND
 8
WIRE
 0
POLYLINE
 8
WIRE
 66
1
 10
0.0
 20
0.0
 30
0.0
 0
VERTEX
 8
WIRE
 10
  4.5000
 20
  4.7000
 30
0.0
 0
VERTEX
 8
WIRE
 10
  4.6000
 20
  4.7000
 30
0.0
 0
SEQEND
 8
WIRE
 0
POLYLINE
 8
WIRE
 66
1
 70
1
 10
0.0
 20
0.0
 30
0.0
 40
  0.0200
 41
  0.0200
 0
VERTEX
 8
WIRE
 10
  4.5900
 20
  4.7000
 30
0.0
 42
1.0
 0
VERTEX
 8
WIRE
 10
  4.6100
 20
  4.7000
 30
0.0
 42
1.0
 0
SEQEND
 8
WIRE
 0
POLYLINE
 8
WIRE
 66
1
 10
0.0
 20
0.0
 30
0.0
 0
VERTEX
 8
WIRE
 10
  5.3000
 20
  4.7000
 30
0.0
 0
VERTEX
 8
WIRE
 10
  5.4000
 20
  4.7000
 30
0.0
 0
SEQEND
 8
WIRE
 0
POLYLINE
 8
WIRE
 66
1
 10
0.0
 20
0.0
 30
0.0
 0
VERTEX
 8
WIRE
 10
  6.1000
 20
  4.7000
 30
0.0
 0
VERTEX
 8
WIRE
 10
  6.2000
 20
  4.7000
 30
0.0
 0
SEQEND
 8
WIRE
 0
POLYLINE
 8
WIRE
 66
1
 10
0.0
 20
0.0
 30
0.0
 0
VERTEX
 8
WIRE
 10
  7.9000
 20
  4.7000
 30
0.0
 0
VERTEX
 8
WIRE
 10
  9.4000
 20
  4.7000
 30
0.0
 0
SEQEND
 8
WIRE
 0
POLYLINE
 8
WIRE
 66
1
 10
0.0
 20
0.0
 30
0.0
 0
VERTEX
 8
WIRE
 10
  9.0000
 20
  3.8000
 30
0.0
 0
VERTEX
 8
WIRE
 10
  9.3000
 20
  3.8000
 30
0.0
 0
SEQEND
 8
WIRE
 0
POLYLINE
 8
WIRE
 66
1
 10
0.0
 20
0.0
 30
0.0
 0
VERTEX
 8
WIRE
 10
  7.9000
 20
  2.8000
 30
0.0
 0
VERTEX
 8
WIRE
 10
  9.4000
 20
  2.8000
 30
0.0
 0
SEQEND
 8
WIRE
 0
POLYLINE
 8
WIRE
 66
1
 10
0.0
 20
0.0
 30
0.0
 0
VERTEX
 8
WIRE
 10
  9.3000
 20
  2.6000
 30
0.0
 0
VERTEX
 8
WIRE
 10
  9.4000
 20
  2.6000
 30
0.0
 0
SEQEND
 8
WIRE
 0
POLYLINE
 8
WIRE
 66
1
 10
0.0
 20
0.0
 30
0.0
 0
VERTEX
 8
WIRE
 10
  9.4000
 20
  1.9000
 30
0.0
 0
VERTEX
 8
WIRE
 10
 10.4000
 20
  1.9000
 30
0.0
 0
SEQEND
 8
WIRE
 0
POLYLINE
 8
WIRE
 66
1
 70
1
 10
0.0
 20
0.0
 30
0.0
 40
  0.0200
 41
  0.0200
 0
VERTEX
 8
WIRE
 10
 10.3900
 20
  1.9000
 30
0.0
 42
1.0
 0
VERTEX
 8
WIRE
 10
 10.4100
 20
  1.9000
 30
0.0
 42
1.0
 0
SEQEND
 8
WIRE
 0
POLYLINE
 8
WIRE
 66
1
 10
0.0
 20
0.0
 30
0.0
 0
VERTEX
 8
WIRE
 10
  9.0000
 20
  0.9000
 30
0.0
 0
VERTEX
 8
WIRE
 10
  9.3000
 20
  0.9000
 30
0.0
 0
SEQEND
 8
WIRE
 0
POLYLINE
 8
WIRE
 66
1
 70
1
 10
0.0
 20
0.0
 30
0.0
 40
  0.0200
 41
  0.0200
 0
VERTEX
 8
WIRE
 10
  9.2900
 20
  0.9000
 30
0.0
 42
1.0
 0
VERTEX
 8
WIRE
 10
  9.3100
 20
  0.9000
 30
0.0
 42
1.0
 0
SEQEND
 8
WIRE
 0
POLYLINE
 8
WIRE
 66
1
 10
0.0
 20
0.0
 30
0.0
 0
VERTEX
 8
WIRE
 10
 10.4000
 20
  0.9000
 30
0.0
 0
VERTEX
 8
WIRE
 10
 10.7000
 20
  0.9000
 30
0.0
 0
SEQEND
 8
WIRE
 0
POLYLINE
 8
WIRE
 66
1
 70
1
 10
0.0
 20
0.0
 30
0.0
 40
  0.0200
 41
  0.0200
 0
VERTEX
 8
WIRE
 10
 10.6900
 20
  0.9000
 30
0.0
 42
1.0
 0
VERTEX
 8
WIRE
 10
 10.7100
 20
  0.9000
 30
0.0
 42
1.0
 0
SEQEND
 8
WIRE
 0
POLYLINE
 8
WIRE
 66
1
 10
0.0
 20
0.0
 30
0.0
 0
VERTEX
 8
WIRE
 10
  9.0000
 20
  0.6000
 30
0.0
 0
VERTEX
 8
WIRE
 10
  9.3000
 20
  0.6000
 30
0.0
 0
SEQEND
 8
WIRE
 0
POLYLINE
 8
WIRE
 66
1
 10
0.0
 20
0.0
 30
0.0
 0
VERTEX
 8
WIRE
 10
 10.4000
 20
  0.6000
 30
0.0
 0
VERTEX
 8
WIRE
 10
 10.7000
 20
  0.6000
 30
0.0
 0
SEQEND
 8
WIRE
 0
POLYLINE
 8
WIRE
 66
1
 10
0.0
 20
0.0
 30
0.0
 0
VERTEX
 8
WIRE
 10
  1.4000
 20
  4.7000
 30
0.0
 0
VERTEX
 8
WIRE
 10
  1.4000
 20
  4.6000
 30
0.0
 0
SEQEND
 8
WIRE
 0
POLYLINE
 8
WIRE
 66
1
 10
0.0
 20
0.0
 30
0.0
 0
VERTEX
 8
WIRE
 10
  1.4000
 20
  4.3000
 30
0.0
 0
VERTEX
 8
WIRE
 10
  1.4000
 20
  4.2000
 30
0.0
 0
SEQEND
 8
WIRE
 0
POLYLINE
 8
WIRE
 66
1
 10
0.0
 20
0.0
 30
0.0
 0
VERTEX
 8
WIRE
 10
  1.5000
 20
  8.9000
 30
0.0
 0
VERTEX
 8
WIRE
 10
  1.5000
 20
  8.8000
 30
0.0
 0
SEQEND
 8
WIRE
 0
POLYLINE
 8
WIRE
 66
1
 70
1
 10
0.0
 20
0.0
 30
0.0
 40
  0.0200
 41
  0.0200
 0
VERTEX
 8
WIRE
 10
  1.4900
 20
  8.9000
 30
0.0
 42
1.0
 0
VERTEX
 8
WIRE
 10
  1.5100
 20
  8.9000
 30
0.0
 42
1.0
 0
SEQEND
 8
WIRE
 0
POLYLINE
 8
WIRE
 66
1
 10
0.0
 20
0.0
 30
0.0
 0
VERTEX
 8
WIRE
 10
  1.5000
 20
  8.5000
 30
0.0
 0
VERTEX
 8
WIRE
 10
  1.5000
 20
  8.4000
 30
0.0
 0
SEQEND
 8
WIRE
 0
POLYLINE
 8
WIRE
 66
1
 10
0.0
 20
0.0
 30
0.0
 0
VERTEX
 8
WIRE
 10
  2.2000
 20
  4.7000
 30
0.0
 0
VERTEX
 8
WIRE
 10
  2.2000
 20
  4.6000
 30
0.0
 0
SEQEND
 8
WIRE
 0
POLYLINE
 8
WIRE
 66
1
 10
0.0
 20
0.0
 30
0.0
 0
VERTEX
 8
WIRE
 10
  2.2000
 20
  4.3000
 30
0.0
 0
VERTEX
 8
WIRE
 10
  2.2000
 20
  4.2000
 30
0.0
 0
SEQEND
 8
WIRE
 0
POLYLINE
 8
WIRE
 66
1
 10
0.0
 20
0.0
 30
0.0
 0
VERTEX
 8
WIRE
 10
  2.3000
 20
  8.9000
 30
0.0
 0
VERTEX
 8
WIRE
 10
  2.3000
 20
  8.8000
 30
0.0
 0
SEQEND
 8
WIRE
 0
POLYLINE
 8
WIRE
 66
1
 70
1
 10
0.0
 20
0.0
 30
0.0
 40
  0.0200
 41
  0.0200
 0
VERTEX
 8
WIRE
 10
  2.2900
 20
  8.9000
 30
0.0
 42
1.0
 0
VERTEX
 8
WIRE
 10
  2.3100
 20
  8.9000
 30
0.0
 42
1.0
 0
SEQEND
 8
WIRE
 0
POLYLINE
 8
WIRE
 66
1
 10
0.0
 20
0.0
 30
0.0
 0
VERTEX
 8
WIRE
 10
  2.3000
 20
  8.5000
 30
0.0
 0
VERTEX
 8
WIRE
 10
  2.3000
 20
  8.4000
 30
0.0
 0
SEQEND
 8
WIRE
 0
POLYLINE
 8
WIRE
 66
1
 10
0.0
 20
0.0
 30
0.0
 0
VERTEX
 8
WIRE
 10
  3.0000
 20
  4.7000
 30
0.0
 0
VERTEX
 8
WIRE
 10
  3.0000
 20
  4.6000
 30
0.0
 0
SEQEND
 8
WIRE
 0
POLYLINE
 8
WIRE
 66
1
 10
0.0
 20
0.0
 30
0.0
 0
VERTEX
 8
WIRE
 10
  3.0000
 20
  4.3000
 30
0.0
 0
VERTEX
 8
WIRE
 10
  3.0000
 20
  4.2000
 30
0.0
 0
SEQEND
 8
WIRE
 0
POLYLINE
 8
WIRE
 66
1
 10
0.0
 20
0.0
 30
0.0
 0
VERTEX
 8
WIRE
 10
  3.1000
 20
  8.9000
 30
0.0
 0
VERTEX
 8
WIRE
 10
  3.1000
 20
  8.8000
 30
0.0
 0
SEQEND
 8
WIRE
 0
POLYLINE
 8
WIRE
 66
1
 10
0.0
 20
0.0
 30
0.0
 0
VERTEX
 8
WIRE
 10
  3.1000
 20
  8.5000
 30
0.0
 0
VERTEX
 8
WIRE
 10
  3.1000
 20
  8.4000
 30
0.0
 0
SEQEND
 8
WIRE
 0
POLYLINE
 8
WIRE
 66
1
 10
0.0
 20
0.0
 30
0.0
 0
VERTEX
 8
WIRE
 10
  3.8000
 20
  4.7000
 30
0.0
 0
VERTEX
 8
WIRE
 10
  3.8000
 20
  4.6000
 30
0.0
 0
SEQEND
 8
WIRE
 0
POLYLINE
 8
WIRE
 66
1
 10
0.0
 20
0.0
 30
0.0
 0
VERTEX
 8
WIRE
 10
  3.8000
 20
  4.3000
 30
0.0
 0
VERTEX
 8
WIRE
 10
  3.8000
 20
  4.2000
 30
0.0
 0
SEQEND
 8
WIRE
 0
POLYLINE
 8
WIRE
 66
1
 10
0.0
 20
0.0
 30
0.0
 0
VERTEX
 8
WIRE
 10
  3.9000
 20
  8.9000
 30
0.0
 0
VERTEX
 8
WIRE
 10
  3.9000
 20
  8.8000
 30
0.0
 0
SEQEND
 8
WIRE
 0
POLYLINE
 8
WIRE
 66
1
 70
1
 10
0.0
 20
0.0
 30
0.0
 40
  0.0200
 41
  0.0200
 0
VERTEX
 8
WIRE
 10
  3.8900
 20
  8.9000
 30
0.0
 42
1.0
 0
VERTEX
 8
WIRE
 10
  3.9100
 20
  8.9000
 30
0.0
 42
1.0
 0
SEQEND
 8
WIRE
 0
POLYLINE
 8
WIRE
 66
1
 10
0.0
 20
0.0
 30
0.0
 0
VERTEX
 8
WIRE
 10
  3.9000
 20
  8.5000
 30
0.0
 0
VERTEX
 8
WIRE
 10
  3.9000
 20
  8.4000
 30
0.0
 0
SEQEND
 8
WIRE
 0
POLYLINE
 8
WIRE
 66
1
 10
0.0
 20
0.0
 30
0.0
 0
VERTEX
 8
WIRE
 10
  4.6000
 20
  4.7000
 30
0.0
 0
VERTEX
 8
WIRE
 10
  4.6000
 20
  4.6000
 30
0.0
 0
SEQEND
 8
WIRE
 0
POLYLINE
 8
WIRE
 66
1
 10
0.0
 20
0.0
 30
0.0
 0
VERTEX
 8
WIRE
 10
  4.6000
 20
  4.3000
 30
0.0
 0
VERTEX
 8
WIRE
 10
  4.6000
 20
  4.2000
 30
0.0
 0
SEQEND
 8
WIRE
 0
POLYLINE
 8
WIRE
 66
1
 10
0.0
 20
0.0
 30
0.0
 0
VERTEX
 8
WIRE
 10
  4.7000
 20
  8.9000
 30
0.0
 0
VERTEX
 8
WIRE
 10
  4.7000
 20
  8.8000
 30
0.0
 0
SEQEND
 8
WIRE
 0
POLYLINE
 8
WIRE
 66
1
 70
1
 10
0.0
 20
0.0
 30
0.0
 40
  0.0200
 41
  0.0200
 0
VERTEX
 8
WIRE
 10
  4.6900
 20
  8.9000
 30
0.0
 42
1.0
 0
VERTEX
 8
WIRE
 10
  4.7100
 20
  8.9000
 30
0.0
 42
1.0
 0
SEQEND
 8
WIRE
 0
POLYLINE
 8
WIRE
 66
1
 10
0.0
 20
0.0
 30
0.0
 0
VERTEX
 8
WIRE
 10
  4.7000
 20
  8.5000
 30
0.0
 0
VERTEX
 8
WIRE
 10
  4.7000
 20
  8.4000
 30
0.0
 0
SEQEND
 8
WIRE
 0
POLYLINE
 8
WIRE
 66
1
 10
0.0
 20
0.0
 30
0.0
 0
VERTEX
 8
WIRE
 10
  5.4000
 20
  4.7000
 30
0.0
 0
VERTEX
 8
WIRE
 10
  5.4000
 20
  4.6000
 30
0.0
 0
SEQEND
 8
WIRE
 0
POLYLINE
 8
WIRE
 66
1
 70
1
 10
0.0
 20
0.0
 30
0.0
 40
  0.0200
 41
  0.0200
 0
VERTEX
 8
WIRE
 10
  5.3900
 20
  4.7000
 30
0.0
 42
1.0
 0
VERTEX
 8
WIRE
 10
  5.4100
 20
  4.7000
 30
0.0
 42
1.0
 0
SEQEND
 8
WIRE
 0
POLYLINE
 8
WIRE
 66
1
 10
0.0
 20
0.0
 30
0.0
 0
VERTEX
 8
WIRE
 10
  5.4000
 20
  4.3000
 30
0.0
 0
VERTEX
 8
WIRE
 10
  5.4000
 20
  4.2000
 30
0.0
 0
SEQEND
 8
WIRE
 0
POLYLINE
 8
WIRE
 66
1
 10
0.0
 20
0.0
 30
0.0
 0
VERTEX
 8
WIRE
 10
  5.5000
 20
  8.9000
 30
0.0
 0
VERTEX
 8
WIRE
 10
  5.5000
 20
  8.8000
 30
0.0
 0
SEQEND
 8
WIRE
 0
POLYLINE
 8
WIRE
 66
1
 70
1
 10
0.0
 20
0.0
 30
0.0
 40
  0.0200
 41
  0.0200
 0
VERTEX
 8
WIRE
 10
  5.4900
 20
  8.9000
 30
0.0
 42
1.0
 0
VERTEX
 8
WIRE
 10
  5.5100
 20
  8.9000
 30
0.0
 42
1.0
 0
SEQEND
 8
WIRE
 0
POLYLINE
 8
WIRE
 66
1
 10
0.0
 20
0.0
 30
0.0
 0
VERTEX
 8
WIRE
 10
  5.5000
 20
  8.5000
 30
0.0
 0
VERTEX
 8
WIRE
 10
  5.5000
 20
  8.4000
 30
0.0
 0
SEQEND
 8
WIRE
 0
POLYLINE
 8
WIRE
 66
1
 10
0.0
 20
0.0
 30
0.0
 0
VERTEX
 8
WIRE
 10
  6.2000
 20
  4.7000
 30
0.0
 0
VERTEX
 8
WIRE
 10
  6.2000
 20
  4.6000
 30
0.0
 0
SEQEND
 8
WIRE
 0
POLYLINE
 8
WIRE
 66
1
 70
1
 10
0.0
 20
0.0
 30
0.0
 40
  0.0200
 41
  0.0200
 0
VERTEX
 8
WIRE
 10
  6.1900
 20
  4.7000
 30
0.0
 42
1.0
 0
VERTEX
 8
WIRE
 10
  6.2100
 20
  4.7000
 30
0.0
 42
1.0
 0
SEQEND
 8
WIRE
 0
POLYLINE
 8
WIRE
 66
1
 10
0.0
 20
0.0
 30
0.0
 0
VERTEX
 8
WIRE
 10
  6.2000
 20
  4.3000
 30
0.0
 0
VERTEX
 8
WIRE
 10
  6.2000
 20
  4.2000
 30
0.0
 0
SEQEND
 8
WIRE
 0
POLYLINE
 8
WIRE
 66
1
 10
0.0
 20
0.0
 30
0.0
 0
VERTEX
 8
WIRE
 10
  6.3000
 20
  8.9000
 30
0.0
 0
VERTEX
 8
WIRE
 10
  6.3000
 20
  8.8000
 30
0.0
 0
SEQEND
 8
WIRE
 0
POLYLINE
 8
WIRE
 66
1
 70
1
 10
0.0
 20
0.0
 30
0.0
 40
  0.0200
 41
  0.0200
 0
VERTEX
 8
WIRE
 10
  6.2900
 20
  8.9000
 30
0.0
 42
1.0
 0
VERTEX
 8
WIRE
 10
  6.3100
 20
  8.9000
 30
0.0
 42
1.0
 0
SEQEND
 8
WIRE
 0
POLYLINE
 8
WIRE
 66
1
 10
0.0
 20
0.0
 30
0.0
 0
VERTEX
 8
WIRE
 10
  6.3000
 20
  8.5000
 30
0.0
 0
VERTEX
 8
WIRE
 10
  6.3000
 20
  8.4000
 30
0.0
 0
SEQEND
 8
WIRE
 0
POLYLINE
 8
WIRE
 66
1
 10
0.0
 20
0.0
 30
0.0
 0
VERTEX
 8
WIRE
 10
  7.9000
 20
  4.7000
 30
0.0
 0
VERTEX
 8
WIRE
 10
  7.9000
 20
  2.8000
 30
0.0
 0
SEQEND
 8
WIRE
 0
POLYLINE
 8
WIRE
 66
1
 70
1
 10
0.0
 20
0.0
 30
0.0
 40
  0.0200
 41
  0.0200
 0
VERTEX
 8
WIRE
 10
  7.8900
 20
  4.7000
 30
0.0
 42
1.0
 0
VERTEX
 8
WIRE
 10
  7.9100
 20
  4.7000
 30
0.0
 42
1.0
 0
SEQEND
 8
WIRE
 0
POLYLINE
 8
WIRE
 66
1
 10
0.0
 20
0.0
 30
0.0
 0
VERTEX
 8
WIRE
 10
  8.5000
 20
  8.9000
 30
0.0
 0
VERTEX
 8
WIRE
 10
  8.5000
 20
  7.0000
 30
0.0
 0
SEQEND
 8
WIRE
 0
POLYLINE
 8
WIRE
 66
1
 70
1
 10
0.0
 20
0.0
 30
0.0
 40
  0.0200
 41
  0.0200
 0
VERTEX
 8
WIRE
 10
  8.4900
 20
  8.9000
 30
0.0
 42
1.0
 0
VERTEX
 8
WIRE
 10
  8.5100
 20
  8.9000
 30
0.0
 42
1.0
 0
SEQEND
 8
WIRE
 0
POLYLINE
 8
WIRE
 66
1
 10
0.0
 20
0.0
 30
0.0
 0
VERTEX
 8
WIRE
 10
  8.7000
 20
  8.7000
 30
0.0
 0
VERTEX
 8
WIRE
 10
  8.7000
 20
  8.0000
 30
0.0
 0
SEQEND
 8
WIRE
 0
POLYLINE
 8
WIRE
 66
1
 10
0.0
 20
0.0
 30
0.0
 0
VERTEX
 8
WIRE
 10
  8.7000
 20
  6.8000
 30
0.0
 0
VERTEX
 8
WIRE
 10
  8.7000
 20
  6.1000
 30
0.0
 0
SEQEND
 8
WIRE
 0
POLYLINE
 8
WIRE
 66
1
 10
0.0
 20
0.0
 30
0.0
 0
VERTEX
 8
WIRE
 10
  9.3000
 20
  3.8000
 30
0.0
 0
VERTEX
 8
WIRE
 10
  9.3000
 20
  2.6000
 30
0.0
 0
SEQEND
 8
WIRE
 0
POLYLINE
 8
WIRE
 66
1
 70
1
 10
0.0
 20
0.0
 30
0.0
 40
  0.0200
 41
  0.0200
 0
VERTEX
 8
WIRE
 10
  9.2900
 20
  3.8000
 30
0.0
 42
1.0
 0
VERTEX
 8
WIRE
 10
  9.3100
 20
  3.8000
 30
0.0
 42
1.0
 0
SEQEND
 8
WIRE
 0
POLYLINE
 8
WIRE
 66
1
 10
0.0
 20
0.0
 30
0.0
 0
VERTEX
 8
WIRE
 10
  9.3000
 20
  0.6000
 30
0.0
 0
VERTEX
 8
WIRE
 10
  9.3000
 20
  0.5000
 30
0.0
 0
SEQEND
 8
WIRE
 0
POLYLINE
 8
WIRE
 66
1
 70
1
 10
0.0
 20
0.0
 30
0.0
 40
  0.0200
 41
  0.0200
 0
VERTEX
 8
WIRE
 10
  9.2900
 20
  0.5000
 30
0.0
 42
1.0
 0
VERTEX
 8
WIRE
 10
  9.3100
 20
  0.5000
 30
0.0
 42
1.0
 0
SEQEND
 8
WIRE
 0
POLYLINE
 8
WIRE
 66
1
 10
0.0
 20
0.0
 30
0.0
 0
VERTEX
 8
WIRE
 10
  9.4000
 20
  4.5000
 30
0.0
 0
VERTEX
 8
WIRE
 10
  9.4000
 20
  3.8000
 30
0.0
 0
SEQEND
 8
WIRE
 0
POLYLINE
 8
WIRE
 66
1
 10
0.0
 20
0.0
 30
0.0
 0
VERTEX
 8
WIRE
 10
  9.4000
 20
  2.6000
 30
0.0
 0
VERTEX
 8
WIRE
 10
  9.4000
 20
  1.9000
 30
0.0
 0
SEQEND
 8
WIRE
 0
POLYLINE
 8
WIRE
 66
1
 70
1
 10
0.0
 20
0.0
 30
0.0
 40
  0.0200
 41
  0.0200
 0
VERTEX
 8
WIRE
 10
  9.3900
 20
  2.6000
 30
0.0
 42
1.0
 0
VERTEX
 8
WIRE
 10
  9.4100
 20
  2.6000
 30
0.0
 42
1.0
 0
SEQEND
 8
WIRE
 0
POLYLINE
 8
WIRE
 66
1
 10
0.0
 20
0.0
 30
0.0
 0
VERTEX
 8
WIRE
 10
  9.7000
 20
  8.8000
 30
0.0
 0
VERTEX
 8
WIRE
 10
  9.7000
 20
  8.5000
 30
0.0
 0
SEQEND
 8
WIRE
 0
POLYLINE
 8
WIRE
 66
1
 70
1
 10
0.0
 20
0.0
 30
0.0
 40
  0.0200
 41
  0.0200
 0
VERTEX
 8
WIRE
 10
  9.6900
 20
  8.8000
 30
0.0
 42
1.0
 0
VERTEX
 8
WIRE
 10
  9.7100
 20
  8.8000
 30
0.0
 42
1.0
 0
SEQEND
 8
WIRE
 0
POLYLINE
 8
WIRE
 66
1
 10
0.0
 20
0.0
 30
0.0
 0
VERTEX
 8
WIRE
 10
  9.7000
 20
  6.9000
 30
0.0
 0
VERTEX
 8
WIRE
 10
  9.7000
 20
  6.6000
 30
0.0
 0
SEQEND
 8
WIRE
 0
POLYLINE
 8
WIRE
 66
1
 70
1
 10
0.0
 20
0.0
 30
0.0
 40
  0.0200
 41
  0.0200
 0
VERTEX
 8
WIRE
 10
  9.6900
 20
  6.9000
 30
0.0
 42
1.0
 0
VERTEX
 8
WIRE
 10
  9.7100
 20
  6.9000
 30
0.0
 42
1.0
 0
SEQEND
 8
WIRE
 0
POLYLINE
 8
WIRE
 66
1
 10
0.0
 20
0.0
 30
0.0
 0
VERTEX
 8
WIRE
 10
 10.4000
 20
  4.6000
 30
0.0
 0
VERTEX
 8
WIRE
 10
 10.4000
 20
  4.3000
 30
0.0
 0
SEQEND
 8
WIRE
 0
POLYLINE
 8
WIRE
 66
1
 70
1
 10
0.0
 20
0.0
 30
0.0
 40
  0.0200
 41
  0.0200
 0
VERTEX
 8
WIRE
 10
 10.3900
 20
  4.6000
 30
0.0
 42
1.0
 0
VERTEX
 8
WIRE
 10
 10.4100
 20
  4.6000
 30
0.0
 42
1.0
 0
SEQEND
 8
WIRE
 0
POLYLINE
 8
WIRE
 66
1
 10
0.0
 20
0.0
 30
0.0
 0
VERTEX
 8
WIRE
 10
 10.4000
 20
  2.7000
 30
0.0
 0
VERTEX
 8
WIRE
 10
 10.4000
 20
  2.4000
 30
0.0
 0
SEQEND
 8
WIRE
 0
POLYLINE
 8
WIRE
 66
1
 70
1
 10
0.0
 20
0.0
 30
0.0
 40
  0.0200
 41
  0.0200
 0
VERTEX
 8
WIRE
 10
 10.3900
 20
  2.7000
 30
0.0
 42
1.0
 0
VERTEX
 8
WIRE
 10
 10.4100
 20
  2.7000
 30
0.0
 42
1.0
 0
SEQEND
 8
WIRE
 0
POLYLINE
 8
WIRE
 66
1
 10
0.0
 20
0.0
 30
0.0
 0
VERTEX
 8
WIRE
 10
 10.7000
 20
  0.6000
 30
0.0
 0
VERTEX
 8
WIRE
 10
 10.7000
 20
  0.5000
 30
0.0
 0
SEQEND
 8
WIRE
 0
POLYLINE
 8
WIRE
 66
1
 70
1
 10
0.0
 20
0.0
 30
0.0
 40
  0.0200
 41
  0.0200
 0
VERTEX
 8
WIRE
 10
 10.6900
 20
  0.5000
 30
0.0
 42
1.0
 0
VERTEX
 8
WIRE
 10
 10.7100
 20
  0.5000
 30
0.0
 42
1.0
 0
SEQEND
 8
WIRE
 0
POLYLINE
 8
WIRE
 66
1
 10
0.0
 20
0.0
 30
0.0
 0
VERTEX
 8
WIRE
 10
  9.3000
 20
  3.8000
 30
0.0
 0
VERTEX
 8
WIRE
 10
  9.4000
 20
  3.8000
 30
0.0
 0
SEQEND
 8
WIRE
 0
POLYLINE
 8
WIRE
 66
1
 70
1
 10
0.0
 20
0.0
 30
0.0
 40
  0.0200
 41
  0.0200
 0
VERTEX
 8
WIRE
 10
  9.3900
 20
  3.8000
 30
0.0
 42
1.0
 0
VERTEX
 8
WIRE
 10
  9.4100
 20
  3.8000
 30
0.0
 42
1.0
 0
SEQEND
 8
WIRE
 0
POLYLINE
 8
WIRE
 66
1
 10
0.0
 20
0.0
 30
0.0
 0
VERTEX
 8
WIRE
 10
  9.4000
 20
  3.8000
 30
0.0
 0
VERTEX
 8
WIRE
 10
 10.4000
 20
  3.8000
 30
0.0
 0
SEQEND
 8
WIRE
 0
POLYLINE
 8
WIRE
 66
1
 70
1
 10
0.0
 20
0.0
 30
0.0
 40
  0.0200
 41
  0.0200
 0
VERTEX
 8
WIRE
 10
 10.3900
 20
  3.8000
 30
0.0
 42
1.0
 0
VERTEX
 8
WIRE
 10
 10.4100
 20
  3.8000
 30
0.0
 42
1.0
 0
SEQEND
 8
WIRE
 0
POLYLINE
 8
WIRE
 66
1
 10
0.0
 20
0.0
 30
0.0
 0
VERTEX
 8
WIRE
 10
  1.4000
 20
  4.7000
 30
0.0
 0
VERTEX
 8
WIRE
 10
  1.5000
 20
  4.7000
 30
0.0
 0
SEQEND
 8
WIRE
 0
POLYLINE
 8
WIRE
 66
1
 10
0.0
 20
0.0
 30
0.0
 0
VERTEX
 8
WIRE
 10
  1.5000
 20
  8.9000
 30
0.0
 0
VERTEX
 8
WIRE
 10
  1.6000
 20
  8.9000
 30
0.0
 0
SEQEND
 8
WIRE
 0
POLYLINE
 8
WIRE
 66
1
 10
0.0
 20
0.0
 30
0.0
 0
VERTEX
 8
WIRE
 10
  2.2000
 20
  4.7000
 30
0.0
 0
VERTEX
 8
WIRE
 10
  2.3000
 20
  4.7000
 30
0.0
 0
SEQEND
 8
WIRE
 0
POLYLINE
 8
WIRE
 66
1
 10
0.0
 20
0.0
 30
0.0
 0
VERTEX
 8
WIRE
 10
  2.3000
 20
  8.9000
 30
0.0
 0
VERTEX
 8
WIRE
 10
  2.4000
 20
  8.9000
 30
0.0
 0
SEQEND
 8
WIRE
 0
POLYLINE
 8
WIRE
 66
1
 10
0.0
 20
0.0
 30
0.0
 0
VERTEX
 8
WIRE
 10
  3.0000
 20
  4.7000
 30
0.0
 0
VERTEX
 8
WIRE
 10
  3.1000
 20
  4.7000
 30
0.0
 0
SEQEND
 8
WIRE
 0
POLYLINE
 8
WIRE
 66
1
 10
0.0
 20
0.0
 30
0.0
 0
VERTEX
 8
WIRE
 10
  3.1000
 20
  8.9000
 30
0.0
 0
VERTEX
 8
WIRE
 10
  3.2000
 20
  8.9000
 30
0.0
 0
SEQEND
 8
WIRE
 0
POLYLINE
 8
WIRE
 66
1
 10
0.0
 20
0.0
 30
0.0
 0
VERTEX
 8
WIRE
 10
  3.8000
 20
  4.7000
 30
0.0
 0
VERTEX
 8
WIRE
 10
  3.9000
 20
  4.7000
 30
0.0
 0
SEQEND
 8
WIRE
 0
POLYLINE
 8
WIRE
 66
1
 10
0.0
 20
0.0
 30
0.0
 0
VERTEX
 8
WIRE
 10
  3.9000
 20
  8.9000
 30
0.0
 0
VERTEX
 8
WIRE
 10
  4.0000
 20
  8.9000
 30
0.0
 0
SEQEND
 8
WIRE
 0
POLYLINE
 8
WIRE
 66
1
 10
0.0
 20
0.0
 30
0.0
 0
VERTEX
 8
WIRE
 10
  4.6000
 20
  4.7000
 30
0.0
 0
VERTEX
 8
WIRE
 10
  4.7000
 20
  4.7000
 30
0.0
 0
SEQEND
 8
WIRE
 0
POLYLINE
 8
WIRE
 66
1
 10
0.0
 20
0.0
 30
0.0
 0
VERTEX
 8
WIRE
 10
  4.7000
 20
  8.9000
 30
0.0
 0
VERTEX
 8
WIRE
 10
  4.8000
 20
  8.9000
 30
0.0
 0
SEQEND
 8
WIRE
 0
POLYLINE
 8
WIRE
 66
1
 10
0.0
 20
0.0
 30
0.0
 0
VERTEX
 8
WIRE
 10
  5.4000
 20
  4.7000
 30
0.0
 0
VERTEX
 8
WIRE
 10
  5.5000
 20
  4.7000
 30
0.0
 0
SEQEND
 8
WIRE
 0
POLYLINE
 8
WIRE
 66
1
 10
0.0
 20
0.0
 30
0.0
 0
VERTEX
 8
WIRE
 10
  5.5000
 20
  8.9000
 30
0.0
 0
VERTEX
 8
WIRE
 10
  5.6000
 20
  8.9000
 30
0.0
 0
SEQEND
 8
WIRE
 0
POLYLINE
 8
WIRE
 66
1
 10
0.0
 20
0.0
 30
0.0
 0
VERTEX
 8
WIRE
 10
  6.2000
 20
  4.7000
 30
0.0
 0
VERTEX
 8
WIRE
 10
  6.7000
 20
  4.7000
 30
0.0
 0
SEQEND
 8
WIRE
 0
POLYLINE
 8
WIRE
 66
1
 10
0.0
 20
0.0
 30
0.0
 0
VERTEX
 8
WIRE
 10
  6.3000
 20
  8.9000
 30
0.0
 0
VERTEX
 8
WIRE
 10
  6.8000
 20
  8.9000
 30
0.0
 0
SEQEND
 8
WIRE
 0
POLYLINE
 8
WIRE
 66
1
 10
0.0
 20
0.0
 30
0.0
 0
VERTEX
 8
WIRE
 10
  8.5000
 20
  8.9000
 30
0.0
 0
VERTEX
 8
WIRE
 10
  8.7000
 20
  8.9000
 30
0.0
 0
SEQEND
 8
WIRE
 0
POLYLINE
 8
WIRE
 66
1
 10
0.0
 20
0.0
 30
0.0
 0
VERTEX
 8
WIRE
 10
  8.1000
 20
  8.9000
 30
0.0
 0
VERTEX
 8
WIRE
 10
  8.5000
 20
  8.9000
 30
0.0
 0
SEQEND
 8
WIRE
 0
POLYLINE
 8
PARTS
 66
1
 10
0.0
 20
0.0
 30
0.0
 0
VERTEX
 8
PARTS
 10
 10.6000
 20
  0.5000
 30
0.0
 0
VERTEX
 8
PARTS
 10
 10.8000
 20
  0.5000
 30
0.0
 0
SEQEND
 8
PARTS
 0
POLYLINE
 8
PARTS
 66
1
 10
0.0
 20
0.0
 30
0.0
 0
VERTEX
 8
PARTS
 10
 10.6300
 20
  0.4700
 30
0.0
 0
VERTEX
 8
PARTS
 10
 10.7700
 20
  0.4700
 30
0.0
 0
SEQEND
 8
PARTS
 0
POLYLINE
 8
PARTS
 66
1
 10
0.0
 20
0.0
 30
0.0
 0
VERTEX
 8
PARTS
 10
 10.7400
 20
  0.4400
 30
0.0
 0
VERTEX
 8
PARTS
 10
 10.6600
 20
  0.4400
 30
0.0
 0
SEQEND
 8
PARTS
 0
POLYLINE
 8
PARTS
 66
1
 10
0.0
 20
0.0
 30
0.0
 0
VERTEX
 8
PARTS
 10
 10.6900
 20
  0.4100
 30
0.0
 0
VERTEX
 8
PARTS
 10
 10.7100
 20
  0.4100
 30
0.0
 0
SEQEND
 8
PARTS
 0
POLYLINE
 8
PARTS
 66
1
 10
0.0
 20
0.0
 30
0.0
 0
VERTEX
 8
PARTS
 10
  9.2000
 20
  0.5000
 30
0.0
 0
VERTEX
 8
PARTS
 10
  9.4000
 20
  0.5000
 30
0.0
 0
SEQEND
 8
PARTS
 0
POLYLINE
 8
PARTS
 66
1
 10
0.0
 20
0.0
 30
0.0
 0
VERTEX
 8
PARTS
 10
  9.2300
 20
  0.4700
 30
0.0
 0
VERTEX
 8
PARTS
 10
  9.3700
 20
  0.4700
 30
0.0
 0
SEQEND
 8
PARTS
 0
POLYLINE
 8
PARTS
 66
1
 10
0.0
 20
0.0
 30
0.0
 0
VERTEX
 8
PARTS
 10
  9.3400
 20
  0.4400
 30
0.0
 0
VERTEX
 8
PARTS
 10
  9.2600
 20
  0.4400
 30
0.0
 0
SEQEND
 8
PARTS
 0
POLYLINE
 8
PARTS
 66
1
 10
0.0
 20
0.0
 30
0.0
 0
VERTEX
 8
PARTS
 10
  9.2900
 20
  0.4100
 30
0.0
 0
VERTEX
 8
PARTS
 10
  9.3100
 20
  0.4100
 30
0.0
 0
SEQEND
 8
PARTS
 0
POLYLINE
 8
PARTS
 66
1
 10
0.0
 20
0.0
 30
0.0
 0
VERTEX
 8
PARTS
 10
 10.3000
 20
  3.3000
 30
0.0
 0
VERTEX
 8
PARTS
 10
 10.5000
 20
  3.3000
 30
0.0
 0
SEQEND
 8
PARTS
 0
POLYLINE
 8
PARTS
 66
1
 10
0.0
 20
0.0
 30
0.0
 0
VERTEX
 8
PARTS
 10
 10.3300
 20
  3.2700
 30
0.0
 0
VERTEX
 8
PARTS
 10
 10.4700
 20
  3.2700
 30
0.0
 0
SEQEND
 8
PARTS
 0
POLYLINE
 8
PARTS
 66
1
 10
0.0
 20
0.0
 30
0.0
 0
VERTEX
 8
PARTS
 10
 10.4400
 20
  3.2400
 30
0.0
 0
VERTEX
 8
PARTS
 10
 10.3600
 20
  3.2400
 30
0.0
 0
SEQEND
 8
PARTS
 0
POLYLINE
 8
PARTS
 66
1
 10
0.0
 20
0.0
 30
0.0
 0
VERTEX
 8
PARTS
 10
 10.3900
 20
  3.2100
 30
0.0
 0
VERTEX
 8
PARTS
 10
 10.4100
 20
  3.2100
 30
0.0
 0
SEQEND
 8
PARTS
 0
POLYLINE
 8
PARTS
 66
1
 10
0.0
 20
0.0
 30
0.0
 0
VERTEX
 8
PARTS
 10
 11.0000
 20
  4.4000
 30
0.0
 0
VERTEX
 8
PARTS
 10
 11.2000
 20
  4.4000
 30
0.0
 0
SEQEND
 8
PARTS
 0
POLYLINE
 8
PARTS
 66
1
 10
0.0
 20
0.0
 30
0.0
 0
VERTEX
 8
PARTS
 10
 11.0300
 20
  4.3700
 30
0.0
 0
VERTEX
 8
PARTS
 10
 11.1700
 20
  4.3700
 30
0.0
 0
SEQEND
 8
PARTS
 0
POLYLINE
 8
PARTS
 66
1
 10
0.0
 20
0.0
 30
0.0
 0
VERTEX
 8
PARTS
 10
 11.1400
 20
  4.3400
 30
0.0
 0
VERTEX
 8
PARTS
 10
 11.0600
 20
  4.3400
 30
0.0
 0
SEQEND
 8
PARTS
 0
POLYLINE
 8
PARTS
 66
1
 10
0.0
 20
0.0
 30
0.0
 0
VERTEX
 8
PARTS
 10
 11.0900
 20
  4.3100
 30
0.0
 0
VERTEX
 8
PARTS
 10
 11.1100
 20
  4.3100
 30
0.0
 0
SEQEND
 8
PARTS
 0
POLYLINE
 8
PARTS
 66
1
 10
0.0
 20
0.0
 30
0.0
 0
VERTEX
 8
PARTS
 10
  8.2000
 20
  3.4000
 30
0.0
 0
VERTEX
 8
PARTS
 10
  8.4000
 20
  3.4000
 30
0.0
 0
SEQEND
 8
PARTS
 0
POLYLINE
 8
PARTS
 66
1
 10
0.0
 20
0.0
 30
0.0
 0
VERTEX
 8
PARTS
 10
  8.2300
 20
  3.3700
 30
0.0
 0
VERTEX
 8
PARTS
 10
  8.3700
 20
  3.3700
 30
0.0
 0
SEQEND
 8
PARTS
 0
POLYLINE
 8
PARTS
 66
1
 10
0.0
 20
0.0
 30
0.0
 0
VERTEX
 8
PARTS
 10
  8.3400
 20
  3.3400
 30
0.0
 0
VERTEX
 8
PARTS
 10
  8.2600
 20
  3.3400
 30
0.0
 0
SEQEND
 8
PARTS
 0
POLYLINE
 8
PARTS
 66
1
 10
0.0
 20
0.0
 30
0.0
 0
VERTEX
 8
PARTS
 10
  8.2900
 20
  3.3100
 30
0.0
 0
VERTEX
 8
PARTS
 10
  8.3100
 20
  3.3100
 30
0.0
 0
SEQEND
 8
PARTS
 0
POLYLINE
 8
PARTS
 66
1
 10
0.0
 20
0.0
 30
0.0
 0
VERTEX
 8
PARTS
 10
 10.3000
 20
  1.4000
 30
0.0
 0
VERTEX
 8
PARTS
 10
 10.5000
 20
  1.4000
 30
0.0
 0
SEQEND
 8
PARTS
 0
POLYLINE
 8
PARTS
 66
1
 10
0.0
 20
0.0
 30
0.0
 0
VERTEX
 8
PARTS
 10
 10.3300
 20
  1.3700
 30
0.0
 0
VERTEX
 8
PARTS
 10
 10.4700
 20
  1.3700
 30
0.0
 0
SEQEND
 8
PARTS
 0
POLYLINE
 8
PARTS
 66
1
 10
0.0
 20
0.0
 30
0.0
 0
VERTEX
 8
PARTS
 10
 10.4400
 20
  1.3400
 30
0.0
 0
VERTEX
 8
PARTS
 10
 10.3600
 20
  1.3400
 30
0.0
 0
SEQEND
 8
PARTS
 0
POLYLINE
 8
PARTS
 66
1
 10
0.0
 20
0.0
 30
0.0
 0
VERTEX
 8
PARTS
 10
 10.3900
 20
  1.3100
 30
0.0
 0
VERTEX
 8
PARTS
 10
 10.4100
 20
  1.3100
 30
0.0
 0
SEQEND
 8
PARTS
 0
POLYLINE
 8
PARTS
 66
1
 10
0.0
 20
0.0
 30
0.0
 0
VERTEX
 8
PARTS
 10
 11.0000
 20
  2.5000
 30
0.0
 0
VERTEX
 8
PARTS
 10
 11.2000
 20
  2.5000
 30
0.0
 0
SEQEND
 8
PARTS
 0
POLYLINE
 8
PARTS
 66
1
 10
0.0
 20
0.0
 30
0.0
 0
VERTEX
 8
PARTS
 10
 11.0300
 20
  2.4700
 30
0.0
 0
VERTEX
 8
PARTS
 10
 11.1700
 20
  2.4700
 30
0.0
 0
SEQEND
 8
PARTS
 0
POLYLINE
 8
PARTS
 66
1
 10
0.0
 20
0.0
 30
0.0
 0
VERTEX
 8
PARTS
 10
 11.1400
 20
  2.4400
 30
0.0
 0
VERTEX
 8
PARTS
 10
 11.0600
 20
  2.4400
 30
0.0
 0
SEQEND
 8
PARTS
 0
POLYLINE
 8
PARTS
 66
1
 10
0.0
 20
0.0
 30
0.0
 0
VERTEX
 8
PARTS
 10
 11.0900
 20
  2.4100
 30
0.0
 0
VERTEX
 8
PARTS
 10
 11.1100
 20
  2.4100
 30
0.0
 0
SEQEND
 8
PARTS
 0
POLYLINE
 8
PARTS
 66
1
 10
0.0
 20
0.0
 30
0.0
 0
VERTEX
 8
PARTS
 10
  7.6000
 20
  4.5000
 30
0.0
 0
VERTEX
 8
PARTS
 10
  7.8000
 20
  4.5000
 30
0.0
 0
SEQEND
 8
PARTS
 0
POLYLINE
 8
PARTS
 66
1
 10
0.0
 20
0.0
 30
0.0
 0
VERTEX
 8
PARTS
 10
  7.6300
 20
  4.4700
 30
0.0
 0
VERTEX
 8
PARTS
 10
  7.7700
 20
  4.4700
 30
0.0
 0
SEQEND
 8
PARTS
 0
POLYLINE
 8
PARTS
 66
1
 10
0.0
 20
0.0
 30
0.0
 0
VERTEX
 8
PARTS
 10
  7.7400
 20
  4.4400
 30
0.0
 0
VERTEX
 8
PARTS
 10
  7.6600
 20
  4.4400
 30
0.0
 0
SEQEND
 8
PARTS
 0
POLYLINE
 8
PARTS
 66
1
 10
0.0
 20
0.0
 30
0.0
 0
VERTEX
 8
PARTS
 10
  7.6900
 20
  4.4100
 30
0.0
 0
VERTEX
 8
PARTS
 10
  7.7100
 20
  4.4100
 30
0.0
 0
SEQEND
 8
PARTS
 0
POLYLINE
 8
PARTS
 66
1
 10
0.0
 20
0.0
 30
0.0
 0
VERTEX
 8
PARTS
 10
  9.6000
 20
  7.5000
 30
0.0
 0
VERTEX
 8
PARTS
 10
  9.8000
 20
  7.5000
 30
0.0
 0
SEQEND
 8
PARTS
 0
POLYLINE
 8
PARTS
 66
1
 10
0.0
 20
0.0
 30
0.0
 0
VERTEX
 8
PARTS
 10
  9.6300
 20
  7.4700
 30
0.0
 0
VERTEX
 8
PARTS
 10
  9.7700
 20
  7.4700
 30
0.0
 0
SEQEND
 8
PARTS
 0
POLYLINE
 8
PARTS
 66
1
 10
0.0
 20
0.0
 30
0.0
 0
VERTEX
 8
PARTS
 10
  9.7400
 20
  7.4400
 30
0.0
 0
VERTEX
 8
PARTS
 10
  9.6600
 20
  7.4400
 30
0.0
 0
SEQEND
 8
PARTS
 0
POLYLINE
 8
PARTS
 66
1
 10
0.0
 20
0.0
 30
0.0
 0
VERTEX
 8
PARTS
 10
  9.6900
 20
  7.4100
 30
0.0
 0
VERTEX
 8
PARTS
 10
  9.7100
 20
  7.4100
 30
0.0
 0
SEQEND
 8
PARTS
 0
POLYLINE
 8
PARTS
 66
1
 10
0.0
 20
0.0
 30
0.0
 0
VERTEX
 8
PARTS
 10
 10.3000
 20
  8.6000
 30
0.0
 0
VERTEX
 8
PARTS
 10
 10.5000
 20
  8.6000
 30
0.0
 0
SEQEND
 8
PARTS
 0
POLYLINE
 8
PARTS
 66
1
 10
0.0
 20
0.0
 30
0.0
 0
VERTEX
 8
PARTS
 10
 10.3300
 20
  8.5700
 30
0.0
 0
VERTEX
 8
PARTS
 10
 10.4700
 20
  8.5700
 30
0.0
 0
SEQEND
 8
PARTS
 0
POLYLINE
 8
PARTS
 66
1
 10
0.0
 20
0.0
 30
0.0
 0
VERTEX
 8
PARTS
 10
 10.4400
 20
  8.5400
 30
0.0
 0
VERTEX
 8
PARTS
 10
 10.3600
 20
  8.5400
 30
0.0
 0
SEQEND
 8
PARTS
 0
POLYLINE
 8
PARTS
 66
1
 10
0.0
 20
0.0
 30
0.0
 0
VERTEX
 8
PARTS
 10
 10.3900
 20
  8.5100
 30
0.0
 0
VERTEX
 8
PARTS
 10
 10.4100
 20
  8.5100
 30
0.0
 0
SEQEND
 8
PARTS
 0
POLYLINE
 8
PARTS
 66
1
 10
0.0
 20
0.0
 30
0.0
 0
VERTEX
 8
PARTS
 10
  9.6000
 20
  5.6000
 30
0.0
 0
VERTEX
 8
PARTS
 10
  9.8000
 20
  5.6000
 30
0.0
 0
SEQEND
 8
PARTS
 0
POLYLINE
 8
PARTS
 66
1
 10
0.0
 20
0.0
 30
0.0
 0
VERTEX
 8
PARTS
 10
  9.6300
 20
  5.5700
 30
0.0
 0
VERTEX
 8
PARTS
 10
  9.7700
 20
  5.5700
 30
0.0
 0
SEQEND
 8
PARTS
 0
POLYLINE
 8
PARTS
 66
1
 10
0.0
 20
0.0
 30
0.0
 0
VERTEX
 8
PARTS
 10
  9.7400
 20
  5.5400
 30
0.0
 0
VERTEX
 8
PARTS
 10
  9.6600
 20
  5.5400
 30
0.0
 0
SEQEND
 8
PARTS
 0
POLYLINE
 8
PARTS
 66
1
 10
0.0
 20
0.0
 30
0.0
 0
VERTEX
 8
PARTS
 10
  9.6900
 20
  5.5100
 30
0.0
 0
VERTEX
 8
PARTS
 10
  9.7100
 20
  5.5100
 30
0.0
 0
SEQEND
 8
PARTS
 0
POLYLINE
 8
PARTS
 66
1
 10
0.0
 20
0.0
 30
0.0
 0
VERTEX
 8
PARTS
 10
 10.3000
 20
  6.7000
 30
0.0
 0
VERTEX
 8
PARTS
 10
 10.5000
 20
  6.7000
 30
0.0
 0
SEQEND
 8
PARTS
 0
POLYLINE
 8
PARTS
 66
1
 10
0.0
 20
0.0
 30
0.0
 0
VERTEX
 8
PARTS
 10
 10.3300
 20
  6.6700
 30
0.0
 0
VERTEX
 8
PARTS
 10
 10.4700
 20
  6.6700
 30
0.0
 0
SEQEND
 8
PARTS
 0
POLYLINE
 8
PARTS
 66
1
 10
0.0
 20
0.0
 30
0.0
 0
VERTEX
 8
PARTS
 10
 10.4400
 20
  6.6400
 30
0.0
 0
VERTEX
 8
PARTS
 10
 10.3600
 20
  6.6400
 30
0.0
 0
SEQEND
 8
PARTS
 0
POLYLINE
 8
PARTS
 66
1
 10
0.0
 20
0.0
 30
0.0
 0
VERTEX
 8
PARTS
 10
 10.3900
 20
  6.6100
 30
0.0
 0
VERTEX
 8
PARTS
 10
 10.4100
 20
  6.6100
 30
0.0
 0
SEQEND
 8
PARTS
 0
POLYLINE
 8
PARTS
 66
1
 10
0.0
 20
0.0
 30
0.0
 0
VERTEX
 8
PARTS
 10
  7.7000
 20
  8.7000
 30
0.0
 0
VERTEX
 8
PARTS
 10
  7.9000
 20
  8.7000
 30
0.0
 0
SEQEND
 8
PARTS
 0
POLYLINE
 8
PARTS
 66
1
 10
0.0
 20
0.0
 30
0.0
 0
VERTEX
 8
PARTS
 10
  7.7300
 20
  8.6700
 30
0.0
 0
VERTEX
 8
PARTS
 10
  7.8700
 20
  8.6700
 30
0.0
 0
SEQEND
 8
PARTS
 0
POLYLINE
 8
PARTS
 66
1
 10
0.0
 20
0.0
 30
0.0
 0
VERTEX
 8
PARTS
 10
  7.8400
 20
  8.6400
 30
0.0
 0
VERTEX
 8
PARTS
 10
  7.7600
 20
  8.6400
 30
0.0
 0
SEQEND
 8
PARTS
 0
POLYLINE
 8
PARTS
 66
1
 10
0.0
 20
0.0
 30
0.0
 0
VERTEX
 8
PARTS
 10
  7.7900
 20
  8.6100
 30
0.0
 0
VERTEX
 8
PARTS
 10
  7.8100
 20
  8.6100
 30
0.0
 0
SEQEND
 8
PARTS
 0
POLYLINE
 8
PARTS
 66
1
 10
0.0
 20
0.0
 30
0.0
 0
VERTEX
 8
PARTS
 10
  8.0000
 20
  8.4000
 30
0.0
 0
VERTEX
 8
PARTS
 10
  8.2000
 20
  8.4000
 30
0.0
 0
SEQEND
 8
PARTS
 0
POLYLINE
 8
PARTS
 66
1
 10
0.0
 20
0.0
 30
0.0
 0
VERTEX
 8
PARTS
 10
  8.0300
 20
  8.3700
 30
0.0
 0
VERTEX
 8
PARTS
 10
  8.1700
 20
  8.3700
 30
0.0
 0
SEQEND
 8
PARTS
 0
POLYLINE
 8
PARTS
 66
1
 10
0.0
 20
0.0
 30
0.0
 0
VERTEX
 8
PARTS
 10
  8.1400
 20
  8.3400
 30
0.0
 0
VERTEX
 8
PARTS
 10
  8.0600
 20
  8.3400
 30
0.0
 0
SEQEND
 8
PARTS
 0
POLYLINE
 8
PARTS
 66
1
 10
0.0
 20
0.0
 30
0.0
 0
VERTEX
 8
PARTS
 10
  8.0900
 20
  8.3100
 30
0.0
 0
VERTEX
 8
PARTS
 10
  8.1100
 20
  8.3100
 30
0.0
 0
SEQEND
 8
PARTS
 0
POLYLINE
 8
PARTS
 66
1
 10
0.0
 20
0.0
 30
0.0
 0
VERTEX
 8
PARTS
 10
  1.4000
 20
  8.4000
 30
0.0
 0
VERTEX
 8
PARTS
 10
  1.6000
 20
  8.4000
 30
0.0
 0
SEQEND
 8
PARTS
 0
POLYLINE
 8
PARTS
 66
1
 10
0.0
 20
0.0
 30
0.0
 0
VERTEX
 8
PARTS
 10
  1.4300
 20
  8.3700
 30
0.0
 0
VERTEX
 8
PARTS
 10
  1.5700
 20
  8.3700
 30
0.0
 0
SEQEND
 8
PARTS
 0
POLYLINE
 8
PARTS
 66
1
 10
0.0
 20
0.0
 30
0.0
 0
VERTEX
 8
PARTS
 10
  1.5400
 20
  8.3400
 30
0.0
 0
VERTEX
 8
PARTS
 10
  1.4600
 20
  8.3400
 30
0.0
 0
SEQEND
 8
PARTS
 0
POLYLINE
 8
PARTS
 66
1
 10
0.0
 20
0.0
 30
0.0
 0
VERTEX
 8
PARTS
 10
  1.4900
 20
  8.3100
 30
0.0
 0
VERTEX
 8
PARTS
 10
  1.5100
 20
  8.3100
 30
0.0
 0
SEQEND
 8
PARTS
 0
POLYLINE
 8
PARTS
 66
1
 10
0.0
 20
0.0
 30
0.0
 0
VERTEX
 8
PARTS
 10
  2.2000
 20
  8.4000
 30
0.0
 0
VERTEX
 8
PARTS
 10
  2.4000
 20
  8.4000
 30
0.0
 0
SEQEND
 8
PARTS
 0
POLYLINE
 8
PARTS
 66
1
 10
0.0
 20
0.0
 30
0.0
 0
VERTEX
 8
PARTS
 10
  2.2300
 20
  8.3700
 30
0.0
 0
VERTEX
 8
PARTS
 10
  2.3700
 20
  8.3700
 30
0.0
 0
SEQEND
 8
PARTS
 0
POLYLINE
 8
PARTS
 66
1
 10
0.0
 20
0.0
 30
0.0
 0
VERTEX
 8
PARTS
 10
  2.3400
 20
  8.3400
 30
0.0
 0
VERTEX
 8
PARTS
 10
  2.2600
 20
  8.3400
 30
0.0
 0
SEQEND
 8
PARTS
 0
POLYLINE
 8
PARTS
 66
1
 10
0.0
 20
0.0
 30
0.0
 0
VERTEX
 8
PARTS
 10
  2.2900
 20
  8.3100
 30
0.0
 0
VERTEX
 8
PARTS
 10
  2.3100
 20
  8.3100
 30
0.0
 0
SEQEND
 8
PARTS
 0
POLYLINE
 8
PARTS
 66
1
 10
0.0
 20
0.0
 30
0.0
 0
VERTEX
 8
PARTS
 10
  3.0000
 20
  8.4000
 30
0.0
 0
VERTEX
 8
PARTS
 10
  3.2000
 20
  8.4000
 30
0.0
 0
SEQEND
 8
PARTS
 0
POLYLINE
 8
PARTS
 66
1
 10
0.0
 20
0.0
 30
0.0
 0
VERTEX
 8
PARTS
 10
  3.0300
 20
  8.3700
 30
0.0
 0
VERTEX
 8
PARTS
 10
  3.1700
 20
  8.3700
 30
0.0
 0
SEQEND
 8
PARTS
 0
POLYLINE
 8
PARTS
 66
1
 10
0.0
 20
0.0
 30
0.0
 0
VERTEX
 8
PARTS
 10
  3.1400
 20
  8.3400
 30
0.0
 0
VERTEX
 8
PARTS
 10
  3.0600
 20
  8.3400
 30
0.0
 0
SEQEND
 8
PARTS
 0
POLYLINE
 8
PARTS
 66
1
 10
0.0
 20
0.0
 30
0.0
 0
VERTEX
 8
PARTS
 10
  3.0900
 20
  8.3100
 30
0.0
 0
VERTEX
 8
PARTS
 10
  3.1100
 20
  8.3100
 30
0.0
 0
SEQEND
 8
PARTS
 0
POLYLINE
 8
PARTS
 66
1
 10
0.0
 20
0.0
 30
0.0
 0
VERTEX
 8
PARTS
 10
  3.8000
 20
  8.4000
 30
0.0
 0
VERTEX
 8
PARTS
 10
  4.0000
 20
  8.4000
 30
0.0
 0
SEQEND
 8
PARTS
 0
POLYLINE
 8
PARTS
 66
1
 10
0.0
 20
0.0
 30
0.0
 0
VERTEX
 8
PARTS
 10
  3.8300
 20
  8.3700
 30
0.0
 0
VERTEX
 8
PARTS
 10
  3.9700
 20
  8.3700
 30
0.0
 0
SEQEND
 8
PARTS
 0
POLYLINE
 8
PARTS
 66
1
 10
0.0
 20
0.0
 30
0.0
 0
VERTEX
 8
PARTS
 10
  3.9400
 20
  8.3400
 30
0.0
 0
VERTEX
 8
PARTS
 10
  3.8600
 20
  8.3400
 30
0.0
 0
SEQEND
 8
PARTS
 0
POLYLINE
 8
PARTS
 66
1
 10
0.0
 20
0.0
 30
0.0
 0
VERTEX
 8
PARTS
 10
  3.8900
 20
  8.3100
 30
0.0
 0
VERTEX
 8
PARTS
 10
  3.9100
 20
  8.3100
 30
0.0
 0
SEQEND
 8
PARTS
 0
POLYLINE
 8
PARTS
 66
1
 10
0.0
 20
0.0
 30
0.0
 0
VERTEX
 8
PARTS
 10
  4.6000
 20
  8.4000
 30
0.0
 0
VERTEX
 8
PARTS
 10
  4.8000
 20
  8.4000
 30
0.0
 0
SEQEND
 8
PARTS
 0
POLYLINE
 8
PARTS
 66
1
 10
0.0
 20
0.0
 30
0.0
 0
VERTEX
 8
PARTS
 10
  4.6300
 20
  8.3700
 30
0.0
 0
VERTEX
 8
PARTS
 10
  4.7700
 20
  8.3700
 30
0.0
 0
SEQEND
 8
PARTS
 0
POLYLINE
 8
PARTS
 66
1
 10
0.0
 20
0.0
 30
0.0
 0
VERTEX
 8
PARTS
 10
  4.7400
 20
  8.3400
 30
0.0
 0
VERTEX
 8
PARTS
 10
  4.6600
 20
  8.3400
 30
0.0
 0
SEQEND
 8
PARTS
 0
POLYLINE
 8
PARTS
 66
1
 10
0.0
 20
0.0
 30
0.0
 0
VERTEX
 8
PARTS
 10
  4.6900
 20
  8.3100
 30
0.0
 0
VERTEX
 8
PARTS
 10
  4.7100
 20
  8.3100
 30
0.0
 0
SEQEND
 8
PARTS
 0
POLYLINE
 8
PARTS
 66
1
 10
0.0
 20
0.0
 30
0.0
 0
VERTEX
 8
PARTS
 10
  5.4000
 20
  8.4000
 30
0.0
 0
VERTEX
 8
PARTS
 10
  5.6000
 20
  8.4000
 30
0.0
 0
SEQEND
 8
PARTS
 0
POLYLINE
 8
PARTS
 66
1
 10
0.0
 20
0.0
 30
0.0
 0
VERTEX
 8
PARTS
 10
  5.4300
 20
  8.3700
 30
0.0
 0
VERTEX
 8
PARTS
 10
  5.5700
 20
  8.3700
 30
0.0
 0
SEQEND
 8
PARTS
 0
POLYLINE
 8
PARTS
 66
1
 10
0.0
 20
0.0
 30
0.0
 0
VERTEX
 8
PARTS
 10
  5.5400
 20
  8.3400
 30
0.0
 0
VERTEX
 8
PARTS
 10
  5.4600
 20
  8.3400
 30
0.0
 0
SEQEND
 8
PARTS
 0
POLYLINE
 8
PARTS
 66
1
 10
0.0
 20
0.0
 30
0.0
 0
VERTEX
 8
PARTS
 10
  5.4900
 20
  8.3100
 30
0.0
 0
VERTEX
 8
PARTS
 10
  5.5100
 20
  8.3100
 30
0.0
 0
SEQEND
 8
PARTS
 0
POLYLINE
 8
PARTS
 66
1
 10
0.0
 20
0.0
 30
0.0
 0
VERTEX
 8
PARTS
 10
  6.2000
 20
  8.4000
 30
0.0
 0
VERTEX
 8
PARTS
 10
  6.4000
 20
  8.4000
 30
0.0
 0
SEQEND
 8
PARTS
 0
POLYLINE
 8
PARTS
 66
1
 10
0.0
 20
0.0
 30
0.0
 0
VERTEX
 8
PARTS
 10
  6.2300
 20
  8.3700
 30
0.0
 0
VERTEX
 8
PARTS
 10
  6.3700
 20
  8.3700
 30
0.0
 0
SEQEND
 8
PARTS
 0
POLYLINE
 8
PARTS
 66
1
 10
0.0
 20
0.0
 30
0.0
 0
VERTEX
 8
PARTS
 10
  6.3400
 20
  8.3400
 30
0.0
 0
VERTEX
 8
PARTS
 10
  6.2600
 20
  8.3400
 30
0.0
 0
SEQEND
 8
PARTS
 0
POLYLINE
 8
PARTS
 66
1
 10
0.0
 20
0.0
 30
0.0
 0
VERTEX
 8
PARTS
 10
  6.2900
 20
  8.3100
 30
0.0
 0
VERTEX
 8
PARTS
 10
  6.3100
 20
  8.3100
 30
0.0
 0
SEQEND
 8
PARTS
 0
POLYLINE
 8
PARTS
 66
1
 10
0.0
 20
0.0
 30
0.0
 0
VERTEX
 8
PARTS
 10
  6.9000
 20
  8.5000
 30
0.0
 0
VERTEX
 8
PARTS
 10
  7.1000
 20
  8.5000
 30
0.0
 0
SEQEND
 8
PARTS
 0
POLYLINE
 8
PARTS
 66
1
 10
0.0
 20
0.0
 30
0.0
 0
VERTEX
 8
PARTS
 10
  6.9300
 20
  8.4700
 30
0.0
 0
VERTEX
 8
PARTS
 10
  7.0700
 20
  8.4700
 30
0.0
 0
SEQEND
 8
PARTS
 0
POLYLINE
 8
PARTS
 66
1
 10
0.0
 20
0.0
 30
0.0
 0
VERTEX
 8
PARTS
 10
  7.0400
 20
  8.4400
 30
0.0
 0
VERTEX
 8
PARTS
 10
  6.9600
 20
  8.4400
 30
0.0
 0
SEQEND
 8
PARTS
 0
POLYLINE
 8
PARTS
 66
1
 10
0.0
 20
0.0
 30
0.0
 0
VERTEX
 8
PARTS
 10
  6.9900
 20
  8.4100
 30
0.0
 0
VERTEX
 8
PARTS
 10
  7.0100
 20
  8.4100
 30
0.0
 0
SEQEND
 8
PARTS
 0
POLYLINE
 8
PARTS
 66
1
 10
0.0
 20
0.0
 30
0.0
 0
VERTEX
 8
PARTS
 10
  1.0000
 20
  8.5000
 30
0.0
 0
VERTEX
 8
PARTS
 10
  1.2000
 20
  8.5000
 30
0.0
 0
SEQEND
 8
PARTS
 0
POLYLINE
 8
PARTS
 66
1
 10
0.0
 20
0.0
 30
0.0
 0
VERTEX
 8
PARTS
 10
  1.0300
 20
  8.4700
 30
0.0
 0
VERTEX
 8
PARTS
 10
  1.1700
 20
  8.4700
 30
0.0
 0
SEQEND
 8
PARTS
 0
POLYLINE
 8
PARTS
 66
1
 10
0.0
 20
0.0
 30
0.0
 0
VERTEX
 8
PARTS
 10
  1.1400
 20
  8.4400
 30
0.0
 0
VERTEX
 8
PARTS
 10
  1.0600
 20
  8.4400
 30
0.0
 0
SEQEND
 8
PARTS
 0
POLYLINE
 8
PARTS
 66
1
 10
0.0
 20
0.0
 30
0.0
 0
VERTEX
 8
PARTS
 10
  1.0900
 20
  8.4100
 30
0.0
 0
VERTEX
 8
PARTS
 10
  1.1100
 20
  8.4100
 30
0.0
 0
SEQEND
 8
PARTS
 0
POLYLINE
 8
PARTS
 66
1
 10
0.0
 20
0.0
 30
0.0
 0
VERTEX
 8
PARTS
 10
  7.3000
 20
  8.5000
 30
0.0
 0
VERTEX
 8
PARTS
 10
  7.5000
 20
  8.5000
 30
0.0
 0
SEQEND
 8
PARTS
 0
POLYLINE
 8
PARTS
 66
1
 10
0.0
 20
0.0
 30
0.0
 0
VERTEX
 8
PARTS
 10
  7.3300
 20
  8.4700
 30
0.0
 0
VERTEX
 8
PARTS
 10
  7.4700
 20
  8.4700
 30
0.0
 0
SEQEND
 8
PARTS
 0
POLYLINE
 8
PARTS
 66
1
 10
0.0
 20
0.0
 30
0.0
 0
VERTEX
 8
PARTS
 10
  7.4400
 20
  8.4400
 30
0.0
 0
VERTEX
 8
PARTS
 10
  7.3600
 20
  8.4400
 30
0.0
 0
SEQEND
 8
PARTS
 0
POLYLINE
 8
PARTS
 66
1
 10
0.0
 20
0.0
 30
0.0
 0
VERTEX
 8
PARTS
 10
  7.3900
 20
  8.4100
 30
0.0
 0
VERTEX
 8
PARTS
 10
  7.4100
 20
  8.4100
 30
0.0
 0
SEQEND
 8
PARTS
 0
POLYLINE
 8
PARTS
 66
1
 10
0.0
 20
0.0
 30
0.0
 0
VERTEX
 8
PARTS
 10
  1.3000
 20
  4.2000
 30
0.0
 0
VERTEX
 8
PARTS
 10
  1.5000
 20
  4.2000
 30
0.0
 0
SEQEND
 8
PARTS
 0
POLYLINE
 8
PARTS
 66
1
 10
0.0
 20
0.0
 30
0.0
 0
VERTEX
 8
PARTS
 10
  1.3300
 20
  4.1700
 30
0.0
 0
VERTEX
 8
PARTS
 10
  1.4700
 20
  4.1700
 30
0.0
 0
SEQEND
 8
PARTS
 0
POLYLINE
 8
PARTS
 66
1
 10
0.0
 20
0.0
 30
0.0
 0
VERTEX
 8
PARTS
 10
  1.4400
 20
  4.1400
 30
0.0
 0
VERTEX
 8
PARTS
 10
  1.3600
 20
  4.1400
 30
0.0
 0
SEQEND
 8
PARTS
 0
POLYLINE
 8
PARTS
 66
1
 10
0.0
 20
0.0
 30
0.0
 0
VERTEX
 8
PARTS
 10
  1.3900
 20
  4.1100
 30
0.0
 0
VERTEX
 8
PARTS
 10
  1.4100
 20
  4.1100
 30
0.0
 0
SEQEND
 8
PARTS
 0
POLYLINE
 8
PARTS
 66
1
 10
0.0
 20
0.0
 30
0.0
 0
VERTEX
 8
PARTS
 10
  2.1000
 20
  4.2000
 30
0.0
 0
VERTEX
 8
PARTS
 10
  2.3000
 20
  4.2000
 30
0.0
 0
SEQEND
 8
PARTS
 0
POLYLINE
 8
PARTS
 66
1
 10
0.0
 20
0.0
 30
0.0
 0
VERTEX
 8
PARTS
 10
  2.1300
 20
  4.1700
 30
0.0
 0
VERTEX
 8
PARTS
 10
  2.2700
 20
  4.1700
 30
0.0
 0
SEQEND
 8
PARTS
 0
POLYLINE
 8
PARTS
 66
1
 10
0.0
 20
0.0
 30
0.0
 0
VERTEX
 8
PARTS
 10
  2.2400
 20
  4.1400
 30
0.0
 0
VERTEX
 8
PARTS
 10
  2.1600
 20
  4.1400
 30
0.0
 0
SEQEND
 8
PARTS
 0
POLYLINE
 8
PARTS
 66
1
 10
0.0
 20
0.0
 30
0.0
 0
VERTEX
 8
PARTS
 10
  2.1900
 20
  4.1100
 30
0.0
 0
VERTEX
 8
PARTS
 10
  2.2100
 20
  4.1100
 30
0.0
 0
SEQEND
 8
PARTS
 0
POLYLINE
 8
PARTS
 66
1
 10
0.0
 20
0.0
 30
0.0
 0
VERTEX
 8
PARTS
 10
  2.9000
 20
  4.2000
 30
0.0
 0
VERTEX
 8
PARTS
 10
  3.1000
 20
  4.2000
 30
0.0
 0
SEQEND
 8
PARTS
 0
POLYLINE
 8
PARTS
 66
1
 10
0.0
 20
0.0
 30
0.0
 0
VERTEX
 8
PARTS
 10
  2.9300
 20
  4.1700
 30
0.0
 0
VERTEX
 8
PARTS
 10
  3.0700
 20
  4.1700
 30
0.0
 0
SEQEND
 8
PARTS
 0
POLYLINE
 8
PARTS
 66
1
 10
0.0
 20
0.0
 30
0.0
 0
VERTEX
 8
PARTS
 10
  3.0400
 20
  4.1400
 30
0.0
 0
VERTEX
 8
PARTS
 10
  2.9600
 20
  4.1400
 30
0.0
 0
SEQEND
 8
PARTS
 0
POLYLINE
 8
PARTS
 66
1
 10
0.0
 20
0.0
 30
0.0
 0
VERTEX
 8
PARTS
 10
  2.9900
 20
  4.1100
 30
0.0
 0
VERTEX
 8
PARTS
 10
  3.0100
 20
  4.1100
 30
0.0
 0
SEQEND
 8
PARTS
 0
POLYLINE
 8
PARTS
 66
1
 10
0.0
 20
0.0
 30
0.0
 0
VERTEX
 8
PARTS
 10
  3.7000
 20
  4.2000
 30
0.0
 0
VERTEX
 8
PARTS
 10
  3.9000
 20
  4.2000
 30
0.0
 0
SEQEND
 8
PARTS
 0
POLYLINE
 8
PARTS
 66
1
 10
0.0
 20
0.0
 30
0.0
 0
VERTEX
 8
PARTS
 10
  3.7300
 20
  4.1700
 30
0.0
 0
VERTEX
 8
PARTS
 10
  3.8700
 20
  4.1700
 30
0.0
 0
SEQEND
 8
PARTS
 0
POLYLINE
 8
PARTS
 66
1
 10
0.0
 20
0.0
 30
0.0
 0
VERTEX
 8
PARTS
 10
  3.8400
 20
  4.1400
 30
0.0
 0
VERTEX
 8
PARTS
 10
  3.7600
 20
  4.1400
 30
0.0
 0
SEQEND
 8
PARTS
 0
POLYLINE
 8
PARTS
 66
1
 10
0.0
 20
0.0
 30
0.0
 0
VERTEX
 8
PARTS
 10
  3.7900
 20
  4.1100
 30
0.0
 0
VERTEX
 8
PARTS
 10
  3.8100
 20
  4.1100
 30
0.0
 0
SEQEND
 8
PARTS
 0
POLYLINE
 8
PARTS
 66
1
 10
0.0
 20
0.0
 30
0.0
 0
VERTEX
 8
PARTS
 10
  4.5000
 20
  4.2000
 30
0.0
 0
VERTEX
 8
PARTS
 10
  4.7000
 20
  4.2000
 30
0.0
 0
SEQEND
 8
PARTS
 0
POLYLINE
 8
PARTS
 66
1
 10
0.0
 20
0.0
 30
0.0
 0
VERTEX
 8
PARTS
 10
  4.5300
 20
  4.1700
 30
0.0
 0
VERTEX
 8
PARTS
 10
  4.6700
 20
  4.1700
 30
0.0
 0
SEQEND
 8
PARTS
 0
POLYLINE
 8
PARTS
 66
1
 10
0.0
 20
0.0
 30
0.0
 0
VERTEX
 8
PARTS
 10
  4.6400
 20
  4.1400
 30
0.0
 0
VERTEX
 8
PARTS
 10
  4.5600
 20
  4.1400
 30
0.0
 0
SEQEND
 8
PARTS
 0
POLYLINE
 8
PARTS
 66
1
 10
0.0
 20
0.0
 30
0.0
 0
VERTEX
 8
PARTS
 10
  4.5900
 20
  4.1100
 30
0.0
 0
VERTEX
 8
PARTS
 10
  4.6100
 20
  4.1100
 30
0.0
 0
SEQEND
 8
PARTS
 0
POLYLINE
 8
PARTS
 66
1
 10
0.0
 20
0.0
 30
0.0
 0
VERTEX
 8
PARTS
 10
  5.3000
 20
  4.2000
 30
0.0
 0
VERTEX
 8
PARTS
 10
  5.5000
 20
  4.2000
 30
0.0
 0
SEQEND
 8
PARTS
 0
POLYLINE
 8
PARTS
 66
1
 10
0.0
 20
0.0
 30
0.0
 0
VERTEX
 8
PARTS
 10
  5.3300
 20
  4.1700
 30
0.0
 0
VERTEX
 8
PARTS
 10
  5.4700
 20
  4.1700
 30
0.0
 0
SEQEND
 8
PARTS
 0
POLYLINE
 8
PARTS
 66
1
 10
0.0
 20
0.0
 30
0.0
 0
VERTEX
 8
PARTS
 10
  5.4400
 20
  4.1400
 30
0.0
 0
VERTEX
 8
PARTS
 10
  5.3600
 20
  4.1400
 30
0.0
 0
SEQEND
 8
PARTS
 0
POLYLINE
 8
PARTS
 66
1
 10
0.0
 20
0.0
 30
0.0
 0
VERTEX
 8
PARTS
 10
  5.3900
 20
  4.1100
 30
0.0
 0
VERTEX
 8
PARTS
 10
  5.4100
 20
  4.1100
 30
0.0
 0
SEQEND
 8
PARTS
 0
POLYLINE
 8
PARTS
 66
1
 10
0.0
 20
0.0
 30
0.0
 0
VERTEX
 8
PARTS
 10
  6.1000
 20
  4.2000
 30
0.0
 0
VERTEX
 8
PARTS
 10
  6.3000
 20
  4.2000
 30
0.0
 0
SEQEND
 8
PARTS
 0
POLYLINE
 8
PARTS
 66
1
 10
0.0
 20
0.0
 30
0.0
 0
VERTEX
 8
PARTS
 10
  6.1300
 20
  4.1700
 30
0.0
 0
VERTEX
 8
PARTS
 10
  6.2700
 20
  4.1700
 30
0.0
 0
SEQEND
 8
PARTS
 0
POLYLINE
 8
PARTS
 66
1
 10
0.0
 20
0.0
 30
0.0
 0
VERTEX
 8
PARTS
 10
  6.2400
 20
  4.1400
 30
0.0
 0
VERTEX
 8
PARTS
 10
  6.1600
 20
  4.1400
 30
0.0
 0
SEQEND
 8
PARTS
 0
POLYLINE
 8
PARTS
 66
1
 10
0.0
 20
0.0
 30
0.0
 0
VERTEX
 8
PARTS
 10
  6.1900
 20
  4.1100
 30
0.0
 0
VERTEX
 8
PARTS
 10
  6.2100
 20
  4.1100
 30
0.0
 0
SEQEND
 8
PARTS
 0
POLYLINE
 8
PARTS
 66
1
 10
0.0
 20
0.0
 30
0.0
 0
VERTEX
 8
PARTS
 10
  6.8000
 20
  4.3000
 30
0.0
 0
VERTEX
 8
PARTS
 10
  7.0000
 20
  4.3000
 30
0.0
 0
SEQEND
 8
PARTS
 0
POLYLINE
 8
PARTS
 66
1
 10
0.0
 20
0.0
 30
0.0
 0
VERTEX
 8
PARTS
 10
  6.8300
 20
  4.2700
 30
0.0
 0
VERTEX
 8
PARTS
 10
  6.9700
 20
  4.2700
 30
0.0
 0
SEQEND
 8
PARTS
 0
POLYLINE
 8
PARTS
 66
1
 10
0.0
 20
0.0
 30
0.0
 0
VERTEX
 8
PARTS
 10
  6.9400
 20
  4.2400
 30
0.0
 0
VERTEX
 8
PARTS
 10
  6.8600
 20
  4.2400
 30
0.0
 0
SEQEND
 8
PARTS
 0
POLYLINE
 8
PARTS
 66
1
 10
0.0
 20
0.0
 30
0.0
 0
VERTEX
 8
PARTS
 10
  6.8900
 20
  4.2100
 30
0.0
 0
VERTEX
 8
PARTS
 10
  6.9100
 20
  4.2100
 30
0.0
 0
SEQEND
 8
PARTS
 0
POLYLINE
 8
PARTS
 66
1
 10
0.0
 20
0.0
 30
0.0
 0
VERTEX
 8
PARTS
 10
  0.9000
 20
  4.3000
 30
0.0
 0
VERTEX
 8
PARTS
 10
  1.1000
 20
  4.3000
 30
0.0
 0
SEQEND
 8
PARTS
 0
POLYLINE
 8
PARTS
 66
1
 10
0.0
 20
0.0
 30
0.0
 0
VERTEX
 8
PARTS
 10
  0.9300
 20
  4.2700
 30
0.0
 0
VERTEX
 8
PARTS
 10
  1.0700
 20
  4.2700
 30
0.0
 0
SEQEND
 8
PARTS
 0
POLYLINE
 8
PARTS
 66
1
 10
0.0
 20
0.0
 30
0.0
 0
VERTEX
 8
PARTS
 10
  1.0400
 20
  4.2400
 30
0.0
 0
VERTEX
 8
PARTS
 10
  0.9600
 20
  4.2400
 30
0.0
 0
SEQEND
 8
PARTS
 0
POLYLINE
 8
PARTS
 66
1
 10
0.0
 20
0.0
 30
0.0
 0
VERTEX
 8
PARTS
 10
  0.9900
 20
  4.2100
 30
0.0
 0
VERTEX
 8
PARTS
 10
  1.0100
 20
  4.2100
 30
0.0
 0
SEQEND
 8
PARTS
 0
POLYLINE
 8
PARTS
 66
1
 10
0.0
 20
0.0
 30
0.0
 0
VERTEX
 8
PARTS
 10
  7.2000
 20
  4.3000
 30
0.0
 0
VERTEX
 8
PARTS
 10
  7.4000
 20
  4.3000
 30
0.0
 0
SEQEND
 8
PARTS
 0
POLYLINE
 8
PARTS
 66
1
 10
0.0
 20
0.0
 30
0.0
 0
VERTEX
 8
PARTS
 10
  7.2300
 20
  4.2700
 30
0.0
 0
VERTEX
 8
PARTS
 10
  7.3700
 20
  4.2700
 30
0.0
 0
SEQEND
 8
PARTS
 0
POLYLINE
 8
PARTS
 66
1
 10
0.0
 20
0.0
 30
0.0
 0
VERTEX
 8
PARTS
 10
  7.3400
 20
  4.2400
 30
0.0
 0
VERTEX
 8
PARTS
 10
  7.2600
 20
  4.2400
 30
0.0
 0
SEQEND
 8
PARTS
 0
POLYLINE
 8
PARTS
 66
1
 10
0.0
 20
0.0
 30
0.0
 0
VERTEX
 8
PARTS
 10
  7.2900
 20
  4.2100
 30
0.0
 0
VERTEX
 8
PARTS
 10
  7.3100
 20
  4.2100
 30
0.0
 0
SEQEND
 8
PARTS
 0
TEXT
 8
PARTTEXT
 10
  9.2400
 20
  1.0186
 30
0.0
 40
  0.0514
 1
5V
 0
POLYLINE
 8
PARTS
 66
1
 10
0.0
 20
0.0
 30
0.0
 0
VERTEX
 8
PARTS
 10
  9.3000
 20
  0.9400
 30
0.0
 0
VERTEX
 8
PARTS
 10
  9.3000
 20
  0.9000
 30
0.0
 0
SEQEND
 8
PARTS
 0
POLYLINE
 8
PARTS
 66
1
 70
1
 10
0.0
 20
0.0
 30
0.0
 0
VERTEX
 8
PARTS
 10
  9.3300
 20
  0.9700
 30
0.0
 42
  0.0985
 0
VERTEX
 8
PARTS
 10
  9.3277
 20
  0.9815
 30
0.0
 42
  0.0985
 0
VERTEX
 8
PARTS
 10
  9.3212
 20
  0.9912
 30
0.0
 42
  0.0985
 0
VERTEX
 8
PARTS
 10
  9.3115
 20
  0.9977
 30
0.0
 42
  0.0985
 0
VERTEX
 8
PARTS
 10
  9.3000
 20
  1.0000
 30
0.0
 42
  0.0985
 0
VERTEX
 8
PARTS
 10
  9.2885
 20
  0.9977
 30
0.0
 42
  0.0985
 0
VERTEX
 8
PARTS
 10
  9.2788
 20
  0.9912
 30
0.0
 42
  0.0985
 0
VERTEX
 8
PARTS
 10
  9.2723
 20
  0.9815
 30
0.0
 42
  0.0985
 0
VERTEX
 8
PARTS
 10
  9.2700
 20
  0.9700
 30
0.0
 42
  0.0985
 0
VERTEX
 8
PARTS
 10
  9.2723
 20
  0.9585
 30
0.0
 42
  0.0985
 0
VERTEX
 8
PARTS
 10
  9.2788
 20
  0.9488
 30
0.0
 42
  0.0985
 0
VERTEX
 8
PARTS
 10
  9.2885
 20
  0.9423
 30
0.0
 42
  0.0985
 0
VERTEX
 8
PARTS
 10
  9.3000
 20
  0.9400
 30
0.0
 42
  0.0985
 0
VERTEX
 8
PARTS
 10
  9.3115
 20
  0.9423
 30
0.0
 42
  0.0985
 0
VERTEX
 8
PARTS
 10
  9.3212
 20
  0.9488
 30
0.0
 42
  0.0985
 0
VERTEX
 8
PARTS
 10
  9.3277
 20
  0.9585
 30
0.0
 42
  0.0985
 0
SEQEND
 8
PARTS
 0
TEXT
 8
PARTTEXT
 10
 10.5900
 20
  1.0186
 30
0.0
 40
  0.0514
 1
-5.2V
 0
POLYLINE
 8
PARTS
 66
1
 10
0.0
 20
0.0
 30
0.0
 0
VERTEX
 8
PARTS
 10
 10.7000
 20
  0.9400
 30
0.0
 0
VERTEX
 8
PARTS
 10
 10.7000
 20
  0.9000
 30
0.0
 0
SEQEND
 8
PARTS
 0
POLYLINE
 8
PARTS
 66
1
 70
1
 10
0.0
 20
0.0
 30
0.0
 0
VERTEX
 8
PARTS
 10
 10.7300
 20
  0.9700
 30
0.0
 42
  0.0985
 0
VERTEX
 8
PARTS
 10
 10.7277
 20
  0.9815
 30
0.0
 42
  0.0985
 0
VERTEX
 8
PARTS
 10
 10.7212
 20
  0.9912
 30
0.0
 42
  0.0985
 0
VERTEX
 8
PARTS
 10
 10.7115
 20
  0.9977
 30
0.0
 42
  0.0985
 0
VERTEX
 8
PARTS
 10
 10.7000
 20
  1.0000
 30
0.0
 42
  0.0985
 0
VERTEX
 8
PARTS
 10
 10.6885
 20
  0.9977
 30
0.0
 42
  0.0985
 0
VERTEX
 8
PARTS
 10
 10.6788
 20
  0.9912
 30
0.0
 42
  0.0985
 0
VERTEX
 8
PARTS
 10
 10.6723
 20
  0.9815
 30
0.0
 42
  0.0985
 0
VERTEX
 8
PARTS
 10
 10.6700
 20
  0.9700
 30
0.0
 42
  0.0985
 0
VERTEX
 8
PARTS
 10
 10.6723
 20
  0.9585
 30
0.0
 42
  0.0985
 0
VERTEX
 8
PARTS
 10
 10.6788
 20
  0.9488
 30
0.0
 42
  0.0985
 0
VERTEX
 8
PARTS
 10
 10.6885
 20
  0.9423
 30
0.0
 42
  0.0985
 0
VERTEX
 8
PARTS
 10
 10.7000
 20
  0.9400
 30
0.0
 42
  0.0985
 0
VERTEX
 8
PARTS
 10
 10.7115
 20
  0.9423
 30
0.0
 42
  0.0985
 0
VERTEX
 8
PARTS
 10
 10.7212
 20
  0.9488
 30
0.0
 42
  0.0985
 0
VERTEX
 8
PARTS
 10
 10.7277
 20
  0.9585
 30
0.0
 42
  0.0985
 0
SEQEND
 8
PARTS
 0
TEXT
 8
PARTTEXT
 10
  9.7400
 20
  5.2186
 30
0.0
 40
  0.0514
 1
5V
 0
POLYLINE
 8
PARTS
 66
1
 10
0.0
 20
0.0
 30
0.0
 0
VERTEX
 8
PARTS
 10
  9.8000
 20
  5.1400
 30
0.0
 0
VERTEX
 8
PARTS
 10
  9.8000
 20
  5.1000
 30
0.0
 0
SEQEND
 8
PARTS
 0
POLYLINE
 8
PARTS
 66
1
 70
1
 10
0.0
 20
0.0
 30
0.0
 0
VERTEX
 8
PARTS
 10
  9.8300
 20
  5.1700
 30
0.0
 42
  0.0985
 0
VERTEX
 8
PARTS
 10
  9.8277
 20
  5.1815
 30
0.0
 42
  0.0985
 0
VERTEX
 8
PARTS
 10
  9.8212
 20
  5.1912
 30
0.0
 42
  0.0985
 0
VERTEX
 8
PARTS
 10
  9.8115
 20
  5.1977
 30
0.0
 42
  0.0985
 0
VERTEX
 8
PARTS
 10
  9.8000
 20
  5.2000
 30
0.0
 42
  0.0985
 0
VERTEX
 8
PARTS
 10
  9.7885
 20
  5.1977
 30
0.0
 42
  0.0985
 0
VERTEX
 8
PARTS
 10
  9.7788
 20
  5.1912
 30
0.0
 42
  0.0985
 0
VERTEX
 8
PARTS
 10
  9.7723
 20
  5.1815
 30
0.0
 42
  0.0985
 0
VERTEX
 8
PARTS
 10
  9.7700
 20
  5.1700
 30
0.0
 42
  0.0985
 0
VERTEX
 8
PARTS
 10
  9.7723
 20
  5.1585
 30
0.0
 42
  0.0985
 0
VERTEX
 8
PARTS
 10
  9.7788
 20
  5.1488
 30
0.0
 42
  0.0985
 0
VERTEX
 8
PARTS
 10
  9.7885
 20
  5.1423
 30
0.0
 42
  0.0985
 0
VERTEX
 8
PARTS
 10
  9.8000
 20
  5.1400
 30
0.0
 42
  0.0985
 0
VERTEX
 8
PARTS
 10
  9.8115
 20
  5.1423
 30
0.0
 42
  0.0985
 0
VERTEX
 8
PARTS
 10
  9.8212
 20
  5.1488
 30
0.0
 42
  0.0985
 0
VERTEX
 8
PARTS
 10
  9.8277
 20
  5.1585
 30
0.0
 42
  0.0985
 0
SEQEND
 8
PARTS
 0
TEXT
 8
PARTTEXT
 10
  8.1900
 20
  4.2186
 30
0.0
 40
  0.0514
 1
-5.2V
 0
POLYLINE
 8
PARTS
 66
1
 10
0.0
 20
0.0
 30
0.0
 0
VERTEX
 8
PARTS
 10
  8.3000
 20
  4.1400
 30
0.0
 0
VERTEX
 8
PARTS
 10
  8.3000
 20
  4.1000
 30
0.0
 0
SEQEND
 8
PARTS
 0
POLYLINE
 8
PARTS
 66
1
 70
1
 10
0.0
 20
0.0
 30
0.0
 0
VERTEX
 8
PARTS
 10
  8.3300
 20
  4.1700
 30
0.0
 42
  0.0985
 0
VERTEX
 8
PARTS
 10
  8.3277
 20
  4.1815
 30
0.0
 42
  0.0985
 0
VERTEX
 8
PARTS
 10
  8.3212
 20
  4.1912
 30
0.0
 42
  0.0985
 0
VERTEX
 8
PARTS
 10
  8.3115
 20
  4.1977
 30
0.0
 42
  0.0985
 0
VERTEX
 8
PARTS
 10
  8.3000
 20
  4.2000
 30
0.0
 42
  0.0985
 0
VERTEX
 8
PARTS
 10
  8.2885
 20
  4.1977
 30
0.0
 42
  0.0985
 0
VERTEX
 8
PARTS
 10
  8.2788
 20
  4.1912
 30
0.0
 42
  0.0985
 0
VERTEX
 8
PARTS
 10
  8.2723
 20
  4.1815
 30
0.0
 42
  0.0985
 0
VERTEX
 8
PARTS
 10
  8.2700
 20
  4.1700
 30
0.0
 42
  0.0985
 0
VERTEX
 8
PARTS
 10
  8.2723
 20
  4.1585
 30
0.0
 42
  0.0985
 0
VERTEX
 8
PARTS
 10
  8.2788
 20
  4.1488
 30
0.0
 42
  0.0985
 0
VERTEX
 8
PARTS
 10
  8.2885
 20
  4.1423
 30
0.0
 42
  0.0985
 0
VERTEX
 8
PARTS
 10
  8.3000
 20
  4.1400
 30
0.0
 42
  0.0985
 0
VERTEX
 8
PARTS
 10
  8.3115
 20
  4.1423
 30
0.0
 42
  0.0985
 0
VERTEX
 8
PARTS
 10
  8.3212
 20
  4.1488
 30
0.0
 42
  0.0985
 0
VERTEX
 8
PARTS
 10
  8.3277
 20
  4.1585
 30
0.0
 42
  0.0985
 0
SEQEND
 8
PARTS
 0
TEXT
 8
PARTTEXT
 10
  9.7400
 20
  3.3186
 30
0.0
 40
  0.0514
 1
5V
 0
POLYLINE
 8
PARTS
 66
1
 10
0.0
 20
0.0
 30
0.0
 0
VERTEX
 8
PARTS
 10
  9.8000
 20
  3.2400
 30
0.0
 0
VERTEX
 8
PARTS
 10
  9.8000
 20
  3.2000
 30
0.0
 0
SEQEND
 8
PARTS
 0
POLYLINE
 8
PARTS
 66
1
 70
1
 10
0.0
 20
0.0
 30
0.0
 0
VERTEX
 8
PARTS
 10
  9.8300
 20
  3.2700
 30
0.0
 42
  0.0985
 0
VERTEX
 8
PARTS
 10
  9.8277
 20
  3.2815
 30
0.0
 42
  0.0985
 0
VERTEX
 8
PARTS
 10
  9.8212
 20
  3.2912
 30
0.0
 42
  0.0985
 0
VERTEX
 8
PARTS
 10
  9.8115
 20
  3.2977
 30
0.0
 42
  0.0985
 0
VERTEX
 8
PARTS
 10
  9.8000
 20
  3.3000
 30
0.0
 42
  0.0985
 0
VERTEX
 8
PARTS
 10
  9.7885
 20
  3.2977
 30
0.0
 42
  0.0985
 0
VERTEX
 8
PARTS
 10
  9.7788
 20
  3.2912
 30
0.0
 42
  0.0985
 0
VERTEX
 8
PARTS
 10
  9.7723
 20
  3.2815
 30
0.0
 42
  0.0985
 0
VERTEX
 8
PARTS
 10
  9.7700
 20
  3.2700
 30
0.0
 42
  0.0985
 0
VERTEX
 8
PARTS
 10
  9.7723
 20
  3.2585
 30
0.0
 42
  0.0985
 0
VERTEX
 8
PARTS
 10
  9.7788
 20
  3.2488
 30
0.0
 42
  0.0985
 0
VERTEX
 8
PARTS
 10
  9.7885
 20
  3.2423
 30
0.0
 42
  0.0985
 0
VERTEX
 8
PARTS
 10
  9.8000
 20
  3.2400
 30
0.0
 42
  0.0985
 0
VERTEX
 8
PARTS
 10
  9.8115
 20
  3.2423
 30
0.0
 42
  0.0985
 0
VERTEX
 8
PARTS
 10
  9.8212
 20
  3.2488
 30
0.0
 42
  0.0985
 0
VERTEX
 8
PARTS
 10
  9.8277
 20
  3.2585
 30
0.0
 42
  0.0985
 0
SEQEND
 8
PARTS
 0
TEXT
 8
PARTTEXT
 10
  9.0400
 20
  9.4186
 30
0.0
 40
  0.0514
 1
5V
 0
POLYLINE
 8
PARTS
 66
1
 10
0.0
 20
0.0
 30
0.0
 0
VERTEX
 8
PARTS
 10
  9.1000
 20
  9.3400
 30
0.0
 0
VERTEX
 8
PARTS
 10
  9.1000
 20
  9.3000
 30
0.0
 0
SEQEND
 8
PARTS
 0
POLYLINE
 8
PARTS
 66
1
 70
1
 10
0.0
 20
0.0
 30
0.0
 0
VERTEX
 8
PARTS
 10
  9.1300
 20
  9.3700
 30
0.0
 42
  0.0985
 0
VERTEX
 8
PARTS
 10
  9.1277
 20
  9.3815
 30
0.0
 42
  0.0985
 0
VERTEX
 8
PARTS
 10
  9.1212
 20
  9.3912
 30
0.0
 42
  0.0985
 0
VERTEX
 8
PARTS
 10
  9.1115
 20
  9.3977
 30
0.0
 42
  0.0985
 0
VERTEX
 8
PARTS
 10
  9.1000
 20
  9.4000
 30
0.0
 42
  0.0985
 0
VERTEX
 8
PARTS
 10
  9.0885
 20
  9.3977
 30
0.0
 42
  0.0985
 0
VERTEX
 8
PARTS
 10
  9.0788
 20
  9.3912
 30
0.0
 42
  0.0985
 0
VERTEX
 8
PARTS
 10
  9.0723
 20
  9.3815
 30
0.0
 42
  0.0985
 0
VERTEX
 8
PARTS
 10
  9.0700
 20
  9.3700
 30
0.0
 42
  0.0985
 0
VERTEX
 8
PARTS
 10
  9.0723
 20
  9.3585
 30
0.0
 42
  0.0985
 0
VERTEX
 8
PARTS
 10
  9.0788
 20
  9.3488
 30
0.0
 42
  0.0985
 0
VERTEX
 8
PARTS
 10
  9.0885
 20
  9.3423
 30
0.0
 42
  0.0985
 0
VERTEX
 8
PARTS
 10
  9.1000
 20
  9.3400
 30
0.0
 42
  0.0985
 0
VERTEX
 8
PARTS
 10
  9.1115
 20
  9.3423
 30
0.0
 42
  0.0985
 0
VERTEX
 8
PARTS
 10
  9.1212
 20
  9.3488
 30
0.0
 42
  0.0985
 0
VERTEX
 8
PARTS
 10
  9.1277
 20
  9.3585
 30
0.0
 42
  0.0985
 0
SEQEND
 8
PARTS
 0
TEXT
 8
PARTTEXT
 10
  9.0400
 20
  7.5186
 30
0.0
 40
  0.0514
 1
5V
 0
POLYLINE
 8
PARTS
 66
1
 10
0.0
 20
0.0
 30
0.0
 0
VERTEX
 8
PARTS
 10
  9.1000
 20
  7.4400
 30
0.0
 0
VERTEX
 8
PARTS
 10
  9.1000
 20
  7.4000
 30
0.0
 0
SEQEND
 8
PARTS
 0
POLYLINE
 8
PARTS
 66
1
 70
1
 10
0.0
 20
0.0
 30
0.0
 0
VERTEX
 8
PARTS
 10
  9.1300
 20
  7.4700
 30
0.0
 42
  0.0985
 0
VERTEX
 8
PARTS
 10
  9.1277
 20
  7.4815
 30
0.0
 42
  0.0985
 0
VERTEX
 8
PARTS
 10
  9.1212
 20
  7.4912
 30
0.0
 42
  0.0985
 0
VERTEX
 8
PARTS
 10
  9.1115
 20
  7.4977
 30
0.0
 42
  0.0985
 0
VERTEX
 8
PARTS
 10
  9.1000
 20
  7.5000
 30
0.0
 42
  0.0985
 0
VERTEX
 8
PARTS
 10
  9.0885
 20
  7.4977
 30
0.0
 42
  0.0985
 0
VERTEX
 8
PARTS
 10
  9.0788
 20
  7.4912
 30
0.0
 42
  0.0985
 0
VERTEX
 8
PARTS
 10
  9.0723
 20
  7.4815
 30
0.0
 42
  0.0985
 0
VERTEX
 8
PARTS
 10
  9.0700
 20
  7.4700
 30
0.0
 42
  0.0985
 0
VERTEX
 8
PARTS
 10
  9.0723
 20
  7.4585
 30
0.0
 42
  0.0985
 0
VERTEX
 8
PARTS
 10
  9.0788
 20
  7.4488
 30
0.0
 42
  0.0985
 0
VERTEX
 8
PARTS
 10
  9.0885
 20
  7.4423
 30
0.0
 42
  0.0985
 0
VERTEX
 8
PARTS
 10
  9.1000
 20
  7.4400
 30
0.0
 42
  0.0985
 0
VERTEX
 8
PARTS
 10
  9.1115
 20
  7.4423
 30
0.0
 42
  0.0985
 0
VERTEX
 8
PARTS
 10
  9.1212
 20
  7.4488
 30
0.0
 42
  0.0985
 0
VERTEX
 8
PARTS
 10
  9.1277
 20
  7.4585
 30
0.0
 42
  0.0985
 0
SEQEND
 8
PARTS
 0
TEXT
 8
PARTTEXT
 10
  9.6900
 20
  3.9186
 30
0.0
 40
  0.0514
 1
-5.2V
 0
POLYLINE
 8
PARTS
 66
1
 10
0.0
 20
0.0
 30
0.0
 0
VERTEX
 8
PARTS
 10
  9.8000
 20
  4.0600
 30
0.0
 0
VERTEX
 8
PARTS
 10
  9.8000
 20
  4.1000
 30
0.0
 0
SEQEND
 8
PARTS
 0
POLYLINE
 8
PARTS
 66
1
 70
1
 10
0.0
 20
0.0
 30
0.0
 0
VERTEX
 8
PARTS
 10
  9.8300
 20
  4.0300
 30
0.0
 42
  0.0985
 0
VERTEX
 8
PARTS
 10
  9.8277
 20
  4.0415
 30
0.0
 42
  0.0985
 0
VERTEX
 8
PARTS
 10
  9.8212
 20
  4.0512
 30
0.0
 42
  0.0985
 0
VERTEX
 8
PARTS
 10
  9.8115
 20
  4.0577
 30
0.0
 42
  0.0985
 0
VERTEX
 8
PARTS
 10
  9.8000
 20
  4.0600
 30
0.0
 42
  0.0985
 0
VERTEX
 8
PARTS
 10
  9.7885
 20
  4.0577
 30
0.0
 42
  0.0985
 0
VERTEX
 8
PARTS
 10
  9.7788
 20
  4.0512
 30
0.0
 42
  0.0985
 0
VERTEX
 8
PARTS
 10
  9.7723
 20
  4.0415
 30
0.0
 42
  0.0985
 0
VERTEX
 8
PARTS
 10
  9.7700
 20
  4.0300
 30
0.0
 42
  0.0985
 0
VERTEX
 8
PARTS
 10
  9.7723
 20
  4.0185
 30
0.0
 42
  0.0985
 0
VERTEX
 8
PARTS
 10
  9.7788
 20
  4.0088
 30
0.0
 42
  0.0985
 0
VERTEX
 8
PARTS
 10
  9.7885
 20
  4.0023
 30
0.0
 42
  0.0985
 0
VERTEX
 8
PARTS
 10
  9.8000
 20
  4.0000
 30
0.0
 42
  0.0985
 0
VERTEX
 8
PARTS
 10
  9.8115
 20
  4.0023
 30
0.0
 42
  0.0985
 0
VERTEX
 8
PARTS
 10
  9.8212
 20
  4.0088
 30
0.0
 42
  0.0985
 0
VERTEX
 8
PARTS
 10
  9.8277
 20
  4.0185
 30
0.0
 42
  0.0985
 0
SEQEND
 8
PARTS
 0
TEXT
 8
PARTTEXT
 10
  9.6900
 20
  2.0186
 30
0.0
 40
  0.0514
 1
-5.2V
 0
POLYLINE
 8
PARTS
 66
1
 10
0.0
 20
0.0
 30
0.0
 0
VERTEX
 8
PARTS
 10
  9.8000
 20
  2.1600
 30
0.0
 0
VERTEX
 8
PARTS
 10
  9.8000
 20
  2.2000
 30
0.0
 0
SEQEND
 8
PARTS
 0
POLYLINE
 8
PARTS
 66
1
 70
1
 10
0.0
 20
0.0
 30
0.0
 0
VERTEX
 8
PARTS
 10
  9.8300
 20
  2.1300
 30
0.0
 42
  0.0985
 0
VERTEX
 8
PARTS
 10
  9.8277
 20
  2.1415
 30
0.0
 42
  0.0985
 0
VERTEX
 8
PARTS
 10
  9.8212
 20
  2.1512
 30
0.0
 42
  0.0985
 0
VERTEX
 8
PARTS
 10
  9.8115
 20
  2.1577
 30
0.0
 42
  0.0985
 0
VERTEX
 8
PARTS
 10
  9.8000
 20
  2.1600
 30
0.0
 42
  0.0985
 0
VERTEX
 8
PARTS
 10
  9.7885
 20
  2.1577
 30
0.0
 42
  0.0985
 0
VERTEX
 8
PARTS
 10
  9.7788
 20
  2.1512
 30
0.0
 42
  0.0985
 0
VERTEX
 8
PARTS
 10
  9.7723
 20
  2.1415
 30
0.0
 42
  0.0985
 0
VERTEX
 8
PARTS
 10
  9.7700
 20
  2.1300
 30
0.0
 42
  0.0985
 0
VERTEX
 8
PARTS
 10
  9.7723
 20
  2.1185
 30
0.0
 42
  0.0985
 0
VERTEX
 8
PARTS
 10
  9.7788
 20
  2.1088
 30
0.0
 42
  0.0985
 0
VERTEX
 8
PARTS
 10
  9.7885
 20
  2.1023
 30
0.0
 42
  0.0985
 0
VERTEX
 8
PARTS
 10
  9.8000
 20
  2.1000
 30
0.0
 42
  0.0985
 0
VERTEX
 8
PARTS
 10
  9.8115
 20
  2.1023
 30
0.0
 42
  0.0985
 0
VERTEX
 8
PARTS
 10
  9.8212
 20
  2.1088
 30
0.0
 42
  0.0985
 0
VERTEX
 8
PARTS
 10
  9.8277
 20
  2.1185
 30
0.0
 42
  0.0985
 0
SEQEND
 8
PARTS
 0
TEXT
 8
PARTTEXT
 10
  8.9900
 20
  8.1186
 30
0.0
 40
  0.0514
 1
-5.2V
 0
POLYLINE
 8
PARTS
 66
1
 10
0.0
 20
0.0
 30
0.0
 0
VERTEX
 8
PARTS
 10
  9.1000
 20
  8.2600
 30
0.0
 0
VERTEX
 8
PARTS
 10
  9.1000
 20
  8.3000
 30
0.0
 0
SEQEND
 8
PARTS
 0
POLYLINE
 8
PARTS
 66
1
 70
1
 10
0.0
 20
0.0
 30
0.0
 0
VERTEX
 8
PARTS
 10
  9.1300
 20
  8.2300
 30
0.0
 42
  0.0985
 0
VERTEX
 8
PARTS
 10
  9.1277
 20
  8.2415
 30
0.0
 42
  0.0985
 0
VERTEX
 8
PARTS
 10
  9.1212
 20
  8.2512
 30
0.0
 42
  0.0985
 0
VERTEX
 8
PARTS
 10
  9.1115
 20
  8.2577
 30
0.0
 42
  0.0985
 0
VERTEX
 8
PARTS
 10
  9.1000
 20
  8.2600
 30
0.0
 42
  0.0985
 0
VERTEX
 8
PARTS
 10
  9.0885
 20
  8.2577
 30
0.0
 42
  0.0985
 0
VERTEX
 8
PARTS
 10
  9.0788
 20
  8.2512
 30
0.0
 42
  0.0985
 0
VERTEX
 8
PARTS
 10
  9.0723
 20
  8.2415
 30
0.0
 42
  0.0985
 0
VERTEX
 8
PARTS
 10
  9.0700
 20
  8.2300
 30
0.0
 42
  0.0985
 0
VERTEX
 8
PARTS
 10
  9.0723
 20
  8.2185
 30
0.0
 42
  0.0985
 0
VERTEX
 8
PARTS
 10
  9.0788
 20
  8.2088
 30
0.0
 42
  0.0985
 0
VERTEX
 8
PARTS
 10
  9.0885
 20
  8.2023
 30
0.0
 42
  0.0985
 0
VERTEX
 8
PARTS
 10
  9.1000
 20
  8.2000
 30
0.0
 42
  0.0985
 0
VERTEX
 8
PARTS
 10
  9.1115
 20
  8.2023
 30
0.0
 42
  0.0985
 0
VERTEX
 8
PARTS
 10
  9.1212
 20
  8.2088
 30
0.0
 42
  0.0985
 0
VERTEX
 8
PARTS
 10
  9.1277
 20
  8.2185
 30
0.0
 42
  0.0985
 0
SEQEND
 8
PARTS
 0
TEXT
 8
PARTTEXT
 10
  8.9900
 20
  6.2186
 30
0.0
 40
  0.0514
 1
-5.2V
 0
POLYLINE
 8
PARTS
 66
1
 10
0.0
 20
0.0
 30
0.0
 0
VERTEX
 8
PARTS
 10
  9.1000
 20
  6.3600
 30
0.0
 0
VERTEX
 8
PARTS
 10
  9.1000
 20
  6.4000
 30
0.0
 0
SEQEND
 8
PARTS
 0
POLYLINE
 8
PARTS
 66
1
 70
1
 10
0.0
 20
0.0
 30
0.0
 0
VERTEX
 8
PARTS
 10
  9.1300
 20
  6.3300
 30
0.0
 42
  0.0985
 0
VERTEX
 8
PARTS
 10
  9.1277
 20
  6.3415
 30
0.0
 42
  0.0985
 0
VERTEX
 8
PARTS
 10
  9.1212
 20
  6.3512
 30
0.0
 42
  0.0985
 0
VERTEX
 8
PARTS
 10
  9.1115
 20
  6.3577
 30
0.0
 42
  0.0985
 0
VERTEX
 8
PARTS
 10
  9.1000
 20
  6.3600
 30
0.0
 42
  0.0985
 0
VERTEX
 8
PARTS
 10
  9.0885
 20
  6.3577
 30
0.0
 42
  0.0985
 0
VERTEX
 8
PARTS
 10
  9.0788
 20
  6.3512
 30
0.0
 42
  0.0985
 0
VERTEX
 8
PARTS
 10
  9.0723
 20
  6.3415
 30
0.0
 42
  0.0985
 0
VERTEX
 8
PARTS
 10
  9.0700
 20
  6.3300
 30
0.0
 42
  0.0985
 0
VERTEX
 8
PARTS
 10
  9.0723
 20
  6.3185
 30
0.0
 42
  0.0985
 0
VERTEX
 8
PARTS
 10
  9.0788
 20
  6.3088
 30
0.0
 42
  0.0985
 0
VERTEX
 8
PARTS
 10
  9.0885
 20
  6.3023
 30
0.0
 42
  0.0985
 0
VERTEX
 8
PARTS
 10
  9.1000
 20
  6.3000
 30
0.0
 42
  0.0985
 0
VERTEX
 8
PARTS
 10
  9.1115
 20
  6.3023
 30
0.0
 42
  0.0985
 0
VERTEX
 8
PARTS
 10
  9.1212
 20
  6.3088
 30
0.0
 42
  0.0985
 0
VERTEX
 8
PARTS
 10
  9.1277
 20
  6.3185
 30
0.0
 42
  0.0985
 0
SEQEND
 8
PARTS
 0
TEXT
 8
COMMENTS
 10
 10.6000
 20
  8.8186
 30
0.0
 40
  0.0514
 1
Synth 2 (FP)
 0
TEXT
 8
COMMENTS
 10
 11.3000
 20
  4.6186
 30
0.0
 40
  0.0514
 1
Synth 1 (FP)
 0
TEXT
 8
COMMENTS
 10
 11.3000
 20
  2.7186
 30
0.0
 40
  0.0514
 1
Synth 1 (RP)
 0
TEXT
 8
COMMENTS
 10
  0.4000
 20
  8.9186
 30
0.0
 40
  0.0514
 1
Synth 2
 0
TEXT
 8
COMMENTS
 10
 10.6000
 20
  6.9186
 30
0.0
 40
  0.0514
 1
Synth 2 (RP)
 0
TEXT
 8
COMMENTS
 10
  2.7000
 20
  9.4186
 30
0.0
 40
  0.0514
 1
0.5dB Tchebyscheff LP Filter
 0
TEXT
 8
COMMENTS
 10
  2.7000
 20
  9.3186
 30
0.0
 40
  0.0514
 1
22.5 MHz, Zin=Zout=50 ohms
 0
TEXT
 8
COMMENTS
 10
  0.3000
 20
  4.7186
 30
0.0
 40
  0.0514
 1
Synth 1
 0
TEXT
 8
COMMENTS
 10
  2.9000
 20
  5.2186
 30
0.0
 40
  0.0514
 1
0.5dB Tchebyscheff LP Filter
 0
TEXT
 8
COMMENTS
 10
  2.9000
 20
  5.1186
 30
0.0
 40
  0.0514
 1
22.5 MHz, Zin=50 ohms, Zout=high impedance
 0
TEXT
 8
COMMENTS
 10
  0.2000
 20
  4.8186
 30
0.0
 40
  0.0514
 1
(DC coupled)
 0
TEXT
 8
COMMENTS
 10
  0.3000
 20
  9.0186
 30
0.0
 40
  0.0514
 1
(AC coupled)
 0
TEXT
 8
COMMENTS
 10
 10.6000
 20
  8.6186
 30
0.0
 40
  0.0514
 1
9-13dBM
 0
TEXT
 8
COMMENTS
 10
 10.6000
 20
  6.7186
 30
0.0
 40
  0.0514
 1
9-13dBM
 0
TEXT
 8
COMMENTS
 10
 11.3000
 20
  4.4186
 30
0.0
 40
  0.0514
 1
9-13dBM
 0
TEXT
 8
COMMENTS
 10
 11.3000
 20
  2.5186
 30
0.0
 40
  0.0514
 1
9-13dBM
 0
ENDSEC
 0
EOF
