 0
SECTION
 2
HEADER
 9
$ACADVER
 1
AC1009
 0
ENDSEC
 0
SECTION
 2
ENTITIES
 0
POLYLINE
 8
TITLE
 66
1
 70
1
 10
0.0
 20
0.0
 30
0.0
 0
VERTEX
 8
TITLE
 10
 -0.1000
 20
  0.1000
 30
0.0
 0
VERTEX
 8
TITLE
 10
 15.1000
 20
  0.1000
 30
0.0
 0
VERTEX
 8
TITLE
 10
 15.1000
 20
  9.8000
 30
0.0
 0
VERTEX
 8
TITLE
 10
 -0.1000
 20
  9.8000
 30
0.0
 0
SEQEND
 8
TITLE
 0
POLYLINE
 8
TITLE
 66
1
 70
1
 10
0.0
 20
0.0
 30
0.0
 0
VERTEX
 8
TITLE
 10
  0.0000
 20
  0.2000
 30
0.0
 0
VERTEX
 8
TITLE
 10
 15.0000
 20
  0.2000
 30
0.0
 0
VERTEX
 8
TITLE
 10
 15.0000
 20
  9.7000
 30
0.0
 0
VERTEX
 8
TITLE
 10
  0.0000
 20
  9.7000
 30
0.0
 0
SEQEND
 8
TITLE
 0
POLYLINE
 8
TITLE
 66
1
 10
0.0
 20
0.0
 30
0.0
 0
VERTEX
 8
TITLE
 10
  2.0500
 20
  0.2000
 30
0.0
 0
VERTEX
 8
TITLE
 10
  2.0500
 20
  0.1000
 30
0.0
 0
SEQEND
 8
TITLE
 0
POLYLINE
 8
TITLE
 66
1
 10
0.0
 20
0.0
 30
0.0
 0
VERTEX
 8
TITLE
 10
  2.0500
 20
  9.7000
 30
0.0
 0
VERTEX
 8
TITLE
 10
  2.0500
 20
  9.8000
 30
0.0
 0
SEQEND
 8
TITLE
 0
SOLID
 8
TITLE
 10
  7.6000
 20
  0.2000
 30
0.0
 11
  7.5800
 21
  0.1500
 31
0.0
 12
  7.6200
 22
  0.1500
 32
0.0
 13
  7.6000
 23
  0.1500
 33
0.0
 0
SOLID
 8
TITLE
 10
  7.6000
 20
  9.7000
 30
0.0
 11
  7.5800
 21
  9.7500
 31
0.0
 12
  7.6200
 22
  9.7500
 32
0.0
 13
  7.6000
 23
  9.7500
 33
0.0
 0
POLYLINE
 8
TITLE
 66
1
 10
0.0
 20
0.0
 30
0.0
 0
VERTEX
 8
TITLE
 10
  3.9000
 20
  0.2000
 30
0.0
 0
VERTEX
 8
TITLE
 10
  3.9000
 20
  0.1000
 30
0.0
 0
SEQEND
 8
TITLE
 0
POLYLINE
 8
TITLE
 66
1
 10
0.0
 20
0.0
 30
0.0
 0
VERTEX
 8
TITLE
 10
  3.9000
 20
  9.7000
 30
0.0
 0
VERTEX
 8
TITLE
 10
  3.9000
 20
  9.8000
 30
0.0
 0
SEQEND
 8
TITLE
 0
SOLID
 8
TITLE
 10
  7.6000
 20
  0.2000
 30
0.0
 11
  7.5800
 21
  0.1500
 31
0.0
 12
  7.6200
 22
  0.1500
 32
0.0
 13
  7.6000
 23
  0.1500
 33
0.0
 0
SOLID
 8
TITLE
 10
  7.6000
 20
  9.7000
 30
0.0
 11
  7.5800
 21
  9.7500
 31
0.0
 12
  7.6200
 22
  9.7500
 32
0.0
 13
  7.6000
 23
  9.7500
 33
0.0
 0
POLYLINE
 8
TITLE
 66
1
 10
0.0
 20
0.0
 30
0.0
 0
VERTEX
 8
TITLE
 10
  5.7500
 20
  0.2000
 30
0.0
 0
VERTEX
 8
TITLE
 10
  5.7500
 20
  0.1000
 30
0.0
 0
SEQEND
 8
TITLE
 0
POLYLINE
 8
TITLE
 66
1
 10
0.0
 20
0.0
 30
0.0
 0
VERTEX
 8
TITLE
 10
  5.7500
 20
  9.7000
 30
0.0
 0
VERTEX
 8
TITLE
 10
  5.7500
 20
  9.8000
 30
0.0
 0
SEQEND
 8
TITLE
 0
SOLID
 8
TITLE
 10
  7.6000
 20
  0.2000
 30
0.0
 11
  7.5800
 21
  0.1500
 31
0.0
 12
  7.6200
 22
  0.1500
 32
0.0
 13
  7.6000
 23
  0.1500
 33
0.0
 0
SOLID
 8
TITLE
 10
  7.6000
 20
  9.7000
 30
0.0
 11
  7.5800
 21
  9.7500
 31
0.0
 12
  7.6200
 22
  9.7500
 32
0.0
 13
  7.6000
 23
  9.7500
 33
0.0
 0
POLYLINE
 8
TITLE
 66
1
 10
0.0
 20
0.0
 30
0.0
 0
VERTEX
 8
TITLE
 10
  7.6000
 20
  0.2000
 30
0.0
 0
VERTEX
 8
TITLE
 10
  7.6000
 20
  0.1000
 30
0.0
 0
SEQEND
 8
TITLE
 0
POLYLINE
 8
TITLE
 66
1
 10
0.0
 20
0.0
 30
0.0
 0
VERTEX
 8
TITLE
 10
  7.6000
 20
  9.7000
 30
0.0
 0
VERTEX
 8
TITLE
 10
  7.6000
 20
  9.8000
 30
0.0
 0
SEQEND
 8
TITLE
 0
SOLID
 8
TITLE
 10
  7.6000
 20
  0.2000
 30
0.0
 11
  7.5800
 21
  0.1500
 31
0.0
 12
  7.6200
 22
  0.1500
 32
0.0
 13
  7.6000
 23
  0.1500
 33
0.0
 0
SOLID
 8
TITLE
 10
  7.6000
 20
  9.7000
 30
0.0
 11
  7.5800
 21
  9.7500
 31
0.0
 12
  7.6200
 22
  9.7500
 32
0.0
 13
  7.6000
 23
  9.7500
 33
0.0
 0
POLYLINE
 8
TITLE
 66
1
 10
0.0
 20
0.0
 30
0.0
 0
VERTEX
 8
TITLE
 10
  9.4500
 20
  0.2000
 30
0.0
 0
VERTEX
 8
TITLE
 10
  9.4500
 20
  0.1000
 30
0.0
 0
SEQEND
 8
TITLE
 0
POLYLINE
 8
TITLE
 66
1
 10
0.0
 20
0.0
 30
0.0
 0
VERTEX
 8
TITLE
 10
  9.4500
 20
  9.7000
 30
0.0
 0
VERTEX
 8
TITLE
 10
  9.4500
 20
  9.8000
 30
0.0
 0
SEQEND
 8
TITLE
 0
SOLID
 8
TITLE
 10
  7.6000
 20
  0.2000
 30
0.0
 11
  7.5800
 21
  0.1500
 31
0.0
 12
  7.6200
 22
  0.1500
 32
0.0
 13
  7.6000
 23
  0.1500
 33
0.0
 0
SOLID
 8
TITLE
 10
  7.6000
 20
  9.7000
 30
0.0
 11
  7.5800
 21
  9.7500
 31
0.0
 12
  7.6200
 22
  9.7500
 32
0.0
 13
  7.6000
 23
  9.7500
 33
0.0
 0
POLYLINE
 8
TITLE
 66
1
 10
0.0
 20
0.0
 30
0.0
 0
VERTEX
 8
TITLE
 10
 11.3000
 20
  0.2000
 30
0.0
 0
VERTEX
 8
TITLE
 10
 11.3000
 20
  0.1000
 30
0.0
 0
SEQEND
 8
TITLE
 0
POLYLINE
 8
TITLE
 66
1
 10
0.0
 20
0.0
 30
0.0
 0
VERTEX
 8
TITLE
 10
 11.3000
 20
  9.7000
 30
0.0
 0
VERTEX
 8
TITLE
 10
 11.3000
 20
  9.8000
 30
0.0
 0
SEQEND
 8
TITLE
 0
SOLID
 8
TITLE
 10
  7.6000
 20
  0.2000
 30
0.0
 11
  7.5800
 21
  0.1500
 31
0.0
 12
  7.6200
 22
  0.1500
 32
0.0
 13
  7.6000
 23
  0.1500
 33
0.0
 0
SOLID
 8
TITLE
 10
  7.6000
 20
  9.7000
 30
0.0
 11
  7.5800
 21
  9.7500
 31
0.0
 12
  7.6200
 22
  9.7500
 32
0.0
 13
  7.6000
 23
  9.7500
 33
0.0
 0
POLYLINE
 8
TITLE
 66
1
 10
0.0
 20
0.0
 30
0.0
 0
VERTEX
 8
TITLE
 10
 13.1500
 20
  0.2000
 30
0.0
 0
VERTEX
 8
TITLE
 10
 13.1500
 20
  0.1000
 30
0.0
 0
SEQEND
 8
TITLE
 0
POLYLINE
 8
TITLE
 66
1
 10
0.0
 20
0.0
 30
0.0
 0
VERTEX
 8
TITLE
 10
 13.1500
 20
  9.7000
 30
0.0
 0
VERTEX
 8
TITLE
 10
 13.1500
 20
  9.8000
 30
0.0
 0
SEQEND
 8
TITLE
 0
SOLID
 8
TITLE
 10
  7.6000
 20
  0.2000
 30
0.0
 11
  7.5800
 21
  0.1500
 31
0.0
 12
  7.6200
 22
  0.1500
 32
0.0
 13
  7.6000
 23
  0.1500
 33
0.0
 0
SOLID
 8
TITLE
 10
  7.6000
 20
  9.7000
 30
0.0
 11
  7.5800
 21
  9.7500
 31
0.0
 12
  7.6200
 22
  9.7500
 32
0.0
 13
  7.6000
 23
  9.7500
 33
0.0
 0
TEXT
 8
TITLE
 10
  1.1200
 20
  0.1200
 30
0.0
 40
  0.0500
 1
8
 0
TEXT
 8
TITLE
 10
  1.1200
 20
  9.7200
 30
0.0
 40
  0.0500
 1
8
 0
TEXT
 8
TITLE
 10
  2.9700
 20
  0.1200
 30
0.0
 40
  0.0500
 1
7
 0
TEXT
 8
TITLE
 10
  2.9700
 20
  9.7200
 30
0.0
 40
  0.0500
 1
7
 0
TEXT
 8
TITLE
 10
  4.8200
 20
  0.1200
 30
0.0
 40
  0.0500
 1
6
 0
TEXT
 8
TITLE
 10
  4.8200
 20
  9.7200
 30
0.0
 40
  0.0500
 1
6
 0
TEXT
 8
TITLE
 10
  6.6700
 20
  0.1200
 30
0.0
 40
  0.0500
 1
5
 0
TEXT
 8
TITLE
 10
  6.6700
 20
  9.7200
 30
0.0
 40
  0.0500
 1
5
 0
TEXT
 8
TITLE
 10
  8.5200
 20
  0.1200
 30
0.0
 40
  0.0500
 1
4
 0
TEXT
 8
TITLE
 10
  8.5200
 20
  9.7200
 30
0.0
 40
  0.0500
 1
4
 0
TEXT
 8
TITLE
 10
 10.3700
 20
  0.1200
 30
0.0
 40
  0.0500
 1
3
 0
TEXT
 8
TITLE
 10
 10.3700
 20
  9.7200
 30
0.0
 40
  0.0500
 1
3
 0
TEXT
 8
TITLE
 10
 12.2200
 20
  0.1200
 30
0.0
 40
  0.0500
 1
2
 0
TEXT
 8
TITLE
 10
 12.2200
 20
  9.7200
 30
0.0
 40
  0.0500
 1
2
 0
TEXT
 8
TITLE
 10
 14.0700
 20
  0.1200
 30
0.0
 40
  0.0500
 1
1
 0
TEXT
 8
TITLE
 10
 14.0700
 20
  9.7200
 30
0.0
 40
  0.0500
 1
1
 0
POLYLINE
 8
TITLE
 66
1
 10
0.0
 20
0.0
 30
0.0
 0
VERTEX
 8
TITLE
 10
 -0.1000
 20
  7.1800
 30
0.0
 0
VERTEX
 8
TITLE
 10
  0.0000
 20
  7.1800
 30
0.0
 0
SEQEND
 8
TITLE
 0
POLYLINE
 8
TITLE
 66
1
 10
0.0
 20
0.0
 30
0.0
 0
VERTEX
 8
TITLE
 10
 15.0000
 20
  7.1800
 30
0.0
 0
VERTEX
 8
TITLE
 10
 15.1000
 20
  7.1800
 30
0.0
 0
SEQEND
 8
TITLE
 0
SOLID
 8
TITLE
 10
  0.0000
 20
  4.8600
 30
0.0
 11
 -0.0500
 21
  4.8800
 31
0.0
 12
 -0.0500
 22
  4.8400
 32
0.0
 13
 -0.0500
 23
  4.8600
 33
0.0
 0
SOLID
 8
TITLE
 10
 15.0000
 20
  4.8600
 30
0.0
 11
 15.0500
 21
  4.8800
 31
0.0
 12
 15.0500
 22
  4.8400
 32
0.0
 13
 15.0500
 23
  4.8600
 33
0.0
 0
POLYLINE
 8
TITLE
 66
1
 10
0.0
 20
0.0
 30
0.0
 0
VERTEX
 8
TITLE
 10
 -0.1000
 20
  4.8600
 30
0.0
 0
VERTEX
 8
TITLE
 10
  0.0000
 20
  4.8600
 30
0.0
 0
SEQEND
 8
TITLE
 0
POLYLINE
 8
TITLE
 66
1
 10
0.0
 20
0.0
 30
0.0
 0
VERTEX
 8
TITLE
 10
 15.0000
 20
  4.8600
 30
0.0
 0
VERTEX
 8
TITLE
 10
 15.1000
 20
  4.8600
 30
0.0
 0
SEQEND
 8
TITLE
 0
SOLID
 8
TITLE
 10
  0.0000
 20
  4.8600
 30
0.0
 11
 -0.0500
 21
  4.8800
 31
0.0
 12
 -0.0500
 22
  4.8400
 32
0.0
 13
 -0.0500
 23
  4.8600
 33
0.0
 0
SOLID
 8
TITLE
 10
 15.0000
 20
  4.8600
 30
0.0
 11
 15.0500
 21
  4.8800
 31
0.0
 12
 15.0500
 22
  4.8400
 32
0.0
 13
 15.0500
 23
  4.8600
 33
0.0
 0
POLYLINE
 8
TITLE
 66
1
 10
0.0
 20
0.0
 30
0.0
 0
VERTEX
 8
TITLE
 10
 -0.1000
 20
  2.5400
 30
0.0
 0
VERTEX
 8
TITLE
 10
  0.0000
 20
  2.5400
 30
0.0
 0
SEQEND
 8
TITLE
 0
POLYLINE
 8
TITLE
 66
1
 10
0.0
 20
0.0
 30
0.0
 0
VERTEX
 8
TITLE
 10
 15.0000
 20
  2.5400
 30
0.0
 0
VERTEX
 8
TITLE
 10
 15.1000
 20
  2.5400
 30
0.0
 0
SEQEND
 8
TITLE
 0
SOLID
 8
TITLE
 10
  0.0000
 20
  4.8600
 30
0.0
 11
 -0.0500
 21
  4.8800
 31
0.0
 12
 -0.0500
 22
  4.8400
 32
0.0
 13
 -0.0500
 23
  4.8600
 33
0.0
 0
SOLID
 8
TITLE
 10
 15.0000
 20
  4.8600
 30
0.0
 11
 15.0500
 21
  4.8800
 31
0.0
 12
 15.0500
 22
  4.8400
 32
0.0
 13
 15.0500
 23
  4.8600
 33
0.0
 0
TEXT
 8
TITLE
 10
 -0.0800
 20
  8.3400
 30
0.0
 40
  0.0500
 1
D
 0
TEXT
 8
TITLE
 10
 15.0200
 20
  8.3400
 30
0.0
 40
  0.0500
 1
D
 0
TEXT
 8
TITLE
 10
 -0.0800
 20
  6.0200
 30
0.0
 40
  0.0500
 1
C
 0
TEXT
 8
TITLE
 10
 15.0200
 20
  6.0200
 30
0.0
 40
  0.0500
 1
C
 0
TEXT
 8
TITLE
 10
 -0.0800
 20
  3.7000
 30
0.0
 40
  0.0500
 1
B
 0
TEXT
 8
TITLE
 10
 15.0200
 20
  3.7000
 30
0.0
 40
  0.0500
 1
B
 0
TEXT
 8
TITLE
 10
 -0.0800
 20
  1.3800
 30
0.0
 40
  0.0500
 1
A
 0
TEXT
 8
TITLE
 10
 15.0200
 20
  1.3800
 30
0.0
 40
  0.0500
 1
A
 0
TEXT
 8
TITLE
 10
 11.7000
 20
  0.4186
 30
0.0
 40
  0.0514
 1
RF 
 0
TEXT
 8
TITLE
 10
 11.7000
 20
  0.7186
 30
0.0
 40
  0.0514
 1
DDS CONTROLLER
 0
TEXT
 8
TITLE
 10
 11.3000
 20
  1.3186
 30
0.0
 40
  0.0514
 1
ARECIBO OBSERVATORY
 0
TEXT
 8
TITLE
 10
 11.3000
 20
  1.1186
 30
0.0
 40
  0.0514
 1
BY : BILL SISK
 0
TEXT
 8
TITLE
 10
 11.3000
 20
  1.0186
 30
0.0
 40
  0.0514
 1
FILE : DDSCTRL11.SCH
 0
TEXT
 8
TITLE
 10
 11.4000
 20
  0.4186
 30
0.0
 40
  0.0514
 1
B
 0
TEXT
 8
TITLE
 10
 13.8000
 20
  0.2186
 30
0.0
 40
  0.0514
 1
0
 0
TEXT
 8
TITLE
 10
 14.4000
 20
  0.2186
 30
0.0
 40
  0.0514
 1
0
 0
TEXT
 8
TITLE
 10
 11.7100
 20
  0.2186
 30
0.0
 40
  0.0514
 1
Friday, March 11, 2005
 0
TEXT
 8
PARTTEXT
 10
 11.3000
 20
  0.8186
 30
0.0
 40
  0.0514
 1
Title
 0
TEXT
 8
PARTTEXT
 10
 11.3000
 20
  0.5186
 30
0.0
 40
  0.0514
 1
Size
 0
TEXT
 8
PARTTEXT
 10
 11.7000
 20
  0.5186
 30
0.0
 40
  0.0514
 1
Document Number
 0
TEXT
 8
PARTTEXT
 10
 14.6000
 20
  0.5186
 30
0.0
 40
  0.0514
 1
Rev
 0
TEXT
 8
PARTTEXT
 10
 11.3000
 20
  0.2186
 30
0.0
 40
  0.0514
 1
Date:
 0
TEXT
 8
PARTTEXT
 10
 13.3000
 20
  0.2186
 30
0.0
 40
  0.0514
 1
Sheet
 0
POLYLINE
 8
TITLE
 66
1
 70
1
 10
0.0
 20
0.0
 30
0.0
 0
VERTEX
 8
TITLE
 10
 11.3000
 20
  1.4000
 30
0.0
 0
VERTEX
 8
TITLE
 10
 14.9000
 20
  1.4000
 30
0.0
 0
VERTEX
 8
TITLE
 10
 14.9000
 20
  0.9000
 30
0.0
 0
VERTEX
 8
TITLE
 10
 11.3000
 20
  0.9000
 30
0.0
 0
SEQEND
 8
TITLE
 0
POLYLINE
 8
TITLE
 66
1
 70
1
 10
0.0
 20
0.0
 30
0.0
 0
VERTEX
 8
TITLE
 10
 11.3000
 20
  0.9000
 30
0.0
 0
VERTEX
 8
TITLE
 10
 14.9000
 20
  0.9000
 30
0.0
 0
VERTEX
 8
TITLE
 10
 14.9000
 20
  0.6000
 30
0.0
 0
VERTEX
 8
TITLE
 10
 11.3000
 20
  0.6000
 30
0.0
 0
SEQEND
 8
TITLE
 0
POLYLINE
 8
TITLE
 66
1
 70
1
 10
0.0
 20
0.0
 30
0.0
 0
VERTEX
 8
TITLE
 10
 11.3000
 20
  0.6000
 30
0.0
 0
VERTEX
 8
TITLE
 10
 11.6000
 20
  0.6000
 30
0.0
 0
VERTEX
 8
TITLE
 10
 11.6000
 20
  0.3000
 30
0.0
 0
VERTEX
 8
TITLE
 10
 11.3000
 20
  0.3000
 30
0.0
 0
SEQEND
 8
TITLE
 0
POLYLINE
 8
TITLE
 66
1
 70
1
 10
0.0
 20
0.0
 30
0.0
 0
VERTEX
 8
TITLE
 10
 11.6000
 20
  0.6000
 30
0.0
 0
VERTEX
 8
TITLE
 10
 14.6000
 20
  0.6000
 30
0.0
 0
VERTEX
 8
TITLE
 10
 14.6000
 20
  0.3000
 30
0.0
 0
VERTEX
 8
TITLE
 10
 11.6000
 20
  0.3000
 30
0.0
 0
SEQEND
 8
TITLE
 0
POLYLINE
 8
TITLE
 66
1
 70
1
 10
0.0
 20
0.0
 30
0.0
 0
VERTEX
 8
TITLE
 10
 14.6000
 20
  0.6000
 30
0.0
 0
VERTEX
 8
TITLE
 10
 14.9000
 20
  0.6000
 30
0.0
 0
VERTEX
 8
TITLE
 10
 14.9000
 20
  0.3000
 30
0.0
 0
VERTEX
 8
TITLE
 10
 14.6000
 20
  0.3000
 30
0.0
 0
SEQEND
 8
TITLE
 0
POLYLINE
 8
TITLE
 66
1
 70
1
 10
0.0
 20
0.0
 30
0.0
 0
VERTEX
 8
TITLE
 10
 11.3000
 20
  0.3000
 30
0.0
 0
VERTEX
 8
TITLE
 10
 13.3000
 20
  0.3000
 30
0.0
 0
VERTEX
 8
TITLE
 10
 13.3000
 20
  0.2000
 30
0.0
 0
VERTEX
 8
TITLE
 10
 11.3000
 20
  0.2000
 30
0.0
 0
SEQEND
 8
TITLE
 0
POLYLINE
 8
TITLE
 66
1
 70
1
 10
0.0
 20
0.0
 30
0.0
 0
VERTEX
 8
TITLE
 10
 13.3000
 20
  0.3000
 30
0.0
 0
VERTEX
 8
TITLE
 10
 14.9000
 20
  0.3000
 30
0.0
 0
VERTEX
 8
TITLE
 10
 14.9000
 20
  0.2000
 30
0.0
 0
VERTEX
 8
TITLE
 10
 13.3000
 20
  0.2000
 30
0.0
 0
SEQEND
 8
TITLE
 0
TEXT
 8
PARTTEXT
 10
 14.1000
 20
  0.2186
 30
0.0
 40
  0.0514
 1
of
 0
TEXT
 8
PARTTEXT
 10
  1.7500
 20
  5.5086
 30
0.0
 40
  0.0514
 1
10dB
 0
POLYLINE
 8
PARTS
 66
1
 10
0.0
 20
0.0
 30
0.0
 0
VERTEX
 8
PARTS
 10
  1.8300
 20
  5.8000
 30
0.0
 0
VERTEX
 8
PARTS
 10
  1.8100
 20
  5.8200
 30
0.0
 0
SEQEND
 8
PARTS
 0
POLYLINE
 8
PARTS
 66
1
 10
0.0
 20
0.0
 30
0.0
 0
VERTEX
 8
PARTS
 10
  1.8200
 20
  5.6700
 30
0.0
 0
VERTEX
 8
PARTS
 10
  1.8300
 20
  5.6800
 30
0.0
 0
SEQEND
 8
PARTS
 0
POLYLINE
 8
PARTS
 66
1
 10
0.0
 20
0.0
 30
0.0
 0
VERTEX
 8
PARTS
 10
  1.8200
 20
  5.9100
 30
0.0
 0
VERTEX
 8
PARTS
 10
  1.8300
 20
  5.9200
 30
0.0
 0
SEQEND
 8
PARTS
 0
POLYLINE
 8
PARTS
 66
1
 10
0.0
 20
0.0
 30
0.0
 0
VERTEX
 8
PARTS
 10
  1.8000
 20
  5.6000
 30
0.0
 0
VERTEX
 8
PARTS
 10
  1.8000
 20
  5.6500
 30
0.0
 0
SEQEND
 8
PARTS
 0
POLYLINE
 8
PARTS
 66
1
 10
0.0
 20
0.0
 30
0.0
 0
VERTEX
 8
PARTS
 10
  1.8000
 20
  5.6500
 30
0.0
 0
VERTEX
 8
PARTS
 10
  1.8300
 20
  5.6800
 30
0.0
 0
SEQEND
 8
PARTS
 0
POLYLINE
 8
PARTS
 66
1
 10
0.0
 20
0.0
 30
0.0
 0
VERTEX
 8
PARTS
 10
  1.8300
 20
  5.6800
 30
0.0
 0
VERTEX
 8
PARTS
 10
  1.7700
 20
  5.7400
 30
0.0
 0
SEQEND
 8
PARTS
 0
POLYLINE
 8
PARTS
 66
1
 10
0.0
 20
0.0
 30
0.0
 0
VERTEX
 8
PARTS
 10
  1.7700
 20
  5.7400
 30
0.0
 0
VERTEX
 8
PARTS
 10
  1.8300
 20
  5.8000
 30
0.0
 0
SEQEND
 8
PARTS
 0
POLYLINE
 8
PARTS
 66
1
 10
0.0
 20
0.0
 30
0.0
 0
VERTEX
 8
PARTS
 10
  1.8300
 20
  5.8000
 30
0.0
 0
VERTEX
 8
PARTS
 10
  1.7700
 20
  5.8600
 30
0.0
 0
SEQEND
 8
PARTS
 0
POLYLINE
 8
PARTS
 66
1
 10
0.0
 20
0.0
 30
0.0
 0
VERTEX
 8
PARTS
 10
  1.7700
 20
  5.8600
 30
0.0
 0
VERTEX
 8
PARTS
 10
  1.8300
 20
  5.9200
 30
0.0
 0
SEQEND
 8
PARTS
 0
POLYLINE
 8
PARTS
 66
1
 10
0.0
 20
0.0
 30
0.0
 0
VERTEX
 8
PARTS
 10
  1.8300
 20
  5.9200
 30
0.0
 0
VERTEX
 8
PARTS
 10
  1.7700
 20
  5.9800
 30
0.0
 0
SEQEND
 8
PARTS
 0
POLYLINE
 8
PARTS
 66
1
 10
0.0
 20
0.0
 30
0.0
 0
VERTEX
 8
PARTS
 10
  1.7700
 20
  5.9800
 30
0.0
 0
VERTEX
 8
PARTS
 10
  1.8000
 20
  6.0100
 30
0.0
 0
SEQEND
 8
PARTS
 0
POLYLINE
 8
PARTS
 66
1
 10
0.0
 20
0.0
 30
0.0
 0
VERTEX
 8
PARTS
 10
  1.8000
 20
  6.1000
 30
0.0
 0
VERTEX
 8
PARTS
 10
  1.8000
 20
  6.0000
 30
0.0
 0
SEQEND
 8
PARTS
 0
POLYLINE
 8
PARTS
 66
1
 10
0.0
 20
0.0
 30
0.0
 0
VERTEX
 8
PARTS
 10
  1.9000
 20
  5.6000
 30
0.0
 0
VERTEX
 8
PARTS
 10
  1.9000
 20
  6.1000
 30
0.0
 0
SEQEND
 8
PARTS
 0
POLYLINE
 8
PARTS
 66
1
 10
0.0
 20
0.0
 30
0.0
 0
VERTEX
 8
PARTS
 10
  1.9000
 20
  6.1000
 30
0.0
 0
VERTEX
 8
PARTS
 10
  1.7000
 20
  6.1000
 30
0.0
 0
SEQEND
 8
PARTS
 0
POLYLINE
 8
PARTS
 66
1
 10
0.0
 20
0.0
 30
0.0
 0
VERTEX
 8
PARTS
 10
  1.7000
 20
  6.1000
 30
0.0
 0
VERTEX
 8
PARTS
 10
  1.7000
 20
  5.6000
 30
0.0
 0
SEQEND
 8
PARTS
 0
POLYLINE
 8
PARTS
 66
1
 10
0.0
 20
0.0
 30
0.0
 0
VERTEX
 8
PARTS
 10
  1.7000
 20
  5.6000
 30
0.0
 0
VERTEX
 8
PARTS
 10
  1.9000
 20
  5.6000
 30
0.0
 0
SEQEND
 8
PARTS
 0
TEXT
 8
PARTTEXT
 10
  0.8500
 20
  6.0086
 30
0.0
 40
  0.0514
 1
SMA
 0
LINE
 8
PARTS
 10
  1.1000
 20
  5.9000
 30
0.0
 11
  1.0000
 21
  5.9000
 31
0.0
 0
TEXT
 8
PARTS
 10
  1.0600
 20
  5.9300
 30
0.0
 40
  0.0500
 1

 0
LINE
 8
PARTS
 10
  0.9000
 20
  5.7000
 30
0.0
 11
  0.9000
 21
  5.8000
 31
0.0
 0
TEXT
 8
PARTS
 10
  0.8700
 20
  5.6800
 30
0.0
 40
  0.0500
 50
 90.0000
 1

 0
POLYLINE
 8
PARTS
 66
1
 70
1
 10
0.0
 20
0.0
 30
0.0
 0
VERTEX
 8
PARTS
 10
  0.9300
 20
  5.9000
 30
0.0
 42
  0.0985
 0
VERTEX
 8
PARTS
 10
  0.9277
 20
  5.9115
 30
0.0
 42
  0.0985
 0
VERTEX
 8
PARTS
 10
  0.9212
 20
  5.9212
 30
0.0
 42
  0.0985
 0
VERTEX
 8
PARTS
 10
  0.9115
 20
  5.9277
 30
0.0
 42
  0.0985
 0
VERTEX
 8
PARTS
 10
  0.9000
 20
  5.9300
 30
0.0
 42
  0.0985
 0
VERTEX
 8
PARTS
 10
  0.8885
 20
  5.9277
 30
0.0
 42
  0.0985
 0
VERTEX
 8
PARTS
 10
  0.8788
 20
  5.9212
 30
0.0
 42
  0.0985
 0
VERTEX
 8
PARTS
 10
  0.8723
 20
  5.9115
 30
0.0
 42
  0.0985
 0
VERTEX
 8
PARTS
 10
  0.8700
 20
  5.9000
 30
0.0
 42
  0.0985
 0
VERTEX
 8
PARTS
 10
  0.8723
 20
  5.8885
 30
0.0
 42
  0.0985
 0
VERTEX
 8
PARTS
 10
  0.8788
 20
  5.8788
 30
0.0
 42
  0.0985
 0
VERTEX
 8
PARTS
 10
  0.8885
 20
  5.8723
 30
0.0
 42
  0.0985
 0
VERTEX
 8
PARTS
 10
  0.9000
 20
  5.8700
 30
0.0
 42
  0.0985
 0
VERTEX
 8
PARTS
 10
  0.9115
 20
  5.8723
 30
0.0
 42
  0.0985
 0
VERTEX
 8
PARTS
 10
  0.9212
 20
  5.8788
 30
0.0
 42
  0.0985
 0
VERTEX
 8
PARTS
 10
  0.9277
 20
  5.8885
 30
0.0
 42
  0.0985
 0
SEQEND
 8
PARTS
 0
POLYLINE
 8
PARTS
 66
1
 10
0.0
 20
0.0
 30
0.0
 0
VERTEX
 8
PARTS
 10
  1.0000
 20
  5.9000
 30
0.0
 0
VERTEX
 8
PARTS
 10
  0.9300
 20
  5.9000
 30
0.0
 0
SEQEND
 8
PARTS
 0
POLYLINE
 8
PARTS
 66
1
 70
1
 10
0.0
 20
0.0
 30
0.0
 0
VERTEX
 8
PARTS
 10
  1.0000
 20
  5.9000
 30
0.0
 42
  0.0985
 0
VERTEX
 8
PARTS
 10
  0.9924
 20
  5.9383
 30
0.0
 42
  0.0985
 0
VERTEX
 8
PARTS
 10
  0.9707
 20
  5.9707
 30
0.0
 42
  0.0985
 0
VERTEX
 8
PARTS
 10
  0.9383
 20
  5.9924
 30
0.0
 42
  0.0985
 0
VERTEX
 8
PARTS
 10
  0.9000
 20
  6.0000
 30
0.0
 42
  0.0985
 0
VERTEX
 8
PARTS
 10
  0.8617
 20
  5.9924
 30
0.0
 42
  0.0985
 0
VERTEX
 8
PARTS
 10
  0.8293
 20
  5.9707
 30
0.0
 42
  0.0985
 0
VERTEX
 8
PARTS
 10
  0.8076
 20
  5.9383
 30
0.0
 42
  0.0985
 0
VERTEX
 8
PARTS
 10
  0.8000
 20
  5.9000
 30
0.0
 42
  0.0985
 0
VERTEX
 8
PARTS
 10
  0.8076
 20
  5.8617
 30
0.0
 42
  0.0985
 0
VERTEX
 8
PARTS
 10
  0.8293
 20
  5.8293
 30
0.0
 42
  0.0985
 0
VERTEX
 8
PARTS
 10
  0.8617
 20
  5.8076
 30
0.0
 42
  0.0985
 0
VERTEX
 8
PARTS
 10
  0.9000
 20
  5.8000
 30
0.0
 42
  0.0985
 0
VERTEX
 8
PARTS
 10
  0.9383
 20
  5.8076
 30
0.0
 42
  0.0985
 0
VERTEX
 8
PARTS
 10
  0.9707
 20
  5.8293
 30
0.0
 42
  0.0985
 0
VERTEX
 8
PARTS
 10
  0.9924
 20
  5.8617
 30
0.0
 42
  0.0985
 0
SEQEND
 8
PARTS
 0
TEXT
 8
PARTTEXT
 10
  1.4500
 20
  8.0086
 30
0.0
 40
  0.0514
 1
Reactel
 0
TEXT
 8
PARTTEXT
 10
  1.4500
 20
  7.9086
 30
0.0
 40
  0.0514
 1
6B6-20-X2S11
 0
POLYLINE
 8
PARTS
 66
1
 10
0.0
 20
0.0
 30
0.0
 0
VERTEX
 8
PARTS
 10
  1.5000
 20
  8.3000
 30
0.0
 0
VERTEX
 8
PARTS
 10
  1.6000
 20
  8.3000
 30
0.0
 0
SEQEND
 8
PARTS
 0
POLYLINE
 8
PARTS
 66
1
 10
0.0
 20
0.0
 30
0.0
 0
VERTEX
 8
PARTS
 10
  1.6000
 20
  8.3000
 30
0.0
 0
VERTEX
 8
PARTS
 10
  1.6000
 20
  8.5000
 30
0.0
 0
SEQEND
 8
PARTS
 0
POLYLINE
 8
PARTS
 66
1
 10
0.0
 20
0.0
 30
0.0
 0
VERTEX
 8
PARTS
 10
  1.6000
 20
  8.5000
 30
0.0
 0
VERTEX
 8
PARTS
 10
  1.8000
 20
  8.5000
 30
0.0
 0
SEQEND
 8
PARTS
 0
POLYLINE
 8
PARTS
 66
1
 10
0.0
 20
0.0
 30
0.0
 0
VERTEX
 8
PARTS
 10
  1.8000
 20
  8.5000
 30
0.0
 0
VERTEX
 8
PARTS
 10
  1.8000
 20
  8.3000
 30
0.0
 0
SEQEND
 8
PARTS
 0
POLYLINE
 8
PARTS
 66
1
 10
0.0
 20
0.0
 30
0.0
 0
VERTEX
 8
PARTS
 10
  1.8000
 20
  8.3000
 30
0.0
 0
VERTEX
 8
PARTS
 10
  1.9000
 20
  8.3000
 30
0.0
 0
SEQEND
 8
PARTS
 0
POLYLINE
 8
PARTS
 66
1
 10
0.0
 20
0.0
 30
0.0
 0
VERTEX
 8
PARTS
 10
  1.4000
 20
  8.7000
 30
0.0
 0
VERTEX
 8
PARTS
 10
  1.4000
 20
  8.1000
 30
0.0
 0
SEQEND
 8
PARTS
 0
POLYLINE
 8
PARTS
 66
1
 10
0.0
 20
0.0
 30
0.0
 0
VERTEX
 8
PARTS
 10
  1.4000
 20
  8.1000
 30
0.0
 0
VERTEX
 8
PARTS
 10
  2.0000
 20
  8.1000
 30
0.0
 0
SEQEND
 8
PARTS
 0
POLYLINE
 8
PARTS
 66
1
 10
0.0
 20
0.0
 30
0.0
 0
VERTEX
 8
PARTS
 10
  2.0000
 20
  8.1000
 30
0.0
 0
VERTEX
 8
PARTS
 10
  2.0000
 20
  8.7000
 30
0.0
 0
SEQEND
 8
PARTS
 0
POLYLINE
 8
PARTS
 66
1
 10
0.0
 20
0.0
 30
0.0
 0
VERTEX
 8
PARTS
 10
  2.0000
 20
  8.7000
 30
0.0
 0
VERTEX
 8
PARTS
 10
  1.4000
 20
  8.7000
 30
0.0
 0
SEQEND
 8
PARTS
 0
TEXT
 8
PARTTEXT
 10
  1.4500
 20
  2.9086
 30
0.0
 40
  0.0514
 1
Reactel
 0
TEXT
 8
PARTTEXT
 10
  1.4500
 20
  2.8086
 30
0.0
 40
  0.0514
 1
6B6-20-X2S11
 0
POLYLINE
 8
PARTS
 66
1
 10
0.0
 20
0.0
 30
0.0
 0
VERTEX
 8
PARTS
 10
  1.5000
 20
  3.2000
 30
0.0
 0
VERTEX
 8
PARTS
 10
  1.6000
 20
  3.2000
 30
0.0
 0
SEQEND
 8
PARTS
 0
POLYLINE
 8
PARTS
 66
1
 10
0.0
 20
0.0
 30
0.0
 0
VERTEX
 8
PARTS
 10
  1.6000
 20
  3.2000
 30
0.0
 0
VERTEX
 8
PARTS
 10
  1.6000
 20
  3.4000
 30
0.0
 0
SEQEND
 8
PARTS
 0
POLYLINE
 8
PARTS
 66
1
 10
0.0
 20
0.0
 30
0.0
 0
VERTEX
 8
PARTS
 10
  1.6000
 20
  3.4000
 30
0.0
 0
VERTEX
 8
PARTS
 10
  1.8000
 20
  3.4000
 30
0.0
 0
SEQEND
 8
PARTS
 0
POLYLINE
 8
PARTS
 66
1
 10
0.0
 20
0.0
 30
0.0
 0
VERTEX
 8
PARTS
 10
  1.8000
 20
  3.4000
 30
0.0
 0
VERTEX
 8
PARTS
 10
  1.8000
 20
  3.2000
 30
0.0
 0
SEQEND
 8
PARTS
 0
POLYLINE
 8
PARTS
 66
1
 10
0.0
 20
0.0
 30
0.0
 0
VERTEX
 8
PARTS
 10
  1.8000
 20
  3.2000
 30
0.0
 0
VERTEX
 8
PARTS
 10
  1.9000
 20
  3.2000
 30
0.0
 0
SEQEND
 8
PARTS
 0
POLYLINE
 8
PARTS
 66
1
 10
0.0
 20
0.0
 30
0.0
 0
VERTEX
 8
PARTS
 10
  1.4000
 20
  3.6000
 30
0.0
 0
VERTEX
 8
PARTS
 10
  1.4000
 20
  3.0000
 30
0.0
 0
SEQEND
 8
PARTS
 0
POLYLINE
 8
PARTS
 66
1
 10
0.0
 20
0.0
 30
0.0
 0
VERTEX
 8
PARTS
 10
  1.4000
 20
  3.0000
 30
0.0
 0
VERTEX
 8
PARTS
 10
  2.0000
 20
  3.0000
 30
0.0
 0
SEQEND
 8
PARTS
 0
POLYLINE
 8
PARTS
 66
1
 10
0.0
 20
0.0
 30
0.0
 0
VERTEX
 8
PARTS
 10
  2.0000
 20
  3.0000
 30
0.0
 0
VERTEX
 8
PARTS
 10
  2.0000
 20
  3.6000
 30
0.0
 0
SEQEND
 8
PARTS
 0
POLYLINE
 8
PARTS
 66
1
 10
0.0
 20
0.0
 30
0.0
 0
VERTEX
 8
PARTS
 10
  2.0000
 20
  3.6000
 30
0.0
 0
VERTEX
 8
PARTS
 10
  1.4000
 20
  3.6000
 30
0.0
 0
SEQEND
 8
PARTS
 0
TEXT
 8
PARTTEXT
 10
 11.7500
 20
  6.0086
 30
0.0
 40
  0.0514
 1
SMA
 0
LINE
 8
PARTS
 10
 11.6000
 20
  5.9000
 30
0.0
 11
 11.7000
 21
  5.9000
 31
0.0
 0
TEXT
 8
PARTS
 10
 11.6400
 20
  5.9300
 30
0.0
 40
  0.0500
 1

 0
LINE
 8
PARTS
 10
 11.8000
 20
  5.7000
 30
0.0
 11
 11.8000
 21
  5.8000
 31
0.0
 0
TEXT
 8
PARTS
 10
 11.7700
 20
  5.6800
 30
0.0
 40
  0.0500
 50
 90.0000
 1

 0
POLYLINE
 8
PARTS
 66
1
 70
1
 10
0.0
 20
0.0
 30
0.0
 0
VERTEX
 8
PARTS
 10
 11.8300
 20
  5.9000
 30
0.0
 42
  0.0985
 0
VERTEX
 8
PARTS
 10
 11.8277
 20
  5.9115
 30
0.0
 42
  0.0985
 0
VERTEX
 8
PARTS
 10
 11.8212
 20
  5.9212
 30
0.0
 42
  0.0985
 0
VERTEX
 8
PARTS
 10
 11.8115
 20
  5.9277
 30
0.0
 42
  0.0985
 0
VERTEX
 8
PARTS
 10
 11.8000
 20
  5.9300
 30
0.0
 42
  0.0985
 0
VERTEX
 8
PARTS
 10
 11.7885
 20
  5.9277
 30
0.0
 42
  0.0985
 0
VERTEX
 8
PARTS
 10
 11.7788
 20
  5.9212
 30
0.0
 42
  0.0985
 0
VERTEX
 8
PARTS
 10
 11.7723
 20
  5.9115
 30
0.0
 42
  0.0985
 0
VERTEX
 8
PARTS
 10
 11.7700
 20
  5.9000
 30
0.0
 42
  0.0985
 0
VERTEX
 8
PARTS
 10
 11.7723
 20
  5.8885
 30
0.0
 42
  0.0985
 0
VERTEX
 8
PARTS
 10
 11.7788
 20
  5.8788
 30
0.0
 42
  0.0985
 0
VERTEX
 8
PARTS
 10
 11.7885
 20
  5.8723
 30
0.0
 42
  0.0985
 0
VERTEX
 8
PARTS
 10
 11.8000
 20
  5.8700
 30
0.0
 42
  0.0985
 0
VERTEX
 8
PARTS
 10
 11.8115
 20
  5.8723
 30
0.0
 42
  0.0985
 0
VERTEX
 8
PARTS
 10
 11.8212
 20
  5.8788
 30
0.0
 42
  0.0985
 0
VERTEX
 8
PARTS
 10
 11.8277
 20
  5.8885
 30
0.0
 42
  0.0985
 0
SEQEND
 8
PARTS
 0
POLYLINE
 8
PARTS
 66
1
 10
0.0
 20
0.0
 30
0.0
 0
VERTEX
 8
PARTS
 10
 11.7000
 20
  5.9000
 30
0.0
 0
VERTEX
 8
PARTS
 10
 11.7700
 20
  5.9000
 30
0.0
 0
SEQEND
 8
PARTS
 0
POLYLINE
 8
PARTS
 66
1
 70
1
 10
0.0
 20
0.0
 30
0.0
 0
VERTEX
 8
PARTS
 10
 11.9000
 20
  5.9000
 30
0.0
 42
  0.0985
 0
VERTEX
 8
PARTS
 10
 11.8924
 20
  5.9383
 30
0.0
 42
  0.0985
 0
VERTEX
 8
PARTS
 10
 11.8707
 20
  5.9707
 30
0.0
 42
  0.0985
 0
VERTEX
 8
PARTS
 10
 11.8383
 20
  5.9924
 30
0.0
 42
  0.0985
 0
VERTEX
 8
PARTS
 10
 11.8000
 20
  6.0000
 30
0.0
 42
  0.0985
 0
VERTEX
 8
PARTS
 10
 11.7617
 20
  5.9924
 30
0.0
 42
  0.0985
 0
VERTEX
 8
PARTS
 10
 11.7293
 20
  5.9707
 30
0.0
 42
  0.0985
 0
VERTEX
 8
PARTS
 10
 11.7076
 20
  5.9383
 30
0.0
 42
  0.0985
 0
VERTEX
 8
PARTS
 10
 11.7000
 20
  5.9000
 30
0.0
 42
  0.0985
 0
VERTEX
 8
PARTS
 10
 11.7076
 20
  5.8617
 30
0.0
 42
  0.0985
 0
VERTEX
 8
PARTS
 10
 11.7293
 20
  5.8293
 30
0.0
 42
  0.0985
 0
VERTEX
 8
PARTS
 10
 11.7617
 20
  5.8076
 30
0.0
 42
  0.0985
 0
VERTEX
 8
PARTS
 10
 11.8000
 20
  5.8000
 30
0.0
 42
  0.0985
 0
VERTEX
 8
PARTS
 10
 11.8383
 20
  5.8076
 30
0.0
 42
  0.0985
 0
VERTEX
 8
PARTS
 10
 11.8707
 20
  5.8293
 30
0.0
 42
  0.0985
 0
VERTEX
 8
PARTS
 10
 11.8924
 20
  5.8617
 30
0.0
 42
  0.0985
 0
SEQEND
 8
PARTS
 0
TEXT
 8
PARTTEXT
 10
 10.3300
 20
  8.0986
 30
0.0
 40
  0.0514
 1
MCL ZFL-500HLN
 0
TEXT
 8
PARTTEXT
 10
 10.3300
 20
  7.9986
 30
0.0
 40
  0.0514
 1
20dB Gain
 0
POLYLINE
 8
PARTS
 66
1
 10
0.0
 20
0.0
 30
0.0
 0
VERTEX
 8
PARTS
 10
 10.3000
 20
  8.2000
 30
0.0
 0
VERTEX
 8
PARTS
 10
 10.3000
 20
  8.6000
 30
0.0
 0
SEQEND
 8
PARTS
 0
POLYLINE
 8
PARTS
 66
1
 10
0.0
 20
0.0
 30
0.0
 0
VERTEX
 8
PARTS
 10
 10.3000
 20
  8.6000
 30
0.0
 0
VERTEX
 8
PARTS
 10
 10.3000
 20
  8.6000
 30
0.0
 0
VERTEX
 8
PARTS
 10
 10.7000
 20
  8.4000
 30
0.0
 0
VERTEX
 8
PARTS
 10
 10.3000
 20
  8.2000
 30
0.0
 0
SEQEND
 8
PARTS
 0
TEXT
 8
PARTTEXT
 10
  0.8500
 20
  8.5086
 30
0.0
 40
  0.0514
 1
SMA
 0
LINE
 8
PARTS
 10
  1.1000
 20
  8.4000
 30
0.0
 11
  1.0000
 21
  8.4000
 31
0.0
 0
TEXT
 8
PARTS
 10
  1.0600
 20
  8.4300
 30
0.0
 40
  0.0500
 1

 0
LINE
 8
PARTS
 10
  0.9000
 20
  8.2000
 30
0.0
 11
  0.9000
 21
  8.3000
 31
0.0
 0
TEXT
 8
PARTS
 10
  0.8700
 20
  8.1800
 30
0.0
 40
  0.0500
 50
 90.0000
 1

 0
POLYLINE
 8
PARTS
 66
1
 70
1
 10
0.0
 20
0.0
 30
0.0
 0
VERTEX
 8
PARTS
 10
  0.9300
 20
  8.4000
 30
0.0
 42
  0.0985
 0
VERTEX
 8
PARTS
 10
  0.9277
 20
  8.4115
 30
0.0
 42
  0.0985
 0
VERTEX
 8
PARTS
 10
  0.9212
 20
  8.4212
 30
0.0
 42
  0.0985
 0
VERTEX
 8
PARTS
 10
  0.9115
 20
  8.4277
 30
0.0
 42
  0.0985
 0
VERTEX
 8
PARTS
 10
  0.9000
 20
  8.4300
 30
0.0
 42
  0.0985
 0
VERTEX
 8
PARTS
 10
  0.8885
 20
  8.4277
 30
0.0
 42
  0.0985
 0
VERTEX
 8
PARTS
 10
  0.8788
 20
  8.4212
 30
0.0
 42
  0.0985
 0
VERTEX
 8
PARTS
 10
  0.8723
 20
  8.4115
 30
0.0
 42
  0.0985
 0
VERTEX
 8
PARTS
 10
  0.8700
 20
  8.4000
 30
0.0
 42
  0.0985
 0
VERTEX
 8
PARTS
 10
  0.8723
 20
  8.3885
 30
0.0
 42
  0.0985
 0
VERTEX
 8
PARTS
 10
  0.8788
 20
  8.3788
 30
0.0
 42
  0.0985
 0
VERTEX
 8
PARTS
 10
  0.8885
 20
  8.3723
 30
0.0
 42
  0.0985
 0
VERTEX
 8
PARTS
 10
  0.9000
 20
  8.3700
 30
0.0
 42
  0.0985
 0
VERTEX
 8
PARTS
 10
  0.9115
 20
  8.3723
 30
0.0
 42
  0.0985
 0
VERTEX
 8
PARTS
 10
  0.9212
 20
  8.3788
 30
0.0
 42
  0.0985
 0
VERTEX
 8
PARTS
 10
  0.9277
 20
  8.3885
 30
0.0
 42
  0.0985
 0
SEQEND
 8
PARTS
 0
POLYLINE
 8
PARTS
 66
1
 10
0.0
 20
0.0
 30
0.0
 0
VERTEX
 8
PARTS
 10
  1.0000
 20
  8.4000
 30
0.0
 0
VERTEX
 8
PARTS
 10
  0.9300
 20
  8.4000
 30
0.0
 0
SEQEND
 8
PARTS
 0
POLYLINE
 8
PARTS
 66
1
 70
1
 10
0.0
 20
0.0
 30
0.0
 0
VERTEX
 8
PARTS
 10
  1.0000
 20
  8.4000
 30
0.0
 42
  0.0985
 0
VERTEX
 8
PARTS
 10
  0.9924
 20
  8.4383
 30
0.0
 42
  0.0985
 0
VERTEX
 8
PARTS
 10
  0.9707
 20
  8.4707
 30
0.0
 42
  0.0985
 0
VERTEX
 8
PARTS
 10
  0.9383
 20
  8.4924
 30
0.0
 42
  0.0985
 0
VERTEX
 8
PARTS
 10
  0.9000
 20
  8.5000
 30
0.0
 42
  0.0985
 0
VERTEX
 8
PARTS
 10
  0.8617
 20
  8.4924
 30
0.0
 42
  0.0985
 0
VERTEX
 8
PARTS
 10
  0.8293
 20
  8.4707
 30
0.0
 42
  0.0985
 0
VERTEX
 8
PARTS
 10
  0.8076
 20
  8.4383
 30
0.0
 42
  0.0985
 0
VERTEX
 8
PARTS
 10
  0.8000
 20
  8.4000
 30
0.0
 42
  0.0985
 0
VERTEX
 8
PARTS
 10
  0.8076
 20
  8.3617
 30
0.0
 42
  0.0985
 0
VERTEX
 8
PARTS
 10
  0.8293
 20
  8.3293
 30
0.0
 42
  0.0985
 0
VERTEX
 8
PARTS
 10
  0.8617
 20
  8.3076
 30
0.0
 42
  0.0985
 0
VERTEX
 8
PARTS
 10
  0.9000
 20
  8.3000
 30
0.0
 42
  0.0985
 0
VERTEX
 8
PARTS
 10
  0.9383
 20
  8.3076
 30
0.0
 42
  0.0985
 0
VERTEX
 8
PARTS
 10
  0.9707
 20
  8.3293
 30
0.0
 42
  0.0985
 0
VERTEX
 8
PARTS
 10
  0.9924
 20
  8.3617
 30
0.0
 42
  0.0985
 0
SEQEND
 8
PARTS
 0
TEXT
 8
PARTTEXT
 10
  2.6300
 20
  3.0086
 30
0.0
 40
  0.0514
 1
MCL MAV-3
 0
TEXT
 8
PARTTEXT
 10
  2.6300
 20
  2.9086
 30
0.0
 40
  0.0514
 1
12dB Gain
 0
POLYLINE
 8
PARTS
 66
1
 10
0.0
 20
0.0
 30
0.0
 0
VERTEX
 8
PARTS
 10
  2.6000
 20
  3.1000
 30
0.0
 0
VERTEX
 8
PARTS
 10
  2.6000
 20
  3.5000
 30
0.0
 0
SEQEND
 8
PARTS
 0
POLYLINE
 8
PARTS
 66
1
 10
0.0
 20
0.0
 30
0.0
 0
VERTEX
 8
PARTS
 10
  2.6000
 20
  3.5000
 30
0.0
 0
VERTEX
 8
PARTS
 10
  2.6000
 20
  3.5000
 30
0.0
 0
VERTEX
 8
PARTS
 10
  3.0000
 20
  3.3000
 30
0.0
 0
VERTEX
 8
PARTS
 10
  2.6000
 20
  3.1000
 30
0.0
 0
SEQEND
 8
PARTS
 0
TEXT
 8
PARTTEXT
 10
  2.6300
 20
  8.1086
 30
0.0
 40
  0.0514
 1
MCL MAV-3
 0
TEXT
 8
PARTTEXT
 10
  2.6300
 20
  8.0086
 30
0.0
 40
  0.0514
 1
12dB Gain
 0
POLYLINE
 8
PARTS
 66
1
 10
0.0
 20
0.0
 30
0.0
 0
VERTEX
 8
PARTS
 10
  2.6000
 20
  8.2000
 30
0.0
 0
VERTEX
 8
PARTS
 10
  2.6000
 20
  8.6000
 30
0.0
 0
SEQEND
 8
PARTS
 0
POLYLINE
 8
PARTS
 66
1
 10
0.0
 20
0.0
 30
0.0
 0
VERTEX
 8
PARTS
 10
  2.6000
 20
  8.6000
 30
0.0
 0
VERTEX
 8
PARTS
 10
  2.6000
 20
  8.6000
 30
0.0
 0
VERTEX
 8
PARTS
 10
  3.0000
 20
  8.4000
 30
0.0
 0
VERTEX
 8
PARTS
 10
  2.6000
 20
  8.2000
 30
0.0
 0
SEQEND
 8
PARTS
 0
TEXT
 8
PARTTEXT
 10
  9.4500
 20
  5.5086
 30
0.0
 40
  0.0514
 1
6dB
 0
POLYLINE
 8
PARTS
 66
1
 10
0.0
 20
0.0
 30
0.0
 0
VERTEX
 8
PARTS
 10
  9.5300
 20
  5.8000
 30
0.0
 0
VERTEX
 8
PARTS
 10
  9.5100
 20
  5.8200
 30
0.0
 0
SEQEND
 8
PARTS
 0
POLYLINE
 8
PARTS
 66
1
 10
0.0
 20
0.0
 30
0.0
 0
VERTEX
 8
PARTS
 10
  9.5200
 20
  5.6700
 30
0.0
 0
VERTEX
 8
PARTS
 10
  9.5300
 20
  5.6800
 30
0.0
 0
SEQEND
 8
PARTS
 0
POLYLINE
 8
PARTS
 66
1
 10
0.0
 20
0.0
 30
0.0
 0
VERTEX
 8
PARTS
 10
  9.5200
 20
  5.9100
 30
0.0
 0
VERTEX
 8
PARTS
 10
  9.5300
 20
  5.9200
 30
0.0
 0
SEQEND
 8
PARTS
 0
POLYLINE
 8
PARTS
 66
1
 10
0.0
 20
0.0
 30
0.0
 0
VERTEX
 8
PARTS
 10
  9.5000
 20
  5.6000
 30
0.0
 0
VERTEX
 8
PARTS
 10
  9.5000
 20
  5.6500
 30
0.0
 0
SEQEND
 8
PARTS
 0
POLYLINE
 8
PARTS
 66
1
 10
0.0
 20
0.0
 30
0.0
 0
VERTEX
 8
PARTS
 10
  9.5000
 20
  5.6500
 30
0.0
 0
VERTEX
 8
PARTS
 10
  9.5300
 20
  5.6800
 30
0.0
 0
SEQEND
 8
PARTS
 0
POLYLINE
 8
PARTS
 66
1
 10
0.0
 20
0.0
 30
0.0
 0
VERTEX
 8
PARTS
 10
  9.5300
 20
  5.6800
 30
0.0
 0
VERTEX
 8
PARTS
 10
  9.4700
 20
  5.7400
 30
0.0
 0
SEQEND
 8
PARTS
 0
POLYLINE
 8
PARTS
 66
1
 10
0.0
 20
0.0
 30
0.0
 0
VERTEX
 8
PARTS
 10
  9.4700
 20
  5.7400
 30
0.0
 0
VERTEX
 8
PARTS
 10
  9.5300
 20
  5.8000
 30
0.0
 0
SEQEND
 8
PARTS
 0
POLYLINE
 8
PARTS
 66
1
 10
0.0
 20
0.0
 30
0.0
 0
VERTEX
 8
PARTS
 10
  9.5300
 20
  5.8000
 30
0.0
 0
VERTEX
 8
PARTS
 10
  9.4700
 20
  5.8600
 30
0.0
 0
SEQEND
 8
PARTS
 0
POLYLINE
 8
PARTS
 66
1
 10
0.0
 20
0.0
 30
0.0
 0
VERTEX
 8
PARTS
 10
  9.4700
 20
  5.8600
 30
0.0
 0
VERTEX
 8
PARTS
 10
  9.5300
 20
  5.9200
 30
0.0
 0
SEQEND
 8
PARTS
 0
POLYLINE
 8
PARTS
 66
1
 10
0.0
 20
0.0
 30
0.0
 0
VERTEX
 8
PARTS
 10
  9.5300
 20
  5.9200
 30
0.0
 0
VERTEX
 8
PARTS
 10
  9.4700
 20
  5.9800
 30
0.0
 0
SEQEND
 8
PARTS
 0
POLYLINE
 8
PARTS
 66
1
 10
0.0
 20
0.0
 30
0.0
 0
VERTEX
 8
PARTS
 10
  9.4700
 20
  5.9800
 30
0.0
 0
VERTEX
 8
PARTS
 10
  9.5000
 20
  6.0100
 30
0.0
 0
SEQEND
 8
PARTS
 0
POLYLINE
 8
PARTS
 66
1
 10
0.0
 20
0.0
 30
0.0
 0
VERTEX
 8
PARTS
 10
  9.5000
 20
  6.1000
 30
0.0
 0
VERTEX
 8
PARTS
 10
  9.5000
 20
  6.0000
 30
0.0
 0
SEQEND
 8
PARTS
 0
POLYLINE
 8
PARTS
 66
1
 10
0.0
 20
0.0
 30
0.0
 0
VERTEX
 8
PARTS
 10
  9.6000
 20
  5.6000
 30
0.0
 0
VERTEX
 8
PARTS
 10
  9.6000
 20
  6.1000
 30
0.0
 0
SEQEND
 8
PARTS
 0
POLYLINE
 8
PARTS
 66
1
 10
0.0
 20
0.0
 30
0.0
 0
VERTEX
 8
PARTS
 10
  9.6000
 20
  6.1000
 30
0.0
 0
VERTEX
 8
PARTS
 10
  9.4000
 20
  6.1000
 30
0.0
 0
SEQEND
 8
PARTS
 0
POLYLINE
 8
PARTS
 66
1
 10
0.0
 20
0.0
 30
0.0
 0
VERTEX
 8
PARTS
 10
  9.4000
 20
  6.1000
 30
0.0
 0
VERTEX
 8
PARTS
 10
  9.4000
 20
  5.6000
 30
0.0
 0
SEQEND
 8
PARTS
 0
POLYLINE
 8
PARTS
 66
1
 10
0.0
 20
0.0
 30
0.0
 0
VERTEX
 8
PARTS
 10
  9.4000
 20
  5.6000
 30
0.0
 0
VERTEX
 8
PARTS
 10
  9.6000
 20
  5.6000
 30
0.0
 0
SEQEND
 8
PARTS
 0
TEXT
 8
PARTTEXT
 10
  3.5100
 20
  2.9086
 30
0.0
 40
  0.0514
 1
MCL ZFSC-2-1
 0
POLYLINE
 8
PARTS
 66
1
 10
0.0
 20
0.0
 30
0.0
 0
VERTEX
 8
PARTS
 10
  3.7000
 20
  3.6000
 30
0.0
 0
VERTEX
 8
PARTS
 10
  4.3000
 20
  3.6000
 30
0.0
 0
SEQEND
 8
PARTS
 0
POLYLINE
 8
PARTS
 66
1
 10
0.0
 20
0.0
 30
0.0
 0
VERTEX
 8
PARTS
 10
  4.3000
 20
  3.6000
 30
0.0
 0
VERTEX
 8
PARTS
 10
  4.3000
 20
  3.0000
 30
0.0
 0
SEQEND
 8
PARTS
 0
POLYLINE
 8
PARTS
 66
1
 10
0.0
 20
0.0
 30
0.0
 0
VERTEX
 8
PARTS
 10
  4.3000
 20
  3.0000
 30
0.0
 0
VERTEX
 8
PARTS
 10
  3.7000
 20
  3.0000
 30
0.0
 0
SEQEND
 8
PARTS
 0
POLYLINE
 8
PARTS
 66
1
 10
0.0
 20
0.0
 30
0.0
 0
VERTEX
 8
PARTS
 10
  3.7000
 20
  3.0000
 30
0.0
 0
VERTEX
 8
PARTS
 10
  3.7000
 20
  3.6000
 30
0.0
 0
SEQEND
 8
PARTS
 0
POLYLINE
 8
PARTS
 66
1
 10
0.0
 20
0.0
 30
0.0
 0
VERTEX
 8
PARTS
 10
  3.7000
 20
  3.3000
 30
0.0
 0
VERTEX
 8
PARTS
 10
  3.8000
 20
  3.3000
 30
0.0
 0
SEQEND
 8
PARTS
 0
POLYLINE
 8
PARTS
 66
1
 10
0.0
 20
0.0
 30
0.0
 0
VERTEX
 8
PARTS
 10
  3.8000
 20
  3.3000
 30
0.0
 0
VERTEX
 8
PARTS
 10
  4.0000
 20
  3.5000
 30
0.0
 0
SEQEND
 8
PARTS
 0
POLYLINE
 8
PARTS
 66
1
 10
0.0
 20
0.0
 30
0.0
 0
VERTEX
 8
PARTS
 10
  4.0000
 20
  3.5000
 30
0.0
 0
VERTEX
 8
PARTS
 10
  4.3000
 20
  3.5000
 30
0.0
 0
SEQEND
 8
PARTS
 0
POLYLINE
 8
PARTS
 66
1
 10
0.0
 20
0.0
 30
0.0
 0
VERTEX
 8
PARTS
 10
  3.8000
 20
  3.3000
 30
0.0
 0
VERTEX
 8
PARTS
 10
  4.0000
 20
  3.1000
 30
0.0
 0
SEQEND
 8
PARTS
 0
POLYLINE
 8
PARTS
 66
1
 10
0.0
 20
0.0
 30
0.0
 0
VERTEX
 8
PARTS
 10
  4.0000
 20
  3.1000
 30
0.0
 0
VERTEX
 8
PARTS
 10
  4.3000
 20
  3.1000
 30
0.0
 0
SEQEND
 8
PARTS
 0
TEXT
 8
PARTTEXT
 10
  5.0500
 20
  4.9086
 30
0.0
 40
  0.0514
 1
S3
 0
TEXT
 8
PARTTEXT
 10
  5.0500
 20
  4.2086
 30
0.0
 40
  0.0514
 1
XFER_SWITCH
 0
LINE
 8
PARTS
 10
  4.9000
 20
  4.8000
 30
0.0
 11
  5.0000
 21
  4.8000
 31
0.0
 0
TEXT
 8
PARTS
 10
  4.9400
 20
  4.8300
 30
0.0
 40
  0.0500
 1

 0
LINE
 8
PARTS
 10
  4.9000
 20
  4.4000
 30
0.0
 11
  5.0000
 21
  4.4000
 31
0.0
 0
TEXT
 8
PARTS
 10
  4.9400
 20
  4.4300
 30
0.0
 40
  0.0500
 1

 0
LINE
 8
PARTS
 10
  5.7000
 20
  4.4000
 30
0.0
 11
  5.6000
 21
  4.4000
 31
0.0
 0
TEXT
 8
PARTS
 10
  5.6600
 20
  4.4300
 30
0.0
 40
  0.0500
 1

 0
LINE
 8
PARTS
 10
  5.7000
 20
  4.8000
 30
0.0
 11
  5.6000
 21
  4.8000
 31
0.0
 0
TEXT
 8
PARTS
 10
  5.6600
 20
  4.8300
 30
0.0
 40
  0.0500
 1

 0
LINE
 8
PARTS
 10
  4.9000
 20
  4.6000
 30
0.0
 11
  5.0000
 21
  4.6000
 31
0.0
 0
TEXT
 8
PARTS
 10
  4.9400
 20
  4.6300
 30
0.0
 40
  0.0500
 1

 0
LINE
 8
PARTS
 10
  5.7000
 20
  4.6000
 30
0.0
 11
  5.6000
 21
  4.6000
 31
0.0
 0
TEXT
 8
PARTS
 10
  5.6600
 20
  4.6300
 30
0.0
 40
  0.0500
 1

 0
POLYLINE
 8
PARTS
 66
1
 10
0.0
 20
0.0
 30
0.0
 0
VERTEX
 8
PARTS
 10
  5.0000
 20
  4.9000
 30
0.0
 0
VERTEX
 8
PARTS
 10
  5.6000
 20
  4.9000
 30
0.0
 0
SEQEND
 8
PARTS
 0
POLYLINE
 8
PARTS
 66
1
 10
0.0
 20
0.0
 30
0.0
 0
VERTEX
 8
PARTS
 10
  5.6000
 20
  4.9000
 30
0.0
 0
VERTEX
 8
PARTS
 10
  5.6000
 20
  4.3000
 30
0.0
 0
SEQEND
 8
PARTS
 0
POLYLINE
 8
PARTS
 66
1
 10
0.0
 20
0.0
 30
0.0
 0
VERTEX
 8
PARTS
 10
  5.6000
 20
  4.3000
 30
0.0
 0
VERTEX
 8
PARTS
 10
  5.0000
 20
  4.3000
 30
0.0
 0
SEQEND
 8
PARTS
 0
POLYLINE
 8
PARTS
 66
1
 10
0.0
 20
0.0
 30
0.0
 0
VERTEX
 8
PARTS
 10
  5.0000
 20
  4.3000
 30
0.0
 0
VERTEX
 8
PARTS
 10
  5.0000
 20
  4.9000
 30
0.0
 0
SEQEND
 8
PARTS
 0
TEXT
 8
PARTTEXT
 10
  5.0400
 20
  4.3686
 30
0.0
 40
  0.0514
 1
1
 0
TEXT
 8
PARTTEXT
 10
  5.0300
 20
  4.7686
 30
0.0
 40
  0.0514
 1
2
 0
TEXT
 8
PARTTEXT
 10
  5.5200
 20
  4.3586
 30
0.0
 40
  0.0514
 1
3
 0
TEXT
 8
PARTTEXT
 10
  5.5200
 20
  4.7686
 30
0.0
 40
  0.0514
 1
4
 0
POLYLINE
 8
PARTS
 66
1
 10
0.0
 20
0.0
 30
0.0
 0
VERTEX
 8
PARTS
 10
  5.1000
 20
  4.4000
 30
0.0
 0
VERTEX
 8
PARTS
 10
  5.5000
 20
  4.4000
 30
0.0
 0
SEQEND
 8
PARTS
 0
POLYLINE
 8
PARTS
 66
1
 10
0.0
 20
0.0
 30
0.0
 0
VERTEX
 8
PARTS
 10
  5.1000
 20
  4.8000
 30
0.0
 0
VERTEX
 8
PARTS
 10
  5.5000
 20
  4.8000
 30
0.0
 0
SEQEND
 8
PARTS
 0
POLYLINE
 8
PARTS
 66
1
 10
0.0
 20
0.0
 30
0.0
 0
VERTEX
 8
PARTS
 10
  5.1500
 20
  4.7500
 30
0.0
 0
VERTEX
 8
PARTS
 10
  5.4500
 20
  4.4500
 30
0.0
 0
SEQEND
 8
PARTS
 0
POLYLINE
 8
PARTS
 66
1
 10
0.0
 20
0.0
 30
0.0
 0
VERTEX
 8
PARTS
 10
  5.4500
 20
  4.7500
 30
0.0
 0
VERTEX
 8
PARTS
 10
  5.1500
 20
  4.4500
 30
0.0
 0
SEQEND
 8
PARTS
 0
TEXT
 8
PARTTEXT
 10
  5.0400
 20
  4.5686
 30
0.0
 40
  0.0514
 1
+
 0
TEXT
 8
PARTTEXT
 10
  5.5200
 20
  4.5686
 30
0.0
 40
  0.0514
 1
-
 0
TEXT
 8
PARTTEXT
 10
 11.7500
 20
  4.9086
 30
0.0
 40
  0.0514
 1
SMA
 0
LINE
 8
PARTS
 10
 11.6000
 20
  4.8000
 30
0.0
 11
 11.7000
 21
  4.8000
 31
0.0
 0
TEXT
 8
PARTS
 10
 11.6400
 20
  4.8300
 30
0.0
 40
  0.0500
 1

 0
LINE
 8
PARTS
 10
 11.8000
 20
  4.6000
 30
0.0
 11
 11.8000
 21
  4.7000
 31
0.0
 0
TEXT
 8
PARTS
 10
 11.7700
 20
  4.5800
 30
0.0
 40
  0.0500
 50
 90.0000
 1

 0
POLYLINE
 8
PARTS
 66
1
 70
1
 10
0.0
 20
0.0
 30
0.0
 0
VERTEX
 8
PARTS
 10
 11.8300
 20
  4.8000
 30
0.0
 42
  0.0985
 0
VERTEX
 8
PARTS
 10
 11.8277
 20
  4.8115
 30
0.0
 42
  0.0985
 0
VERTEX
 8
PARTS
 10
 11.8212
 20
  4.8212
 30
0.0
 42
  0.0985
 0
VERTEX
 8
PARTS
 10
 11.8115
 20
  4.8277
 30
0.0
 42
  0.0985
 0
VERTEX
 8
PARTS
 10
 11.8000
 20
  4.8300
 30
0.0
 42
  0.0985
 0
VERTEX
 8
PARTS
 10
 11.7885
 20
  4.8277
 30
0.0
 42
  0.0985
 0
VERTEX
 8
PARTS
 10
 11.7788
 20
  4.8212
 30
0.0
 42
  0.0985
 0
VERTEX
 8
PARTS
 10
 11.7723
 20
  4.8115
 30
0.0
 42
  0.0985
 0
VERTEX
 8
PARTS
 10
 11.7700
 20
  4.8000
 30
0.0
 42
  0.0985
 0
VERTEX
 8
PARTS
 10
 11.7723
 20
  4.7885
 30
0.0
 42
  0.0985
 0
VERTEX
 8
PARTS
 10
 11.7788
 20
  4.7788
 30
0.0
 42
  0.0985
 0
VERTEX
 8
PARTS
 10
 11.7885
 20
  4.7723
 30
0.0
 42
  0.0985
 0
VERTEX
 8
PARTS
 10
 11.8000
 20
  4.7700
 30
0.0
 42
  0.0985
 0
VERTEX
 8
PARTS
 10
 11.8115
 20
  4.7723
 30
0.0
 42
  0.0985
 0
VERTEX
 8
PARTS
 10
 11.8212
 20
  4.7788
 30
0.0
 42
  0.0985
 0
VERTEX
 8
PARTS
 10
 11.8277
 20
  4.7885
 30
0.0
 42
  0.0985
 0
SEQEND
 8
PARTS
 0
POLYLINE
 8
PARTS
 66
1
 10
0.0
 20
0.0
 30
0.0
 0
VERTEX
 8
PARTS
 10
 11.7000
 20
  4.8000
 30
0.0
 0
VERTEX
 8
PARTS
 10
 11.7700
 20
  4.8000
 30
0.0
 0
SEQEND
 8
PARTS
 0
POLYLINE
 8
PARTS
 66
1
 70
1
 10
0.0
 20
0.0
 30
0.0
 0
VERTEX
 8
PARTS
 10
 11.9000
 20
  4.8000
 30
0.0
 42
  0.0985
 0
VERTEX
 8
PARTS
 10
 11.8924
 20
  4.8383
 30
0.0
 42
  0.0985
 0
VERTEX
 8
PARTS
 10
 11.8707
 20
  4.8707
 30
0.0
 42
  0.0985
 0
VERTEX
 8
PARTS
 10
 11.8383
 20
  4.8924
 30
0.0
 42
  0.0985
 0
VERTEX
 8
PARTS
 10
 11.8000
 20
  4.9000
 30
0.0
 42
  0.0985
 0
VERTEX
 8
PARTS
 10
 11.7617
 20
  4.8924
 30
0.0
 42
  0.0985
 0
VERTEX
 8
PARTS
 10
 11.7293
 20
  4.8707
 30
0.0
 42
  0.0985
 0
VERTEX
 8
PARTS
 10
 11.7076
 20
  4.8383
 30
0.0
 42
  0.0985
 0
VERTEX
 8
PARTS
 10
 11.7000
 20
  4.8000
 30
0.0
 42
  0.0985
 0
VERTEX
 8
PARTS
 10
 11.7076
 20
  4.7617
 30
0.0
 42
  0.0985
 0
VERTEX
 8
PARTS
 10
 11.7293
 20
  4.7293
 30
0.0
 42
  0.0985
 0
VERTEX
 8
PARTS
 10
 11.7617
 20
  4.7076
 30
0.0
 42
  0.0985
 0
VERTEX
 8
PARTS
 10
 11.8000
 20
  4.7000
 30
0.0
 42
  0.0985
 0
VERTEX
 8
PARTS
 10
 11.8383
 20
  4.7076
 30
0.0
 42
  0.0985
 0
VERTEX
 8
PARTS
 10
 11.8707
 20
  4.7293
 30
0.0
 42
  0.0985
 0
VERTEX
 8
PARTS
 10
 11.8924
 20
  4.7617
 30
0.0
 42
  0.0985
 0
SEQEND
 8
PARTS
 0
TEXT
 8
PARTTEXT
 10
 10.3300
 20
  5.5986
 30
0.0
 40
  0.0514
 1
MCL ZFL-500HLN
 0
TEXT
 8
PARTTEXT
 10
 10.3300
 20
  5.4986
 30
0.0
 40
  0.0514
 1
20dB Gain
 0
POLYLINE
 8
PARTS
 66
1
 10
0.0
 20
0.0
 30
0.0
 0
VERTEX
 8
PARTS
 10
 10.3000
 20
  5.7000
 30
0.0
 0
VERTEX
 8
PARTS
 10
 10.3000
 20
  6.1000
 30
0.0
 0
SEQEND
 8
PARTS
 0
POLYLINE
 8
PARTS
 66
1
 10
0.0
 20
0.0
 30
0.0
 0
VERTEX
 8
PARTS
 10
 10.3000
 20
  6.1000
 30
0.0
 0
VERTEX
 8
PARTS
 10
 10.3000
 20
  6.1000
 30
0.0
 0
VERTEX
 8
PARTS
 10
 10.7000
 20
  5.9000
 30
0.0
 0
VERTEX
 8
PARTS
 10
 10.3000
 20
  5.7000
 30
0.0
 0
SEQEND
 8
PARTS
 0
TEXT
 8
PARTTEXT
 10
  9.4500
 20
  2.0086
 30
0.0
 40
  0.0514
 1
6dB
 0
POLYLINE
 8
PARTS
 66
1
 10
0.0
 20
0.0
 30
0.0
 0
VERTEX
 8
PARTS
 10
  9.5300
 20
  2.3000
 30
0.0
 0
VERTEX
 8
PARTS
 10
  9.5100
 20
  2.3200
 30
0.0
 0
SEQEND
 8
PARTS
 0
POLYLINE
 8
PARTS
 66
1
 10
0.0
 20
0.0
 30
0.0
 0
VERTEX
 8
PARTS
 10
  9.5200
 20
  2.1700
 30
0.0
 0
VERTEX
 8
PARTS
 10
  9.5300
 20
  2.1800
 30
0.0
 0
SEQEND
 8
PARTS
 0
POLYLINE
 8
PARTS
 66
1
 10
0.0
 20
0.0
 30
0.0
 0
VERTEX
 8
PARTS
 10
  9.5200
 20
  2.4100
 30
0.0
 0
VERTEX
 8
PARTS
 10
  9.5300
 20
  2.4200
 30
0.0
 0
SEQEND
 8
PARTS
 0
POLYLINE
 8
PARTS
 66
1
 10
0.0
 20
0.0
 30
0.0
 0
VERTEX
 8
PARTS
 10
  9.5000
 20
  2.1000
 30
0.0
 0
VERTEX
 8
PARTS
 10
  9.5000
 20
  2.1500
 30
0.0
 0
SEQEND
 8
PARTS
 0
POLYLINE
 8
PARTS
 66
1
 10
0.0
 20
0.0
 30
0.0
 0
VERTEX
 8
PARTS
 10
  9.5000
 20
  2.1500
 30
0.0
 0
VERTEX
 8
PARTS
 10
  9.5300
 20
  2.1800
 30
0.0
 0
SEQEND
 8
PARTS
 0
POLYLINE
 8
PARTS
 66
1
 10
0.0
 20
0.0
 30
0.0
 0
VERTEX
 8
PARTS
 10
  9.5300
 20
  2.1800
 30
0.0
 0
VERTEX
 8
PARTS
 10
  9.4700
 20
  2.2400
 30
0.0
 0
SEQEND
 8
PARTS
 0
POLYLINE
 8
PARTS
 66
1
 10
0.0
 20
0.0
 30
0.0
 0
VERTEX
 8
PARTS
 10
  9.4700
 20
  2.2400
 30
0.0
 0
VERTEX
 8
PARTS
 10
  9.5300
 20
  2.3000
 30
0.0
 0
SEQEND
 8
PARTS
 0
POLYLINE
 8
PARTS
 66
1
 10
0.0
 20
0.0
 30
0.0
 0
VERTEX
 8
PARTS
 10
  9.5300
 20
  2.3000
 30
0.0
 0
VERTEX
 8
PARTS
 10
  9.4700
 20
  2.3600
 30
0.0
 0
SEQEND
 8
PARTS
 0
POLYLINE
 8
PARTS
 66
1
 10
0.0
 20
0.0
 30
0.0
 0
VERTEX
 8
PARTS
 10
  9.4700
 20
  2.3600
 30
0.0
 0
VERTEX
 8
PARTS
 10
  9.5300
 20
  2.4200
 30
0.0
 0
SEQEND
 8
PARTS
 0
POLYLINE
 8
PARTS
 66
1
 10
0.0
 20
0.0
 30
0.0
 0
VERTEX
 8
PARTS
 10
  9.5300
 20
  2.4200
 30
0.0
 0
VERTEX
 8
PARTS
 10
  9.4700
 20
  2.4800
 30
0.0
 0
SEQEND
 8
PARTS
 0
POLYLINE
 8
PARTS
 66
1
 10
0.0
 20
0.0
 30
0.0
 0
VERTEX
 8
PARTS
 10
  9.4700
 20
  2.4800
 30
0.0
 0
VERTEX
 8
PARTS
 10
  9.5000
 20
  2.5100
 30
0.0
 0
SEQEND
 8
PARTS
 0
POLYLINE
 8
PARTS
 66
1
 10
0.0
 20
0.0
 30
0.0
 0
VERTEX
 8
PARTS
 10
  9.5000
 20
  2.6000
 30
0.0
 0
VERTEX
 8
PARTS
 10
  9.5000
 20
  2.5000
 30
0.0
 0
SEQEND
 8
PARTS
 0
POLYLINE
 8
PARTS
 66
1
 10
0.0
 20
0.0
 30
0.0
 0
VERTEX
 8
PARTS
 10
  9.6000
 20
  2.1000
 30
0.0
 0
VERTEX
 8
PARTS
 10
  9.6000
 20
  2.6000
 30
0.0
 0
SEQEND
 8
PARTS
 0
POLYLINE
 8
PARTS
 66
1
 10
0.0
 20
0.0
 30
0.0
 0
VERTEX
 8
PARTS
 10
  9.6000
 20
  2.6000
 30
0.0
 0
VERTEX
 8
PARTS
 10
  9.4000
 20
  2.6000
 30
0.0
 0
SEQEND
 8
PARTS
 0
POLYLINE
 8
PARTS
 66
1
 10
0.0
 20
0.0
 30
0.0
 0
VERTEX
 8
PARTS
 10
  9.4000
 20
  2.6000
 30
0.0
 0
VERTEX
 8
PARTS
 10
  9.4000
 20
  2.1000
 30
0.0
 0
SEQEND
 8
PARTS
 0
POLYLINE
 8
PARTS
 66
1
 10
0.0
 20
0.0
 30
0.0
 0
VERTEX
 8
PARTS
 10
  9.4000
 20
  2.1000
 30
0.0
 0
VERTEX
 8
PARTS
 10
  9.6000
 20
  2.1000
 30
0.0
 0
SEQEND
 8
PARTS
 0
TEXT
 8
PARTTEXT
 10
 11.7500
 20
  2.5086
 30
0.0
 40
  0.0514
 1
BNC
 0
LINE
 8
PARTS
 10
 11.6000
 20
  2.4000
 30
0.0
 11
 11.7000
 21
  2.4000
 31
0.0
 0
TEXT
 8
PARTS
 10
 11.6400
 20
  2.4300
 30
0.0
 40
  0.0500
 1

 0
LINE
 8
PARTS
 10
 11.8000
 20
  2.2000
 30
0.0
 11
 11.8000
 21
  2.3000
 31
0.0
 0
TEXT
 8
PARTS
 10
 11.7700
 20
  2.1800
 30
0.0
 40
  0.0500
 50
 90.0000
 1

 0
POLYLINE
 8
PARTS
 66
1
 70
1
 10
0.0
 20
0.0
 30
0.0
 0
VERTEX
 8
PARTS
 10
 11.8300
 20
  2.4000
 30
0.0
 42
  0.0985
 0
VERTEX
 8
PARTS
 10
 11.8277
 20
  2.4115
 30
0.0
 42
  0.0985
 0
VERTEX
 8
PARTS
 10
 11.8212
 20
  2.4212
 30
0.0
 42
  0.0985
 0
VERTEX
 8
PARTS
 10
 11.8115
 20
  2.4277
 30
0.0
 42
  0.0985
 0
VERTEX
 8
PARTS
 10
 11.8000
 20
  2.4300
 30
0.0
 42
  0.0985
 0
VERTEX
 8
PARTS
 10
 11.7885
 20
  2.4277
 30
0.0
 42
  0.0985
 0
VERTEX
 8
PARTS
 10
 11.7788
 20
  2.4212
 30
0.0
 42
  0.0985
 0
VERTEX
 8
PARTS
 10
 11.7723
 20
  2.4115
 30
0.0
 42
  0.0985
 0
VERTEX
 8
PARTS
 10
 11.7700
 20
  2.4000
 30
0.0
 42
  0.0985
 0
VERTEX
 8
PARTS
 10
 11.7723
 20
  2.3885
 30
0.0
 42
  0.0985
 0
VERTEX
 8
PARTS
 10
 11.7788
 20
  2.3788
 30
0.0
 42
  0.0985
 0
VERTEX
 8
PARTS
 10
 11.7885
 20
  2.3723
 30
0.0
 42
  0.0985
 0
VERTEX
 8
PARTS
 10
 11.8000
 20
  2.3700
 30
0.0
 42
  0.0985
 0
VERTEX
 8
PARTS
 10
 11.8115
 20
  2.3723
 30
0.0
 42
  0.0985
 0
VERTEX
 8
PARTS
 10
 11.8212
 20
  2.3788
 30
0.0
 42
  0.0985
 0
VERTEX
 8
PARTS
 10
 11.8277
 20
  2.3885
 30
0.0
 42
  0.0985
 0
SEQEND
 8
PARTS
 0
POLYLINE
 8
PARTS
 66
1
 10
0.0
 20
0.0
 30
0.0
 0
VERTEX
 8
PARTS
 10
 11.7000
 20
  2.4000
 30
0.0
 0
VERTEX
 8
PARTS
 10
 11.7700
 20
  2.4000
 30
0.0
 0
SEQEND
 8
PARTS
 0
POLYLINE
 8
PARTS
 66
1
 70
1
 10
0.0
 20
0.0
 30
0.0
 0
VERTEX
 8
PARTS
 10
 11.9000
 20
  2.4000
 30
0.0
 42
  0.0985
 0
VERTEX
 8
PARTS
 10
 11.8924
 20
  2.4383
 30
0.0
 42
  0.0985
 0
VERTEX
 8
PARTS
 10
 11.8707
 20
  2.4707
 30
0.0
 42
  0.0985
 0
VERTEX
 8
PARTS
 10
 11.8383
 20
  2.4924
 30
0.0
 42
  0.0985
 0
VERTEX
 8
PARTS
 10
 11.8000
 20
  2.5000
 30
0.0
 42
  0.0985
 0
VERTEX
 8
PARTS
 10
 11.7617
 20
  2.4924
 30
0.0
 42
  0.0985
 0
VERTEX
 8
PARTS
 10
 11.7293
 20
  2.4707
 30
0.0
 42
  0.0985
 0
VERTEX
 8
PARTS
 10
 11.7076
 20
  2.4383
 30
0.0
 42
  0.0985
 0
VERTEX
 8
PARTS
 10
 11.7000
 20
  2.4000
 30
0.0
 42
  0.0985
 0
VERTEX
 8
PARTS
 10
 11.7076
 20
  2.3617
 30
0.0
 42
  0.0985
 0
VERTEX
 8
PARTS
 10
 11.7293
 20
  2.3293
 30
0.0
 42
  0.0985
 0
VERTEX
 8
PARTS
 10
 11.7617
 20
  2.3076
 30
0.0
 42
  0.0985
 0
VERTEX
 8
PARTS
 10
 11.8000
 20
  2.3000
 30
0.0
 42
  0.0985
 0
VERTEX
 8
PARTS
 10
 11.8383
 20
  2.3076
 30
0.0
 42
  0.0985
 0
VERTEX
 8
PARTS
 10
 11.8707
 20
  2.3293
 30
0.0
 42
  0.0985
 0
VERTEX
 8
PARTS
 10
 11.8924
 20
  2.3617
 30
0.0
 42
  0.0985
 0
SEQEND
 8
PARTS
 0
TEXT
 8
PARTTEXT
 10
  3.5100
 20
  8.0086
 30
0.0
 40
  0.0514
 1
MCL ZFSC-2-1
 0
POLYLINE
 8
PARTS
 66
1
 10
0.0
 20
0.0
 30
0.0
 0
VERTEX
 8
PARTS
 10
  3.7000
 20
  8.7000
 30
0.0
 0
VERTEX
 8
PARTS
 10
  4.3000
 20
  8.7000
 30
0.0
 0
SEQEND
 8
PARTS
 0
POLYLINE
 8
PARTS
 66
1
 10
0.0
 20
0.0
 30
0.0
 0
VERTEX
 8
PARTS
 10
  4.3000
 20
  8.7000
 30
0.0
 0
VERTEX
 8
PARTS
 10
  4.3000
 20
  8.1000
 30
0.0
 0
SEQEND
 8
PARTS
 0
POLYLINE
 8
PARTS
 66
1
 10
0.0
 20
0.0
 30
0.0
 0
VERTEX
 8
PARTS
 10
  4.3000
 20
  8.1000
 30
0.0
 0
VERTEX
 8
PARTS
 10
  3.7000
 20
  8.1000
 30
0.0
 0
SEQEND
 8
PARTS
 0
POLYLINE
 8
PARTS
 66
1
 10
0.0
 20
0.0
 30
0.0
 0
VERTEX
 8
PARTS
 10
  3.7000
 20
  8.1000
 30
0.0
 0
VERTEX
 8
PARTS
 10
  3.7000
 20
  8.7000
 30
0.0
 0
SEQEND
 8
PARTS
 0
POLYLINE
 8
PARTS
 66
1
 10
0.0
 20
0.0
 30
0.0
 0
VERTEX
 8
PARTS
 10
  3.7000
 20
  8.4000
 30
0.0
 0
VERTEX
 8
PARTS
 10
  3.8000
 20
  8.4000
 30
0.0
 0
SEQEND
 8
PARTS
 0
POLYLINE
 8
PARTS
 66
1
 10
0.0
 20
0.0
 30
0.0
 0
VERTEX
 8
PARTS
 10
  3.8000
 20
  8.4000
 30
0.0
 0
VERTEX
 8
PARTS
 10
  4.0000
 20
  8.6000
 30
0.0
 0
SEQEND
 8
PARTS
 0
POLYLINE
 8
PARTS
 66
1
 10
0.0
 20
0.0
 30
0.0
 0
VERTEX
 8
PARTS
 10
  4.0000
 20
  8.6000
 30
0.0
 0
VERTEX
 8
PARTS
 10
  4.3000
 20
  8.6000
 30
0.0
 0
SEQEND
 8
PARTS
 0
POLYLINE
 8
PARTS
 66
1
 10
0.0
 20
0.0
 30
0.0
 0
VERTEX
 8
PARTS
 10
  3.8000
 20
  8.4000
 30
0.0
 0
VERTEX
 8
PARTS
 10
  4.0000
 20
  8.2000
 30
0.0
 0
SEQEND
 8
PARTS
 0
POLYLINE
 8
PARTS
 66
1
 10
0.0
 20
0.0
 30
0.0
 0
VERTEX
 8
PARTS
 10
  4.0000
 20
  8.2000
 30
0.0
 0
VERTEX
 8
PARTS
 10
  4.3000
 20
  8.2000
 30
0.0
 0
SEQEND
 8
PARTS
 0
TEXT
 8
PARTTEXT
 10
  5.9100
 20
  8.2086
 30
0.0
 40
  0.0514
 1
MCL ZFSC-2-1
 0
POLYLINE
 8
PARTS
 66
1
 10
0.0
 20
0.0
 30
0.0
 0
VERTEX
 8
PARTS
 10
  6.1000
 20
  8.9000
 30
0.0
 0
VERTEX
 8
PARTS
 10
  6.7000
 20
  8.9000
 30
0.0
 0
SEQEND
 8
PARTS
 0
POLYLINE
 8
PARTS
 66
1
 10
0.0
 20
0.0
 30
0.0
 0
VERTEX
 8
PARTS
 10
  6.7000
 20
  8.9000
 30
0.0
 0
VERTEX
 8
PARTS
 10
  6.7000
 20
  8.3000
 30
0.0
 0
SEQEND
 8
PARTS
 0
POLYLINE
 8
PARTS
 66
1
 10
0.0
 20
0.0
 30
0.0
 0
VERTEX
 8
PARTS
 10
  6.7000
 20
  8.3000
 30
0.0
 0
VERTEX
 8
PARTS
 10
  6.1000
 20
  8.3000
 30
0.0
 0
SEQEND
 8
PARTS
 0
POLYLINE
 8
PARTS
 66
1
 10
0.0
 20
0.0
 30
0.0
 0
VERTEX
 8
PARTS
 10
  6.1000
 20
  8.3000
 30
0.0
 0
VERTEX
 8
PARTS
 10
  6.1000
 20
  8.9000
 30
0.0
 0
SEQEND
 8
PARTS
 0
POLYLINE
 8
PARTS
 66
1
 10
0.0
 20
0.0
 30
0.0
 0
VERTEX
 8
PARTS
 10
  6.1000
 20
  8.6000
 30
0.0
 0
VERTEX
 8
PARTS
 10
  6.2000
 20
  8.6000
 30
0.0
 0
SEQEND
 8
PARTS
 0
POLYLINE
 8
PARTS
 66
1
 10
0.0
 20
0.0
 30
0.0
 0
VERTEX
 8
PARTS
 10
  6.2000
 20
  8.6000
 30
0.0
 0
VERTEX
 8
PARTS
 10
  6.4000
 20
  8.8000
 30
0.0
 0
SEQEND
 8
PARTS
 0
POLYLINE
 8
PARTS
 66
1
 10
0.0
 20
0.0
 30
0.0
 0
VERTEX
 8
PARTS
 10
  6.4000
 20
  8.8000
 30
0.0
 0
VERTEX
 8
PARTS
 10
  6.7000
 20
  8.8000
 30
0.0
 0
SEQEND
 8
PARTS
 0
POLYLINE
 8
PARTS
 66
1
 10
0.0
 20
0.0
 30
0.0
 0
VERTEX
 8
PARTS
 10
  6.2000
 20
  8.6000
 30
0.0
 0
VERTEX
 8
PARTS
 10
  6.4000
 20
  8.4000
 30
0.0
 0
SEQEND
 8
PARTS
 0
POLYLINE
 8
PARTS
 66
1
 10
0.0
 20
0.0
 30
0.0
 0
VERTEX
 8
PARTS
 10
  6.4000
 20
  8.4000
 30
0.0
 0
VERTEX
 8
PARTS
 10
  6.7000
 20
  8.4000
 30
0.0
 0
SEQEND
 8
PARTS
 0
TEXT
 8
PARTTEXT
 10
 10.3300
 20
  4.4986
 30
0.0
 40
  0.0514
 1
MCL ZFL-500HLN
 0
TEXT
 8
PARTTEXT
 10
 10.3300
 20
  4.3986
 30
0.0
 40
  0.0514
 1
20dB Gain
 0
POLYLINE
 8
PARTS
 66
1
 10
0.0
 20
0.0
 30
0.0
 0
VERTEX
 8
PARTS
 10
 10.3000
 20
  4.6000
 30
0.0
 0
VERTEX
 8
PARTS
 10
 10.3000
 20
  5.0000
 30
0.0
 0
SEQEND
 8
PARTS
 0
POLYLINE
 8
PARTS
 66
1
 10
0.0
 20
0.0
 30
0.0
 0
VERTEX
 8
PARTS
 10
 10.3000
 20
  5.0000
 30
0.0
 0
VERTEX
 8
PARTS
 10
 10.3000
 20
  5.0000
 30
0.0
 0
VERTEX
 8
PARTS
 10
 10.7000
 20
  4.8000
 30
0.0
 0
VERTEX
 8
PARTS
 10
 10.3000
 20
  4.6000
 30
0.0
 0
SEQEND
 8
PARTS
 0
TEXT
 8
PARTTEXT
 10
 11.7500
 20
  9.2086
 30
0.0
 40
  0.0514
 1
BNC
 0
LINE
 8
PARTS
 10
 11.6000
 20
  9.1000
 30
0.0
 11
 11.7000
 21
  9.1000
 31
0.0
 0
TEXT
 8
PARTS
 10
 11.6400
 20
  9.1300
 30
0.0
 40
  0.0500
 1

 0
LINE
 8
PARTS
 10
 11.8000
 20
  8.9000
 30
0.0
 11
 11.8000
 21
  9.0000
 31
0.0
 0
TEXT
 8
PARTS
 10
 11.7700
 20
  8.8800
 30
0.0
 40
  0.0500
 50
 90.0000
 1

 0
POLYLINE
 8
PARTS
 66
1
 70
1
 10
0.0
 20
0.0
 30
0.0
 0
VERTEX
 8
PARTS
 10
 11.8300
 20
  9.1000
 30
0.0
 42
  0.0985
 0
VERTEX
 8
PARTS
 10
 11.8277
 20
  9.1115
 30
0.0
 42
  0.0985
 0
VERTEX
 8
PARTS
 10
 11.8212
 20
  9.1212
 30
0.0
 42
  0.0985
 0
VERTEX
 8
PARTS
 10
 11.8115
 20
  9.1277
 30
0.0
 42
  0.0985
 0
VERTEX
 8
PARTS
 10
 11.8000
 20
  9.1300
 30
0.0
 42
  0.0985
 0
VERTEX
 8
PARTS
 10
 11.7885
 20
  9.1277
 30
0.0
 42
  0.0985
 0
VERTEX
 8
PARTS
 10
 11.7788
 20
  9.1212
 30
0.0
 42
  0.0985
 0
VERTEX
 8
PARTS
 10
 11.7723
 20
  9.1115
 30
0.0
 42
  0.0985
 0
VERTEX
 8
PARTS
 10
 11.7700
 20
  9.1000
 30
0.0
 42
  0.0985
 0
VERTEX
 8
PARTS
 10
 11.7723
 20
  9.0885
 30
0.0
 42
  0.0985
 0
VERTEX
 8
PARTS
 10
 11.7788
 20
  9.0788
 30
0.0
 42
  0.0985
 0
VERTEX
 8
PARTS
 10
 11.7885
 20
  9.0723
 30
0.0
 42
  0.0985
 0
VERTEX
 8
PARTS
 10
 11.8000
 20
  9.0700
 30
0.0
 42
  0.0985
 0
VERTEX
 8
PARTS
 10
 11.8115
 20
  9.0723
 30
0.0
 42
  0.0985
 0
VERTEX
 8
PARTS
 10
 11.8212
 20
  9.0788
 30
0.0
 42
  0.0985
 0
VERTEX
 8
PARTS
 10
 11.8277
 20
  9.0885
 30
0.0
 42
  0.0985
 0
SEQEND
 8
PARTS
 0
POLYLINE
 8
PARTS
 66
1
 10
0.0
 20
0.0
 30
0.0
 0
VERTEX
 8
PARTS
 10
 11.7000
 20
  9.1000
 30
0.0
 0
VERTEX
 8
PARTS
 10
 11.7700
 20
  9.1000
 30
0.0
 0
SEQEND
 8
PARTS
 0
POLYLINE
 8
PARTS
 66
1
 70
1
 10
0.0
 20
0.0
 30
0.0
 0
VERTEX
 8
PARTS
 10
 11.9000
 20
  9.1000
 30
0.0
 42
  0.0985
 0
VERTEX
 8
PARTS
 10
 11.8924
 20
  9.1383
 30
0.0
 42
  0.0985
 0
VERTEX
 8
PARTS
 10
 11.8707
 20
  9.1707
 30
0.0
 42
  0.0985
 0
VERTEX
 8
PARTS
 10
 11.8383
 20
  9.1924
 30
0.0
 42
  0.0985
 0
VERTEX
 8
PARTS
 10
 11.8000
 20
  9.2000
 30
0.0
 42
  0.0985
 0
VERTEX
 8
PARTS
 10
 11.7617
 20
  9.1924
 30
0.0
 42
  0.0985
 0
VERTEX
 8
PARTS
 10
 11.7293
 20
  9.1707
 30
0.0
 42
  0.0985
 0
VERTEX
 8
PARTS
 10
 11.7076
 20
  9.1383
 30
0.0
 42
  0.0985
 0
VERTEX
 8
PARTS
 10
 11.7000
 20
  9.1000
 30
0.0
 42
  0.0985
 0
VERTEX
 8
PARTS
 10
 11.7076
 20
  9.0617
 30
0.0
 42
  0.0985
 0
VERTEX
 8
PARTS
 10
 11.7293
 20
  9.0293
 30
0.0
 42
  0.0985
 0
VERTEX
 8
PARTS
 10
 11.7617
 20
  9.0076
 30
0.0
 42
  0.0985
 0
VERTEX
 8
PARTS
 10
 11.8000
 20
  9.0000
 30
0.0
 42
  0.0985
 0
VERTEX
 8
PARTS
 10
 11.8383
 20
  9.0076
 30
0.0
 42
  0.0985
 0
VERTEX
 8
PARTS
 10
 11.8707
 20
  9.0293
 30
0.0
 42
  0.0985
 0
VERTEX
 8
PARTS
 10
 11.8924
 20
  9.0617
 30
0.0
 42
  0.0985
 0
SEQEND
 8
PARTS
 0
TEXT
 8
PARTTEXT
 10
  0.8500
 20
  3.4086
 30
0.0
 40
  0.0514
 1
SMA
 0
LINE
 8
PARTS
 10
  1.1000
 20
  3.3000
 30
0.0
 11
  1.0000
 21
  3.3000
 31
0.0
 0
TEXT
 8
PARTS
 10
  1.0600
 20
  3.3300
 30
0.0
 40
  0.0500
 1

 0
LINE
 8
PARTS
 10
  0.9000
 20
  3.1000
 30
0.0
 11
  0.9000
 21
  3.2000
 31
0.0
 0
TEXT
 8
PARTS
 10
  0.8700
 20
  3.0800
 30
0.0
 40
  0.0500
 50
 90.0000
 1

 0
POLYLINE
 8
PARTS
 66
1
 70
1
 10
0.0
 20
0.0
 30
0.0
 0
VERTEX
 8
PARTS
 10
  0.9300
 20
  3.3000
 30
0.0
 42
  0.0985
 0
VERTEX
 8
PARTS
 10
  0.9277
 20
  3.3115
 30
0.0
 42
  0.0985
 0
VERTEX
 8
PARTS
 10
  0.9212
 20
  3.3212
 30
0.0
 42
  0.0985
 0
VERTEX
 8
PARTS
 10
  0.9115
 20
  3.3277
 30
0.0
 42
  0.0985
 0
VERTEX
 8
PARTS
 10
  0.9000
 20
  3.3300
 30
0.0
 42
  0.0985
 0
VERTEX
 8
PARTS
 10
  0.8885
 20
  3.3277
 30
0.0
 42
  0.0985
 0
VERTEX
 8
PARTS
 10
  0.8788
 20
  3.3212
 30
0.0
 42
  0.0985
 0
VERTEX
 8
PARTS
 10
  0.8723
 20
  3.3115
 30
0.0
 42
  0.0985
 0
VERTEX
 8
PARTS
 10
  0.8700
 20
  3.3000
 30
0.0
 42
  0.0985
 0
VERTEX
 8
PARTS
 10
  0.8723
 20
  3.2885
 30
0.0
 42
  0.0985
 0
VERTEX
 8
PARTS
 10
  0.8788
 20
  3.2788
 30
0.0
 42
  0.0985
 0
VERTEX
 8
PARTS
 10
  0.8885
 20
  3.2723
 30
0.0
 42
  0.0985
 0
VERTEX
 8
PARTS
 10
  0.9000
 20
  3.2700
 30
0.0
 42
  0.0985
 0
VERTEX
 8
PARTS
 10
  0.9115
 20
  3.2723
 30
0.0
 42
  0.0985
 0
VERTEX
 8
PARTS
 10
  0.9212
 20
  3.2788
 30
0.0
 42
  0.0985
 0
VERTEX
 8
PARTS
 10
  0.9277
 20
  3.2885
 30
0.0
 42
  0.0985
 0
SEQEND
 8
PARTS
 0
POLYLINE
 8
PARTS
 66
1
 10
0.0
 20
0.0
 30
0.0
 0
VERTEX
 8
PARTS
 10
  1.0000
 20
  3.3000
 30
0.0
 0
VERTEX
 8
PARTS
 10
  0.9300
 20
  3.3000
 30
0.0
 0
SEQEND
 8
PARTS
 0
POLYLINE
 8
PARTS
 66
1
 70
1
 10
0.0
 20
0.0
 30
0.0
 0
VERTEX
 8
PARTS
 10
  1.0000
 20
  3.3000
 30
0.0
 42
  0.0985
 0
VERTEX
 8
PARTS
 10
  0.9924
 20
  3.3383
 30
0.0
 42
  0.0985
 0
VERTEX
 8
PARTS
 10
  0.9707
 20
  3.3707
 30
0.0
 42
  0.0985
 0
VERTEX
 8
PARTS
 10
  0.9383
 20
  3.3924
 30
0.0
 42
  0.0985
 0
VERTEX
 8
PARTS
 10
  0.9000
 20
  3.4000
 30
0.0
 42
  0.0985
 0
VERTEX
 8
PARTS
 10
  0.8617
 20
  3.3924
 30
0.0
 42
  0.0985
 0
VERTEX
 8
PARTS
 10
  0.8293
 20
  3.3707
 30
0.0
 42
  0.0985
 0
VERTEX
 8
PARTS
 10
  0.8076
 20
  3.3383
 30
0.0
 42
  0.0985
 0
VERTEX
 8
PARTS
 10
  0.8000
 20
  3.3000
 30
0.0
 42
  0.0985
 0
VERTEX
 8
PARTS
 10
  0.8076
 20
  3.2617
 30
0.0
 42
  0.0985
 0
VERTEX
 8
PARTS
 10
  0.8293
 20
  3.2293
 30
0.0
 42
  0.0985
 0
VERTEX
 8
PARTS
 10
  0.8617
 20
  3.2076
 30
0.0
 42
  0.0985
 0
VERTEX
 8
PARTS
 10
  0.9000
 20
  3.2000
 30
0.0
 42
  0.0985
 0
VERTEX
 8
PARTS
 10
  0.9383
 20
  3.2076
 30
0.0
 42
  0.0985
 0
VERTEX
 8
PARTS
 10
  0.9707
 20
  3.2293
 30
0.0
 42
  0.0985
 0
VERTEX
 8
PARTS
 10
  0.9924
 20
  3.2617
 30
0.0
 42
  0.0985
 0
SEQEND
 8
PARTS
 0
TEXT
 8
PARTTEXT
 10
  0.8500
 20
  1.6086
 30
0.0
 40
  0.0514
 1
SMA
 0
LINE
 8
PARTS
 10
  1.1000
 20
  1.5000
 30
0.0
 11
  1.0000
 21
  1.5000
 31
0.0
 0
TEXT
 8
PARTS
 10
  1.0600
 20
  1.5300
 30
0.0
 40
  0.0500
 1

 0
LINE
 8
PARTS
 10
  0.9000
 20
  1.3000
 30
0.0
 11
  0.9000
 21
  1.4000
 31
0.0
 0
TEXT
 8
PARTS
 10
  0.8700
 20
  1.2800
 30
0.0
 40
  0.0500
 50
 90.0000
 1

 0
POLYLINE
 8
PARTS
 66
1
 70
1
 10
0.0
 20
0.0
 30
0.0
 0
VERTEX
 8
PARTS
 10
  0.9300
 20
  1.5000
 30
0.0
 42
  0.0985
 0
VERTEX
 8
PARTS
 10
  0.9277
 20
  1.5115
 30
0.0
 42
  0.0985
 0
VERTEX
 8
PARTS
 10
  0.9212
 20
  1.5212
 30
0.0
 42
  0.0985
 0
VERTEX
 8
PARTS
 10
  0.9115
 20
  1.5277
 30
0.0
 42
  0.0985
 0
VERTEX
 8
PARTS
 10
  0.9000
 20
  1.5300
 30
0.0
 42
  0.0985
 0
VERTEX
 8
PARTS
 10
  0.8885
 20
  1.5277
 30
0.0
 42
  0.0985
 0
VERTEX
 8
PARTS
 10
  0.8788
 20
  1.5212
 30
0.0
 42
  0.0985
 0
VERTEX
 8
PARTS
 10
  0.8723
 20
  1.5115
 30
0.0
 42
  0.0985
 0
VERTEX
 8
PARTS
 10
  0.8700
 20
  1.5000
 30
0.0
 42
  0.0985
 0
VERTEX
 8
PARTS
 10
  0.8723
 20
  1.4885
 30
0.0
 42
  0.0985
 0
VERTEX
 8
PARTS
 10
  0.8788
 20
  1.4788
 30
0.0
 42
  0.0985
 0
VERTEX
 8
PARTS
 10
  0.8885
 20
  1.4723
 30
0.0
 42
  0.0985
 0
VERTEX
 8
PARTS
 10
  0.9000
 20
  1.4700
 30
0.0
 42
  0.0985
 0
VERTEX
 8
PARTS
 10
  0.9115
 20
  1.4723
 30
0.0
 42
  0.0985
 0
VERTEX
 8
PARTS
 10
  0.9212
 20
  1.4788
 30
0.0
 42
  0.0985
 0
VERTEX
 8
PARTS
 10
  0.9277
 20
  1.4885
 30
0.0
 42
  0.0985
 0
SEQEND
 8
PARTS
 0
POLYLINE
 8
PARTS
 66
1
 10
0.0
 20
0.0
 30
0.0
 0
VERTEX
 8
PARTS
 10
  1.0000
 20
  1.5000
 30
0.0
 0
VERTEX
 8
PARTS
 10
  0.9300
 20
  1.5000
 30
0.0
 0
SEQEND
 8
PARTS
 0
POLYLINE
 8
PARTS
 66
1
 70
1
 10
0.0
 20
0.0
 30
0.0
 0
VERTEX
 8
PARTS
 10
  1.0000
 20
  1.5000
 30
0.0
 42
  0.0985
 0
VERTEX
 8
PARTS
 10
  0.9924
 20
  1.5383
 30
0.0
 42
  0.0985
 0
VERTEX
 8
PARTS
 10
  0.9707
 20
  1.5707
 30
0.0
 42
  0.0985
 0
VERTEX
 8
PARTS
 10
  0.9383
 20
  1.5924
 30
0.0
 42
  0.0985
 0
VERTEX
 8
PARTS
 10
  0.9000
 20
  1.6000
 30
0.0
 42
  0.0985
 0
VERTEX
 8
PARTS
 10
  0.8617
 20
  1.5924
 30
0.0
 42
  0.0985
 0
VERTEX
 8
PARTS
 10
  0.8293
 20
  1.5707
 30
0.0
 42
  0.0985
 0
VERTEX
 8
PARTS
 10
  0.8076
 20
  1.5383
 30
0.0
 42
  0.0985
 0
VERTEX
 8
PARTS
 10
  0.8000
 20
  1.5000
 30
0.0
 42
  0.0985
 0
VERTEX
 8
PARTS
 10
  0.8076
 20
  1.4617
 30
0.0
 42
  0.0985
 0
VERTEX
 8
PARTS
 10
  0.8293
 20
  1.4293
 30
0.0
 42
  0.0985
 0
VERTEX
 8
PARTS
 10
  0.8617
 20
  1.4076
 30
0.0
 42
  0.0985
 0
VERTEX
 8
PARTS
 10
  0.9000
 20
  1.4000
 30
0.0
 42
  0.0985
 0
VERTEX
 8
PARTS
 10
  0.9383
 20
  1.4076
 30
0.0
 42
  0.0985
 0
VERTEX
 8
PARTS
 10
  0.9707
 20
  1.4293
 30
0.0
 42
  0.0985
 0
VERTEX
 8
PARTS
 10
  0.9924
 20
  1.4617
 30
0.0
 42
  0.0985
 0
SEQEND
 8
PARTS
 0
TEXT
 8
PARTTEXT
 10
 10.3300
 20
  2.0986
 30
0.0
 40
  0.0514
 1
MCL ZFL-500HLN
 0
TEXT
 8
PARTTEXT
 10
 10.3300
 20
  1.9986
 30
0.0
 40
  0.0514
 1
20dB Gain
 0
POLYLINE
 8
PARTS
 66
1
 10
0.0
 20
0.0
 30
0.0
 0
VERTEX
 8
PARTS
 10
 10.3000
 20
  2.2000
 30
0.0
 0
VERTEX
 8
PARTS
 10
 10.3000
 20
  2.6000
 30
0.0
 0
SEQEND
 8
PARTS
 0
POLYLINE
 8
PARTS
 66
1
 10
0.0
 20
0.0
 30
0.0
 0
VERTEX
 8
PARTS
 10
 10.3000
 20
  2.6000
 30
0.0
 0
VERTEX
 8
PARTS
 10
 10.3000
 20
  2.6000
 30
0.0
 0
VERTEX
 8
PARTS
 10
 10.7000
 20
  2.4000
 30
0.0
 0
VERTEX
 8
PARTS
 10
 10.3000
 20
  2.2000
 30
0.0
 0
SEQEND
 8
PARTS
 0
TEXT
 8
PARTTEXT
 10
  3.0100
 20
  5.5086
 30
0.0
 40
  0.0514
 1
MCL ZFSC-2-1
 0
POLYLINE
 8
PARTS
 66
1
 10
0.0
 20
0.0
 30
0.0
 0
VERTEX
 8
PARTS
 10
  3.2000
 20
  6.2000
 30
0.0
 0
VERTEX
 8
PARTS
 10
  3.8000
 20
  6.2000
 30
0.0
 0
SEQEND
 8
PARTS
 0
POLYLINE
 8
PARTS
 66
1
 10
0.0
 20
0.0
 30
0.0
 0
VERTEX
 8
PARTS
 10
  3.8000
 20
  6.2000
 30
0.0
 0
VERTEX
 8
PARTS
 10
  3.8000
 20
  5.6000
 30
0.0
 0
SEQEND
 8
PARTS
 0
POLYLINE
 8
PARTS
 66
1
 10
0.0
 20
0.0
 30
0.0
 0
VERTEX
 8
PARTS
 10
  3.8000
 20
  5.6000
 30
0.0
 0
VERTEX
 8
PARTS
 10
  3.2000
 20
  5.6000
 30
0.0
 0
SEQEND
 8
PARTS
 0
POLYLINE
 8
PARTS
 66
1
 10
0.0
 20
0.0
 30
0.0
 0
VERTEX
 8
PARTS
 10
  3.2000
 20
  5.6000
 30
0.0
 0
VERTEX
 8
PARTS
 10
  3.2000
 20
  6.2000
 30
0.0
 0
SEQEND
 8
PARTS
 0
POLYLINE
 8
PARTS
 66
1
 10
0.0
 20
0.0
 30
0.0
 0
VERTEX
 8
PARTS
 10
  3.2000
 20
  5.9000
 30
0.0
 0
VERTEX
 8
PARTS
 10
  3.3000
 20
  5.9000
 30
0.0
 0
SEQEND
 8
PARTS
 0
POLYLINE
 8
PARTS
 66
1
 10
0.0
 20
0.0
 30
0.0
 0
VERTEX
 8
PARTS
 10
  3.3000
 20
  5.9000
 30
0.0
 0
VERTEX
 8
PARTS
 10
  3.5000
 20
  6.1000
 30
0.0
 0
SEQEND
 8
PARTS
 0
POLYLINE
 8
PARTS
 66
1
 10
0.0
 20
0.0
 30
0.0
 0
VERTEX
 8
PARTS
 10
  3.5000
 20
  6.1000
 30
0.0
 0
VERTEX
 8
PARTS
 10
  3.8000
 20
  6.1000
 30
0.0
 0
SEQEND
 8
PARTS
 0
POLYLINE
 8
PARTS
 66
1
 10
0.0
 20
0.0
 30
0.0
 0
VERTEX
 8
PARTS
 10
  3.3000
 20
  5.9000
 30
0.0
 0
VERTEX
 8
PARTS
 10
  3.5000
 20
  5.7000
 30
0.0
 0
SEQEND
 8
PARTS
 0
POLYLINE
 8
PARTS
 66
1
 10
0.0
 20
0.0
 30
0.0
 0
VERTEX
 8
PARTS
 10
  3.5000
 20
  5.7000
 30
0.0
 0
VERTEX
 8
PARTS
 10
  3.8000
 20
  5.7000
 30
0.0
 0
SEQEND
 8
PARTS
 0
TEXT
 8
PARTTEXT
 10
 11.7500
 20
  8.5086
 30
0.0
 40
  0.0514
 1
BNC
 0
LINE
 8
PARTS
 10
 11.6000
 20
  8.4000
 30
0.0
 11
 11.7000
 21
  8.4000
 31
0.0
 0
TEXT
 8
PARTS
 10
 11.6400
 20
  8.4300
 30
0.0
 40
  0.0500
 1

 0
LINE
 8
PARTS
 10
 11.8000
 20
  8.2000
 30
0.0
 11
 11.8000
 21
  8.3000
 31
0.0
 0
TEXT
 8
PARTS
 10
 11.7700
 20
  8.1800
 30
0.0
 40
  0.0500
 50
 90.0000
 1

 0
POLYLINE
 8
PARTS
 66
1
 70
1
 10
0.0
 20
0.0
 30
0.0
 0
VERTEX
 8
PARTS
 10
 11.8300
 20
  8.4000
 30
0.0
 42
  0.0985
 0
VERTEX
 8
PARTS
 10
 11.8277
 20
  8.4115
 30
0.0
 42
  0.0985
 0
VERTEX
 8
PARTS
 10
 11.8212
 20
  8.4212
 30
0.0
 42
  0.0985
 0
VERTEX
 8
PARTS
 10
 11.8115
 20
  8.4277
 30
0.0
 42
  0.0985
 0
VERTEX
 8
PARTS
 10
 11.8000
 20
  8.4300
 30
0.0
 42
  0.0985
 0
VERTEX
 8
PARTS
 10
 11.7885
 20
  8.4277
 30
0.0
 42
  0.0985
 0
VERTEX
 8
PARTS
 10
 11.7788
 20
  8.4212
 30
0.0
 42
  0.0985
 0
VERTEX
 8
PARTS
 10
 11.7723
 20
  8.4115
 30
0.0
 42
  0.0985
 0
VERTEX
 8
PARTS
 10
 11.7700
 20
  8.4000
 30
0.0
 42
  0.0985
 0
VERTEX
 8
PARTS
 10
 11.7723
 20
  8.3885
 30
0.0
 42
  0.0985
 0
VERTEX
 8
PARTS
 10
 11.7788
 20
  8.3788
 30
0.0
 42
  0.0985
 0
VERTEX
 8
PARTS
 10
 11.7885
 20
  8.3723
 30
0.0
 42
  0.0985
 0
VERTEX
 8
PARTS
 10
 11.8000
 20
  8.3700
 30
0.0
 42
  0.0985
 0
VERTEX
 8
PARTS
 10
 11.8115
 20
  8.3723
 30
0.0
 42
  0.0985
 0
VERTEX
 8
PARTS
 10
 11.8212
 20
  8.3788
 30
0.0
 42
  0.0985
 0
VERTEX
 8
PARTS
 10
 11.8277
 20
  8.3885
 30
0.0
 42
  0.0985
 0
SEQEND
 8
PARTS
 0
POLYLINE
 8
PARTS
 66
1
 10
0.0
 20
0.0
 30
0.0
 0
VERTEX
 8
PARTS
 10
 11.7000
 20
  8.4000
 30
0.0
 0
VERTEX
 8
PARTS
 10
 11.7700
 20
  8.4000
 30
0.0
 0
SEQEND
 8
PARTS
 0
POLYLINE
 8
PARTS
 66
1
 70
1
 10
0.0
 20
0.0
 30
0.0
 0
VERTEX
 8
PARTS
 10
 11.9000
 20
  8.4000
 30
0.0
 42
  0.0985
 0
VERTEX
 8
PARTS
 10
 11.8924
 20
  8.4383
 30
0.0
 42
  0.0985
 0
VERTEX
 8
PARTS
 10
 11.8707
 20
  8.4707
 30
0.0
 42
  0.0985
 0
VERTEX
 8
PARTS
 10
 11.8383
 20
  8.4924
 30
0.0
 42
  0.0985
 0
VERTEX
 8
PARTS
 10
 11.8000
 20
  8.5000
 30
0.0
 42
  0.0985
 0
VERTEX
 8
PARTS
 10
 11.7617
 20
  8.4924
 30
0.0
 42
  0.0985
 0
VERTEX
 8
PARTS
 10
 11.7293
 20
  8.4707
 30
0.0
 42
  0.0985
 0
VERTEX
 8
PARTS
 10
 11.7076
 20
  8.4383
 30
0.0
 42
  0.0985
 0
VERTEX
 8
PARTS
 10
 11.7000
 20
  8.4000
 30
0.0
 42
  0.0985
 0
VERTEX
 8
PARTS
 10
 11.7076
 20
  8.3617
 30
0.0
 42
  0.0985
 0
VERTEX
 8
PARTS
 10
 11.7293
 20
  8.3293
 30
0.0
 42
  0.0985
 0
VERTEX
 8
PARTS
 10
 11.7617
 20
  8.3076
 30
0.0
 42
  0.0985
 0
VERTEX
 8
PARTS
 10
 11.8000
 20
  8.3000
 30
0.0
 42
  0.0985
 0
VERTEX
 8
PARTS
 10
 11.8383
 20
  8.3076
 30
0.0
 42
  0.0985
 0
VERTEX
 8
PARTS
 10
 11.8707
 20
  8.3293
 30
0.0
 42
  0.0985
 0
VERTEX
 8
PARTS
 10
 11.8924
 20
  8.3617
 30
0.0
 42
  0.0985
 0
SEQEND
 8
PARTS
 0
TEXT
 8
PARTTEXT
 10
  5.3500
 20
  8.2086
 30
0.0
 40
  0.0514
 1
3dB
 0
POLYLINE
 8
PARTS
 66
1
 10
0.0
 20
0.0
 30
0.0
 0
VERTEX
 8
PARTS
 10
  5.4300
 20
  8.5000
 30
0.0
 0
VERTEX
 8
PARTS
 10
  5.4100
 20
  8.5200
 30
0.0
 0
SEQEND
 8
PARTS
 0
POLYLINE
 8
PARTS
 66
1
 10
0.0
 20
0.0
 30
0.0
 0
VERTEX
 8
PARTS
 10
  5.4200
 20
  8.3700
 30
0.0
 0
VERTEX
 8
PARTS
 10
  5.4300
 20
  8.3800
 30
0.0
 0
SEQEND
 8
PARTS
 0
POLYLINE
 8
PARTS
 66
1
 10
0.0
 20
0.0
 30
0.0
 0
VERTEX
 8
PARTS
 10
  5.4200
 20
  8.6100
 30
0.0
 0
VERTEX
 8
PARTS
 10
  5.4300
 20
  8.6200
 30
0.0
 0
SEQEND
 8
PARTS
 0
POLYLINE
 8
PARTS
 66
1
 10
0.0
 20
0.0
 30
0.0
 0
VERTEX
 8
PARTS
 10
  5.4000
 20
  8.3000
 30
0.0
 0
VERTEX
 8
PARTS
 10
  5.4000
 20
  8.3500
 30
0.0
 0
SEQEND
 8
PARTS
 0
POLYLINE
 8
PARTS
 66
1
 10
0.0
 20
0.0
 30
0.0
 0
VERTEX
 8
PARTS
 10
  5.4000
 20
  8.3500
 30
0.0
 0
VERTEX
 8
PARTS
 10
  5.4300
 20
  8.3800
 30
0.0
 0
SEQEND
 8
PARTS
 0
POLYLINE
 8
PARTS
 66
1
 10
0.0
 20
0.0
 30
0.0
 0
VERTEX
 8
PARTS
 10
  5.4300
 20
  8.3800
 30
0.0
 0
VERTEX
 8
PARTS
 10
  5.3700
 20
  8.4400
 30
0.0
 0
SEQEND
 8
PARTS
 0
POLYLINE
 8
PARTS
 66
1
 10
0.0
 20
0.0
 30
0.0
 0
VERTEX
 8
PARTS
 10
  5.3700
 20
  8.4400
 30
0.0
 0
VERTEX
 8
PARTS
 10
  5.4300
 20
  8.5000
 30
0.0
 0
SEQEND
 8
PARTS
 0
POLYLINE
 8
PARTS
 66
1
 10
0.0
 20
0.0
 30
0.0
 0
VERTEX
 8
PARTS
 10
  5.4300
 20
  8.5000
 30
0.0
 0
VERTEX
 8
PARTS
 10
  5.3700
 20
  8.5600
 30
0.0
 0
SEQEND
 8
PARTS
 0
POLYLINE
 8
PARTS
 66
1
 10
0.0
 20
0.0
 30
0.0
 0
VERTEX
 8
PARTS
 10
  5.3700
 20
  8.5600
 30
0.0
 0
VERTEX
 8
PARTS
 10
  5.4300
 20
  8.6200
 30
0.0
 0
SEQEND
 8
PARTS
 0
POLYLINE
 8
PARTS
 66
1
 10
0.0
 20
0.0
 30
0.0
 0
VERTEX
 8
PARTS
 10
  5.4300
 20
  8.6200
 30
0.0
 0
VERTEX
 8
PARTS
 10
  5.3700
 20
  8.6800
 30
0.0
 0
SEQEND
 8
PARTS
 0
POLYLINE
 8
PARTS
 66
1
 10
0.0
 20
0.0
 30
0.0
 0
VERTEX
 8
PARTS
 10
  5.3700
 20
  8.6800
 30
0.0
 0
VERTEX
 8
PARTS
 10
  5.4000
 20
  8.7100
 30
0.0
 0
SEQEND
 8
PARTS
 0
POLYLINE
 8
PARTS
 66
1
 10
0.0
 20
0.0
 30
0.0
 0
VERTEX
 8
PARTS
 10
  5.4000
 20
  8.8000
 30
0.0
 0
VERTEX
 8
PARTS
 10
  5.4000
 20
  8.7000
 30
0.0
 0
SEQEND
 8
PARTS
 0
POLYLINE
 8
PARTS
 66
1
 10
0.0
 20
0.0
 30
0.0
 0
VERTEX
 8
PARTS
 10
  5.5000
 20
  8.3000
 30
0.0
 0
VERTEX
 8
PARTS
 10
  5.5000
 20
  8.8000
 30
0.0
 0
SEQEND
 8
PARTS
 0
POLYLINE
 8
PARTS
 66
1
 10
0.0
 20
0.0
 30
0.0
 0
VERTEX
 8
PARTS
 10
  5.5000
 20
  8.8000
 30
0.0
 0
VERTEX
 8
PARTS
 10
  5.3000
 20
  8.8000
 30
0.0
 0
SEQEND
 8
PARTS
 0
POLYLINE
 8
PARTS
 66
1
 10
0.0
 20
0.0
 30
0.0
 0
VERTEX
 8
PARTS
 10
  5.3000
 20
  8.8000
 30
0.0
 0
VERTEX
 8
PARTS
 10
  5.3000
 20
  8.3000
 30
0.0
 0
SEQEND
 8
PARTS
 0
POLYLINE
 8
PARTS
 66
1
 10
0.0
 20
0.0
 30
0.0
 0
VERTEX
 8
PARTS
 10
  5.3000
 20
  8.3000
 30
0.0
 0
VERTEX
 8
PARTS
 10
  5.5000
 20
  8.3000
 30
0.0
 0
SEQEND
 8
PARTS
 0
TEXT
 8
PARTTEXT
 10
 10.3300
 20
  3.2986
 30
0.0
 40
  0.0514
 1
MCL ZFL-500HLN
 0
TEXT
 8
PARTTEXT
 10
 10.3300
 20
  3.1986
 30
0.0
 40
  0.0514
 1
20dB Gain
 0
POLYLINE
 8
PARTS
 66
1
 10
0.0
 20
0.0
 30
0.0
 0
VERTEX
 8
PARTS
 10
 10.3000
 20
  3.4000
 30
0.0
 0
VERTEX
 8
PARTS
 10
 10.3000
 20
  3.8000
 30
0.0
 0
SEQEND
 8
PARTS
 0
POLYLINE
 8
PARTS
 66
1
 10
0.0
 20
0.0
 30
0.0
 0
VERTEX
 8
PARTS
 10
 10.3000
 20
  3.8000
 30
0.0
 0
VERTEX
 8
PARTS
 10
 10.3000
 20
  3.8000
 30
0.0
 0
VERTEX
 8
PARTS
 10
 10.7000
 20
  3.6000
 30
0.0
 0
VERTEX
 8
PARTS
 10
 10.3000
 20
  3.4000
 30
0.0
 0
SEQEND
 8
PARTS
 0
TEXT
 8
PARTTEXT
 10
 10.3300
 20
  8.7986
 30
0.0
 40
  0.0514
 1
MCL ZFL-500HLN
 0
TEXT
 8
PARTTEXT
 10
 10.3300
 20
  8.6986
 30
0.0
 40
  0.0514
 1
20dB Gain
 0
POLYLINE
 8
PARTS
 66
1
 10
0.0
 20
0.0
 30
0.0
 0
VERTEX
 8
PARTS
 10
 10.3000
 20
  8.9000
 30
0.0
 0
VERTEX
 8
PARTS
 10
 10.3000
 20
  9.3000
 30
0.0
 0
SEQEND
 8
PARTS
 0
POLYLINE
 8
PARTS
 66
1
 10
0.0
 20
0.0
 30
0.0
 0
VERTEX
 8
PARTS
 10
 10.3000
 20
  9.3000
 30
0.0
 0
VERTEX
 8
PARTS
 10
 10.3000
 20
  9.3000
 30
0.0
 0
VERTEX
 8
PARTS
 10
 10.7000
 20
  9.1000
 30
0.0
 0
VERTEX
 8
PARTS
 10
 10.3000
 20
  8.9000
 30
0.0
 0
SEQEND
 8
PARTS
 0
TEXT
 8
PARTTEXT
 10
 11.7500
 20
  7.4086
 30
0.0
 40
  0.0514
 1
SMA
 0
LINE
 8
PARTS
 10
 11.6000
 20
  7.3000
 30
0.0
 11
 11.7000
 21
  7.3000
 31
0.0
 0
TEXT
 8
PARTS
 10
 11.6400
 20
  7.3300
 30
0.0
 40
  0.0500
 1

 0
LINE
 8
PARTS
 10
 11.8000
 20
  7.1000
 30
0.0
 11
 11.8000
 21
  7.2000
 31
0.0
 0
TEXT
 8
PARTS
 10
 11.7700
 20
  7.0800
 30
0.0
 40
  0.0500
 50
 90.0000
 1

 0
POLYLINE
 8
PARTS
 66
1
 70
1
 10
0.0
 20
0.0
 30
0.0
 0
VERTEX
 8
PARTS
 10
 11.8300
 20
  7.3000
 30
0.0
 42
  0.0985
 0
VERTEX
 8
PARTS
 10
 11.8277
 20
  7.3115
 30
0.0
 42
  0.0985
 0
VERTEX
 8
PARTS
 10
 11.8212
 20
  7.3212
 30
0.0
 42
  0.0985
 0
VERTEX
 8
PARTS
 10
 11.8115
 20
  7.3277
 30
0.0
 42
  0.0985
 0
VERTEX
 8
PARTS
 10
 11.8000
 20
  7.3300
 30
0.0
 42
  0.0985
 0
VERTEX
 8
PARTS
 10
 11.7885
 20
  7.3277
 30
0.0
 42
  0.0985
 0
VERTEX
 8
PARTS
 10
 11.7788
 20
  7.3212
 30
0.0
 42
  0.0985
 0
VERTEX
 8
PARTS
 10
 11.7723
 20
  7.3115
 30
0.0
 42
  0.0985
 0
VERTEX
 8
PARTS
 10
 11.7700
 20
  7.3000
 30
0.0
 42
  0.0985
 0
VERTEX
 8
PARTS
 10
 11.7723
 20
  7.2885
 30
0.0
 42
  0.0985
 0
VERTEX
 8
PARTS
 10
 11.7788
 20
  7.2788
 30
0.0
 42
  0.0985
 0
VERTEX
 8
PARTS
 10
 11.7885
 20
  7.2723
 30
0.0
 42
  0.0985
 0
VERTEX
 8
PARTS
 10
 11.8000
 20
  7.2700
 30
0.0
 42
  0.0985
 0
VERTEX
 8
PARTS
 10
 11.8115
 20
  7.2723
 30
0.0
 42
  0.0985
 0
VERTEX
 8
PARTS
 10
 11.8212
 20
  7.2788
 30
0.0
 42
  0.0985
 0
VERTEX
 8
PARTS
 10
 11.8277
 20
  7.2885
 30
0.0
 42
  0.0985
 0
SEQEND
 8
PARTS
 0
POLYLINE
 8
PARTS
 66
1
 10
0.0
 20
0.0
 30
0.0
 0
VERTEX
 8
PARTS
 10
 11.7000
 20
  7.3000
 30
0.0
 0
VERTEX
 8
PARTS
 10
 11.7700
 20
  7.3000
 30
0.0
 0
SEQEND
 8
PARTS
 0
POLYLINE
 8
PARTS
 66
1
 70
1
 10
0.0
 20
0.0
 30
0.0
 0
VERTEX
 8
PARTS
 10
 11.9000
 20
  7.3000
 30
0.0
 42
  0.0985
 0
VERTEX
 8
PARTS
 10
 11.8924
 20
  7.3383
 30
0.0
 42
  0.0985
 0
VERTEX
 8
PARTS
 10
 11.8707
 20
  7.3707
 30
0.0
 42
  0.0985
 0
VERTEX
 8
PARTS
 10
 11.8383
 20
  7.3924
 30
0.0
 42
  0.0985
 0
VERTEX
 8
PARTS
 10
 11.8000
 20
  7.4000
 30
0.0
 42
  0.0985
 0
VERTEX
 8
PARTS
 10
 11.7617
 20
  7.3924
 30
0.0
 42
  0.0985
 0
VERTEX
 8
PARTS
 10
 11.7293
 20
  7.3707
 30
0.0
 42
  0.0985
 0
VERTEX
 8
PARTS
 10
 11.7076
 20
  7.3383
 30
0.0
 42
  0.0985
 0
VERTEX
 8
PARTS
 10
 11.7000
 20
  7.3000
 30
0.0
 42
  0.0985
 0
VERTEX
 8
PARTS
 10
 11.7076
 20
  7.2617
 30
0.0
 42
  0.0985
 0
VERTEX
 8
PARTS
 10
 11.7293
 20
  7.2293
 30
0.0
 42
  0.0985
 0
VERTEX
 8
PARTS
 10
 11.7617
 20
  7.2076
 30
0.0
 42
  0.0985
 0
VERTEX
 8
PARTS
 10
 11.8000
 20
  7.2000
 30
0.0
 42
  0.0985
 0
VERTEX
 8
PARTS
 10
 11.8383
 20
  7.2076
 30
0.0
 42
  0.0985
 0
VERTEX
 8
PARTS
 10
 11.8707
 20
  7.2293
 30
0.0
 42
  0.0985
 0
VERTEX
 8
PARTS
 10
 11.8924
 20
  7.2617
 30
0.0
 42
  0.0985
 0
SEQEND
 8
PARTS
 0
TEXT
 8
PARTTEXT
 10
  5.0500
 20
  7.4086
 30
0.0
 40
  0.0514
 1
S2
 0
TEXT
 8
PARTTEXT
 10
  5.0500
 20
  6.7086
 30
0.0
 40
  0.0514
 1
XFER_SWITCH
 0
LINE
 8
PARTS
 10
  4.9000
 20
  7.3000
 30
0.0
 11
  5.0000
 21
  7.3000
 31
0.0
 0
TEXT
 8
PARTS
 10
  4.9400
 20
  7.3300
 30
0.0
 40
  0.0500
 1

 0
LINE
 8
PARTS
 10
  4.9000
 20
  6.9000
 30
0.0
 11
  5.0000
 21
  6.9000
 31
0.0
 0
TEXT
 8
PARTS
 10
  4.9400
 20
  6.9300
 30
0.0
 40
  0.0500
 1

 0
LINE
 8
PARTS
 10
  5.7000
 20
  6.9000
 30
0.0
 11
  5.6000
 21
  6.9000
 31
0.0
 0
TEXT
 8
PARTS
 10
  5.6600
 20
  6.9300
 30
0.0
 40
  0.0500
 1

 0
LINE
 8
PARTS
 10
  5.7000
 20
  7.3000
 30
0.0
 11
  5.6000
 21
  7.3000
 31
0.0
 0
TEXT
 8
PARTS
 10
  5.6600
 20
  7.3300
 30
0.0
 40
  0.0500
 1

 0
LINE
 8
PARTS
 10
  4.9000
 20
  7.1000
 30
0.0
 11
  5.0000
 21
  7.1000
 31
0.0
 0
TEXT
 8
PARTS
 10
  4.9400
 20
  7.1300
 30
0.0
 40
  0.0500
 1

 0
LINE
 8
PARTS
 10
  5.7000
 20
  7.1000
 30
0.0
 11
  5.6000
 21
  7.1000
 31
0.0
 0
TEXT
 8
PARTS
 10
  5.6600
 20
  7.1300
 30
0.0
 40
  0.0500
 1

 0
POLYLINE
 8
PARTS
 66
1
 10
0.0
 20
0.0
 30
0.0
 0
VERTEX
 8
PARTS
 10
  5.0000
 20
  7.4000
 30
0.0
 0
VERTEX
 8
PARTS
 10
  5.6000
 20
  7.4000
 30
0.0
 0
SEQEND
 8
PARTS
 0
POLYLINE
 8
PARTS
 66
1
 10
0.0
 20
0.0
 30
0.0
 0
VERTEX
 8
PARTS
 10
  5.6000
 20
  7.4000
 30
0.0
 0
VERTEX
 8
PARTS
 10
  5.6000
 20
  6.8000
 30
0.0
 0
SEQEND
 8
PARTS
 0
POLYLINE
 8
PARTS
 66
1
 10
0.0
 20
0.0
 30
0.0
 0
VERTEX
 8
PARTS
 10
  5.6000
 20
  6.8000
 30
0.0
 0
VERTEX
 8
PARTS
 10
  5.0000
 20
  6.8000
 30
0.0
 0
SEQEND
 8
PARTS
 0
POLYLINE
 8
PARTS
 66
1
 10
0.0
 20
0.0
 30
0.0
 0
VERTEX
 8
PARTS
 10
  5.0000
 20
  6.8000
 30
0.0
 0
VERTEX
 8
PARTS
 10
  5.0000
 20
  7.4000
 30
0.0
 0
SEQEND
 8
PARTS
 0
TEXT
 8
PARTTEXT
 10
  5.0400
 20
  6.8686
 30
0.0
 40
  0.0514
 1
1
 0
TEXT
 8
PARTTEXT
 10
  5.0300
 20
  7.2686
 30
0.0
 40
  0.0514
 1
2
 0
TEXT
 8
PARTTEXT
 10
  5.5200
 20
  6.8586
 30
0.0
 40
  0.0514
 1
3
 0
TEXT
 8
PARTTEXT
 10
  5.5200
 20
  7.2686
 30
0.0
 40
  0.0514
 1
4
 0
POLYLINE
 8
PARTS
 66
1
 10
0.0
 20
0.0
 30
0.0
 0
VERTEX
 8
PARTS
 10
  5.1000
 20
  6.9000
 30
0.0
 0
VERTEX
 8
PARTS
 10
  5.5000
 20
  6.9000
 30
0.0
 0
SEQEND
 8
PARTS
 0
POLYLINE
 8
PARTS
 66
1
 10
0.0
 20
0.0
 30
0.0
 0
VERTEX
 8
PARTS
 10
  5.1000
 20
  7.3000
 30
0.0
 0
VERTEX
 8
PARTS
 10
  5.5000
 20
  7.3000
 30
0.0
 0
SEQEND
 8
PARTS
 0
POLYLINE
 8
PARTS
 66
1
 10
0.0
 20
0.0
 30
0.0
 0
VERTEX
 8
PARTS
 10
  5.1500
 20
  7.2500
 30
0.0
 0
VERTEX
 8
PARTS
 10
  5.4500
 20
  6.9500
 30
0.0
 0
SEQEND
 8
PARTS
 0
POLYLINE
 8
PARTS
 66
1
 10
0.0
 20
0.0
 30
0.0
 0
VERTEX
 8
PARTS
 10
  5.4500
 20
  7.2500
 30
0.0
 0
VERTEX
 8
PARTS
 10
  5.1500
 20
  6.9500
 30
0.0
 0
SEQEND
 8
PARTS
 0
TEXT
 8
PARTTEXT
 10
  5.0400
 20
  7.0686
 30
0.0
 40
  0.0514
 1
+
 0
TEXT
 8
PARTTEXT
 10
  5.5200
 20
  7.0686
 30
0.0
 40
  0.0514
 1
-
 0
TEXT
 8
PARTTEXT
 10
  1.9500
 20
  1.2086
 30
0.0
 40
  0.0514
 1
10dB
 0
POLYLINE
 8
PARTS
 66
1
 10
0.0
 20
0.0
 30
0.0
 0
VERTEX
 8
PARTS
 10
  2.0300
 20
  1.5000
 30
0.0
 0
VERTEX
 8
PARTS
 10
  2.0100
 20
  1.5200
 30
0.0
 0
SEQEND
 8
PARTS
 0
POLYLINE
 8
PARTS
 66
1
 10
0.0
 20
0.0
 30
0.0
 0
VERTEX
 8
PARTS
 10
  2.0200
 20
  1.3700
 30
0.0
 0
VERTEX
 8
PARTS
 10
  2.0300
 20
  1.3800
 30
0.0
 0
SEQEND
 8
PARTS
 0
POLYLINE
 8
PARTS
 66
1
 10
0.0
 20
0.0
 30
0.0
 0
VERTEX
 8
PARTS
 10
  2.0200
 20
  1.6100
 30
0.0
 0
VERTEX
 8
PARTS
 10
  2.0300
 20
  1.6200
 30
0.0
 0
SEQEND
 8
PARTS
 0
POLYLINE
 8
PARTS
 66
1
 10
0.0
 20
0.0
 30
0.0
 0
VERTEX
 8
PARTS
 10
  2.0000
 20
  1.3000
 30
0.0
 0
VERTEX
 8
PARTS
 10
  2.0000
 20
  1.3500
 30
0.0
 0
SEQEND
 8
PARTS
 0
POLYLINE
 8
PARTS
 66
1
 10
0.0
 20
0.0
 30
0.0
 0
VERTEX
 8
PARTS
 10
  2.0000
 20
  1.3500
 30
0.0
 0
VERTEX
 8
PARTS
 10
  2.0300
 20
  1.3800
 30
0.0
 0
SEQEND
 8
PARTS
 0
POLYLINE
 8
PARTS
 66
1
 10
0.0
 20
0.0
 30
0.0
 0
VERTEX
 8
PARTS
 10
  2.0300
 20
  1.3800
 30
0.0
 0
VERTEX
 8
PARTS
 10
  1.9700
 20
  1.4400
 30
0.0
 0
SEQEND
 8
PARTS
 0
POLYLINE
 8
PARTS
 66
1
 10
0.0
 20
0.0
 30
0.0
 0
VERTEX
 8
PARTS
 10
  1.9700
 20
  1.4400
 30
0.0
 0
VERTEX
 8
PARTS
 10
  2.0300
 20
  1.5000
 30
0.0
 0
SEQEND
 8
PARTS
 0
POLYLINE
 8
PARTS
 66
1
 10
0.0
 20
0.0
 30
0.0
 0
VERTEX
 8
PARTS
 10
  2.0300
 20
  1.5000
 30
0.0
 0
VERTEX
 8
PARTS
 10
  1.9700
 20
  1.5600
 30
0.0
 0
SEQEND
 8
PARTS
 0
POLYLINE
 8
PARTS
 66
1
 10
0.0
 20
0.0
 30
0.0
 0
VERTEX
 8
PARTS
 10
  1.9700
 20
  1.5600
 30
0.0
 0
VERTEX
 8
PARTS
 10
  2.0300
 20
  1.6200
 30
0.0
 0
SEQEND
 8
PARTS
 0
POLYLINE
 8
PARTS
 66
1
 10
0.0
 20
0.0
 30
0.0
 0
VERTEX
 8
PARTS
 10
  2.0300
 20
  1.6200
 30
0.0
 0
VERTEX
 8
PARTS
 10
  1.9700
 20
  1.6800
 30
0.0
 0
SEQEND
 8
PARTS
 0
POLYLINE
 8
PARTS
 66
1
 10
0.0
 20
0.0
 30
0.0
 0
VERTEX
 8
PARTS
 10
  1.9700
 20
  1.6800
 30
0.0
 0
VERTEX
 8
PARTS
 10
  2.0000
 20
  1.7100
 30
0.0
 0
SEQEND
 8
PARTS
 0
POLYLINE
 8
PARTS
 66
1
 10
0.0
 20
0.0
 30
0.0
 0
VERTEX
 8
PARTS
 10
  2.0000
 20
  1.8000
 30
0.0
 0
VERTEX
 8
PARTS
 10
  2.0000
 20
  1.7000
 30
0.0
 0
SEQEND
 8
PARTS
 0
POLYLINE
 8
PARTS
 66
1
 10
0.0
 20
0.0
 30
0.0
 0
VERTEX
 8
PARTS
 10
  2.1000
 20
  1.3000
 30
0.0
 0
VERTEX
 8
PARTS
 10
  2.1000
 20
  1.8000
 30
0.0
 0
SEQEND
 8
PARTS
 0
POLYLINE
 8
PARTS
 66
1
 10
0.0
 20
0.0
 30
0.0
 0
VERTEX
 8
PARTS
 10
  2.1000
 20
  1.8000
 30
0.0
 0
VERTEX
 8
PARTS
 10
  1.9000
 20
  1.8000
 30
0.0
 0
SEQEND
 8
PARTS
 0
POLYLINE
 8
PARTS
 66
1
 10
0.0
 20
0.0
 30
0.0
 0
VERTEX
 8
PARTS
 10
  1.9000
 20
  1.8000
 30
0.0
 0
VERTEX
 8
PARTS
 10
  1.9000
 20
  1.3000
 30
0.0
 0
SEQEND
 8
PARTS
 0
POLYLINE
 8
PARTS
 66
1
 10
0.0
 20
0.0
 30
0.0
 0
VERTEX
 8
PARTS
 10
  1.9000
 20
  1.3000
 30
0.0
 0
VERTEX
 8
PARTS
 10
  2.1000
 20
  1.3000
 30
0.0
 0
SEQEND
 8
PARTS
 0
TEXT
 8
PARTTEXT
 10
  9.4500
 20
  6.9086
 30
0.0
 40
  0.0514
 1
6dB
 0
POLYLINE
 8
PARTS
 66
1
 10
0.0
 20
0.0
 30
0.0
 0
VERTEX
 8
PARTS
 10
  9.5300
 20
  7.2000
 30
0.0
 0
VERTEX
 8
PARTS
 10
  9.5100
 20
  7.2200
 30
0.0
 0
SEQEND
 8
PARTS
 0
POLYLINE
 8
PARTS
 66
1
 10
0.0
 20
0.0
 30
0.0
 0
VERTEX
 8
PARTS
 10
  9.5200
 20
  7.0700
 30
0.0
 0
VERTEX
 8
PARTS
 10
  9.5300
 20
  7.0800
 30
0.0
 0
SEQEND
 8
PARTS
 0
POLYLINE
 8
PARTS
 66
1
 10
0.0
 20
0.0
 30
0.0
 0
VERTEX
 8
PARTS
 10
  9.5200
 20
  7.3100
 30
0.0
 0
VERTEX
 8
PARTS
 10
  9.5300
 20
  7.3200
 30
0.0
 0
SEQEND
 8
PARTS
 0
POLYLINE
 8
PARTS
 66
1
 10
0.0
 20
0.0
 30
0.0
 0
VERTEX
 8
PARTS
 10
  9.5000
 20
  7.0000
 30
0.0
 0
VERTEX
 8
PARTS
 10
  9.5000
 20
  7.0500
 30
0.0
 0
SEQEND
 8
PARTS
 0
POLYLINE
 8
PARTS
 66
1
 10
0.0
 20
0.0
 30
0.0
 0
VERTEX
 8
PARTS
 10
  9.5000
 20
  7.0500
 30
0.0
 0
VERTEX
 8
PARTS
 10
  9.5300
 20
  7.0800
 30
0.0
 0
SEQEND
 8
PARTS
 0
POLYLINE
 8
PARTS
 66
1
 10
0.0
 20
0.0
 30
0.0
 0
VERTEX
 8
PARTS
 10
  9.5300
 20
  7.0800
 30
0.0
 0
VERTEX
 8
PARTS
 10
  9.4700
 20
  7.1400
 30
0.0
 0
SEQEND
 8
PARTS
 0
POLYLINE
 8
PARTS
 66
1
 10
0.0
 20
0.0
 30
0.0
 0
VERTEX
 8
PARTS
 10
  9.4700
 20
  7.1400
 30
0.0
 0
VERTEX
 8
PARTS
 10
  9.5300
 20
  7.2000
 30
0.0
 0
SEQEND
 8
PARTS
 0
POLYLINE
 8
PARTS
 66
1
 10
0.0
 20
0.0
 30
0.0
 0
VERTEX
 8
PARTS
 10
  9.5300
 20
  7.2000
 30
0.0
 0
VERTEX
 8
PARTS
 10
  9.4700
 20
  7.2600
 30
0.0
 0
SEQEND
 8
PARTS
 0
POLYLINE
 8
PARTS
 66
1
 10
0.0
 20
0.0
 30
0.0
 0
VERTEX
 8
PARTS
 10
  9.4700
 20
  7.2600
 30
0.0
 0
VERTEX
 8
PARTS
 10
  9.5300
 20
  7.3200
 30
0.0
 0
SEQEND
 8
PARTS
 0
POLYLINE
 8
PARTS
 66
1
 10
0.0
 20
0.0
 30
0.0
 0
VERTEX
 8
PARTS
 10
  9.5300
 20
  7.3200
 30
0.0
 0
VERTEX
 8
PARTS
 10
  9.4700
 20
  7.3800
 30
0.0
 0
SEQEND
 8
PARTS
 0
POLYLINE
 8
PARTS
 66
1
 10
0.0
 20
0.0
 30
0.0
 0
VERTEX
 8
PARTS
 10
  9.4700
 20
  7.3800
 30
0.0
 0
VERTEX
 8
PARTS
 10
  9.5000
 20
  7.4100
 30
0.0
 0
SEQEND
 8
PARTS
 0
POLYLINE
 8
PARTS
 66
1
 10
0.0
 20
0.0
 30
0.0
 0
VERTEX
 8
PARTS
 10
  9.5000
 20
  7.5000
 30
0.0
 0
VERTEX
 8
PARTS
 10
  9.5000
 20
  7.4000
 30
0.0
 0
SEQEND
 8
PARTS
 0
POLYLINE
 8
PARTS
 66
1
 10
0.0
 20
0.0
 30
0.0
 0
VERTEX
 8
PARTS
 10
  9.6000
 20
  7.0000
 30
0.0
 0
VERTEX
 8
PARTS
 10
  9.6000
 20
  7.5000
 30
0.0
 0
SEQEND
 8
PARTS
 0
POLYLINE
 8
PARTS
 66
1
 10
0.0
 20
0.0
 30
0.0
 0
VERTEX
 8
PARTS
 10
  9.6000
 20
  7.5000
 30
0.0
 0
VERTEX
 8
PARTS
 10
  9.4000
 20
  7.5000
 30
0.0
 0
SEQEND
 8
PARTS
 0
POLYLINE
 8
PARTS
 66
1
 10
0.0
 20
0.0
 30
0.0
 0
VERTEX
 8
PARTS
 10
  9.4000
 20
  7.5000
 30
0.0
 0
VERTEX
 8
PARTS
 10
  9.4000
 20
  7.0000
 30
0.0
 0
SEQEND
 8
PARTS
 0
POLYLINE
 8
PARTS
 66
1
 10
0.0
 20
0.0
 30
0.0
 0
VERTEX
 8
PARTS
 10
  9.4000
 20
  7.0000
 30
0.0
 0
VERTEX
 8
PARTS
 10
  9.6000
 20
  7.0000
 30
0.0
 0
SEQEND
 8
PARTS
 0
TEXT
 8
PARTTEXT
 10
  9.4500
 20
  4.4086
 30
0.0
 40
  0.0514
 1
6dB
 0
POLYLINE
 8
PARTS
 66
1
 10
0.0
 20
0.0
 30
0.0
 0
VERTEX
 8
PARTS
 10
  9.5300
 20
  4.7000
 30
0.0
 0
VERTEX
 8
PARTS
 10
  9.5100
 20
  4.7200
 30
0.0
 0
SEQEND
 8
PARTS
 0
POLYLINE
 8
PARTS
 66
1
 10
0.0
 20
0.0
 30
0.0
 0
VERTEX
 8
PARTS
 10
  9.5200
 20
  4.5700
 30
0.0
 0
VERTEX
 8
PARTS
 10
  9.5300
 20
  4.5800
 30
0.0
 0
SEQEND
 8
PARTS
 0
POLYLINE
 8
PARTS
 66
1
 10
0.0
 20
0.0
 30
0.0
 0
VERTEX
 8
PARTS
 10
  9.5200
 20
  4.8100
 30
0.0
 0
VERTEX
 8
PARTS
 10
  9.5300
 20
  4.8200
 30
0.0
 0
SEQEND
 8
PARTS
 0
POLYLINE
 8
PARTS
 66
1
 10
0.0
 20
0.0
 30
0.0
 0
VERTEX
 8
PARTS
 10
  9.5000
 20
  4.5000
 30
0.0
 0
VERTEX
 8
PARTS
 10
  9.5000
 20
  4.5500
 30
0.0
 0
SEQEND
 8
PARTS
 0
POLYLINE
 8
PARTS
 66
1
 10
0.0
 20
0.0
 30
0.0
 0
VERTEX
 8
PARTS
 10
  9.5000
 20
  4.5500
 30
0.0
 0
VERTEX
 8
PARTS
 10
  9.5300
 20
  4.5800
 30
0.0
 0
SEQEND
 8
PARTS
 0
POLYLINE
 8
PARTS
 66
1
 10
0.0
 20
0.0
 30
0.0
 0
VERTEX
 8
PARTS
 10
  9.5300
 20
  4.5800
 30
0.0
 0
VERTEX
 8
PARTS
 10
  9.4700
 20
  4.6400
 30
0.0
 0
SEQEND
 8
PARTS
 0
POLYLINE
 8
PARTS
 66
1
 10
0.0
 20
0.0
 30
0.0
 0
VERTEX
 8
PARTS
 10
  9.4700
 20
  4.6400
 30
0.0
 0
VERTEX
 8
PARTS
 10
  9.5300
 20
  4.7000
 30
0.0
 0
SEQEND
 8
PARTS
 0
POLYLINE
 8
PARTS
 66
1
 10
0.0
 20
0.0
 30
0.0
 0
VERTEX
 8
PARTS
 10
  9.5300
 20
  4.7000
 30
0.0
 0
VERTEX
 8
PARTS
 10
  9.4700
 20
  4.7600
 30
0.0
 0
SEQEND
 8
PARTS
 0
POLYLINE
 8
PARTS
 66
1
 10
0.0
 20
0.0
 30
0.0
 0
VERTEX
 8
PARTS
 10
  9.4700
 20
  4.7600
 30
0.0
 0
VERTEX
 8
PARTS
 10
  9.5300
 20
  4.8200
 30
0.0
 0
SEQEND
 8
PARTS
 0
POLYLINE
 8
PARTS
 66
1
 10
0.0
 20
0.0
 30
0.0
 0
VERTEX
 8
PARTS
 10
  9.5300
 20
  4.8200
 30
0.0
 0
VERTEX
 8
PARTS
 10
  9.4700
 20
  4.8800
 30
0.0
 0
SEQEND
 8
PARTS
 0
POLYLINE
 8
PARTS
 66
1
 10
0.0
 20
0.0
 30
0.0
 0
VERTEX
 8
PARTS
 10
  9.4700
 20
  4.8800
 30
0.0
 0
VERTEX
 8
PARTS
 10
  9.5000
 20
  4.9100
 30
0.0
 0
SEQEND
 8
PARTS
 0
POLYLINE
 8
PARTS
 66
1
 10
0.0
 20
0.0
 30
0.0
 0
VERTEX
 8
PARTS
 10
  9.5000
 20
  5.0000
 30
0.0
 0
VERTEX
 8
PARTS
 10
  9.5000
 20
  4.9000
 30
0.0
 0
SEQEND
 8
PARTS
 0
POLYLINE
 8
PARTS
 66
1
 10
0.0
 20
0.0
 30
0.0
 0
VERTEX
 8
PARTS
 10
  9.6000
 20
  4.5000
 30
0.0
 0
VERTEX
 8
PARTS
 10
  9.6000
 20
  5.0000
 30
0.0
 0
SEQEND
 8
PARTS
 0
POLYLINE
 8
PARTS
 66
1
 10
0.0
 20
0.0
 30
0.0
 0
VERTEX
 8
PARTS
 10
  9.6000
 20
  5.0000
 30
0.0
 0
VERTEX
 8
PARTS
 10
  9.4000
 20
  5.0000
 30
0.0
 0
SEQEND
 8
PARTS
 0
POLYLINE
 8
PARTS
 66
1
 10
0.0
 20
0.0
 30
0.0
 0
VERTEX
 8
PARTS
 10
  9.4000
 20
  5.0000
 30
0.0
 0
VERTEX
 8
PARTS
 10
  9.4000
 20
  4.5000
 30
0.0
 0
SEQEND
 8
PARTS
 0
POLYLINE
 8
PARTS
 66
1
 10
0.0
 20
0.0
 30
0.0
 0
VERTEX
 8
PARTS
 10
  9.4000
 20
  4.5000
 30
0.0
 0
VERTEX
 8
PARTS
 10
  9.6000
 20
  4.5000
 30
0.0
 0
SEQEND
 8
PARTS
 0
TEXT
 8
PARTTEXT
 10
  9.4500
 20
  3.2086
 30
0.0
 40
  0.0514
 1
6dB
 0
POLYLINE
 8
PARTS
 66
1
 10
0.0
 20
0.0
 30
0.0
 0
VERTEX
 8
PARTS
 10
  9.5300
 20
  3.5000
 30
0.0
 0
VERTEX
 8
PARTS
 10
  9.5100
 20
  3.5200
 30
0.0
 0
SEQEND
 8
PARTS
 0
POLYLINE
 8
PARTS
 66
1
 10
0.0
 20
0.0
 30
0.0
 0
VERTEX
 8
PARTS
 10
  9.5200
 20
  3.3700
 30
0.0
 0
VERTEX
 8
PARTS
 10
  9.5300
 20
  3.3800
 30
0.0
 0
SEQEND
 8
PARTS
 0
POLYLINE
 8
PARTS
 66
1
 10
0.0
 20
0.0
 30
0.0
 0
VERTEX
 8
PARTS
 10
  9.5200
 20
  3.6100
 30
0.0
 0
VERTEX
 8
PARTS
 10
  9.5300
 20
  3.6200
 30
0.0
 0
SEQEND
 8
PARTS
 0
POLYLINE
 8
PARTS
 66
1
 10
0.0
 20
0.0
 30
0.0
 0
VERTEX
 8
PARTS
 10
  9.5000
 20
  3.3000
 30
0.0
 0
VERTEX
 8
PARTS
 10
  9.5000
 20
  3.3500
 30
0.0
 0
SEQEND
 8
PARTS
 0
POLYLINE
 8
PARTS
 66
1
 10
0.0
 20
0.0
 30
0.0
 0
VERTEX
 8
PARTS
 10
  9.5000
 20
  3.3500
 30
0.0
 0
VERTEX
 8
PARTS
 10
  9.5300
 20
  3.3800
 30
0.0
 0
SEQEND
 8
PARTS
 0
POLYLINE
 8
PARTS
 66
1
 10
0.0
 20
0.0
 30
0.0
 0
VERTEX
 8
PARTS
 10
  9.5300
 20
  3.3800
 30
0.0
 0
VERTEX
 8
PARTS
 10
  9.4700
 20
  3.4400
 30
0.0
 0
SEQEND
 8
PARTS
 0
POLYLINE
 8
PARTS
 66
1
 10
0.0
 20
0.0
 30
0.0
 0
VERTEX
 8
PARTS
 10
  9.4700
 20
  3.4400
 30
0.0
 0
VERTEX
 8
PARTS
 10
  9.5300
 20
  3.5000
 30
0.0
 0
SEQEND
 8
PARTS
 0
POLYLINE
 8
PARTS
 66
1
 10
0.0
 20
0.0
 30
0.0
 0
VERTEX
 8
PARTS
 10
  9.5300
 20
  3.5000
 30
0.0
 0
VERTEX
 8
PARTS
 10
  9.4700
 20
  3.5600
 30
0.0
 0
SEQEND
 8
PARTS
 0
POLYLINE
 8
PARTS
 66
1
 10
0.0
 20
0.0
 30
0.0
 0
VERTEX
 8
PARTS
 10
  9.4700
 20
  3.5600
 30
0.0
 0
VERTEX
 8
PARTS
 10
  9.5300
 20
  3.6200
 30
0.0
 0
SEQEND
 8
PARTS
 0
POLYLINE
 8
PARTS
 66
1
 10
0.0
 20
0.0
 30
0.0
 0
VERTEX
 8
PARTS
 10
  9.5300
 20
  3.6200
 30
0.0
 0
VERTEX
 8
PARTS
 10
  9.4700
 20
  3.6800
 30
0.0
 0
SEQEND
 8
PARTS
 0
POLYLINE
 8
PARTS
 66
1
 10
0.0
 20
0.0
 30
0.0
 0
VERTEX
 8
PARTS
 10
  9.4700
 20
  3.6800
 30
0.0
 0
VERTEX
 8
PARTS
 10
  9.5000
 20
  3.7100
 30
0.0
 0
SEQEND
 8
PARTS
 0
POLYLINE
 8
PARTS
 66
1
 10
0.0
 20
0.0
 30
0.0
 0
VERTEX
 8
PARTS
 10
  9.5000
 20
  3.8000
 30
0.0
 0
VERTEX
 8
PARTS
 10
  9.5000
 20
  3.7000
 30
0.0
 0
SEQEND
 8
PARTS
 0
POLYLINE
 8
PARTS
 66
1
 10
0.0
 20
0.0
 30
0.0
 0
VERTEX
 8
PARTS
 10
  9.6000
 20
  3.3000
 30
0.0
 0
VERTEX
 8
PARTS
 10
  9.6000
 20
  3.8000
 30
0.0
 0
SEQEND
 8
PARTS
 0
POLYLINE
 8
PARTS
 66
1
 10
0.0
 20
0.0
 30
0.0
 0
VERTEX
 8
PARTS
 10
  9.6000
 20
  3.8000
 30
0.0
 0
VERTEX
 8
PARTS
 10
  9.4000
 20
  3.8000
 30
0.0
 0
SEQEND
 8
PARTS
 0
POLYLINE
 8
PARTS
 66
1
 10
0.0
 20
0.0
 30
0.0
 0
VERTEX
 8
PARTS
 10
  9.4000
 20
  3.8000
 30
0.0
 0
VERTEX
 8
PARTS
 10
  9.4000
 20
  3.3000
 30
0.0
 0
SEQEND
 8
PARTS
 0
POLYLINE
 8
PARTS
 66
1
 10
0.0
 20
0.0
 30
0.0
 0
VERTEX
 8
PARTS
 10
  9.4000
 20
  3.3000
 30
0.0
 0
VERTEX
 8
PARTS
 10
  9.6000
 20
  3.3000
 30
0.0
 0
SEQEND
 8
PARTS
 0
TEXT
 8
PARTTEXT
 10
 11.7500
 20
  3.7086
 30
0.0
 40
  0.0514
 1
SMA
 0
LINE
 8
PARTS
 10
 11.6000
 20
  3.6000
 30
0.0
 11
 11.7000
 21
  3.6000
 31
0.0
 0
TEXT
 8
PARTS
 10
 11.6400
 20
  3.6300
 30
0.0
 40
  0.0500
 1

 0
LINE
 8
PARTS
 10
 11.8000
 20
  3.4000
 30
0.0
 11
 11.8000
 21
  3.5000
 31
0.0
 0
TEXT
 8
PARTS
 10
 11.7700
 20
  3.3800
 30
0.0
 40
  0.0500
 50
 90.0000
 1

 0
POLYLINE
 8
PARTS
 66
1
 70
1
 10
0.0
 20
0.0
 30
0.0
 0
VERTEX
 8
PARTS
 10
 11.8300
 20
  3.6000
 30
0.0
 42
  0.0985
 0
VERTEX
 8
PARTS
 10
 11.8277
 20
  3.6115
 30
0.0
 42
  0.0985
 0
VERTEX
 8
PARTS
 10
 11.8212
 20
  3.6212
 30
0.0
 42
  0.0985
 0
VERTEX
 8
PARTS
 10
 11.8115
 20
  3.6277
 30
0.0
 42
  0.0985
 0
VERTEX
 8
PARTS
 10
 11.8000
 20
  3.6300
 30
0.0
 42
  0.0985
 0
VERTEX
 8
PARTS
 10
 11.7885
 20
  3.6277
 30
0.0
 42
  0.0985
 0
VERTEX
 8
PARTS
 10
 11.7788
 20
  3.6212
 30
0.0
 42
  0.0985
 0
VERTEX
 8
PARTS
 10
 11.7723
 20
  3.6115
 30
0.0
 42
  0.0985
 0
VERTEX
 8
PARTS
 10
 11.7700
 20
  3.6000
 30
0.0
 42
  0.0985
 0
VERTEX
 8
PARTS
 10
 11.7723
 20
  3.5885
 30
0.0
 42
  0.0985
 0
VERTEX
 8
PARTS
 10
 11.7788
 20
  3.5788
 30
0.0
 42
  0.0985
 0
VERTEX
 8
PARTS
 10
 11.7885
 20
  3.5723
 30
0.0
 42
  0.0985
 0
VERTEX
 8
PARTS
 10
 11.8000
 20
  3.5700
 30
0.0
 42
  0.0985
 0
VERTEX
 8
PARTS
 10
 11.8115
 20
  3.5723
 30
0.0
 42
  0.0985
 0
VERTEX
 8
PARTS
 10
 11.8212
 20
  3.5788
 30
0.0
 42
  0.0985
 0
VERTEX
 8
PARTS
 10
 11.8277
 20
  3.5885
 30
0.0
 42
  0.0985
 0
SEQEND
 8
PARTS
 0
POLYLINE
 8
PARTS
 66
1
 10
0.0
 20
0.0
 30
0.0
 0
VERTEX
 8
PARTS
 10
 11.7000
 20
  3.6000
 30
0.0
 0
VERTEX
 8
PARTS
 10
 11.7700
 20
  3.6000
 30
0.0
 0
SEQEND
 8
PARTS
 0
POLYLINE
 8
PARTS
 66
1
 70
1
 10
0.0
 20
0.0
 30
0.0
 0
VERTEX
 8
PARTS
 10
 11.9000
 20
  3.6000
 30
0.0
 42
  0.0985
 0
VERTEX
 8
PARTS
 10
 11.8924
 20
  3.6383
 30
0.0
 42
  0.0985
 0
VERTEX
 8
PARTS
 10
 11.8707
 20
  3.6707
 30
0.0
 42
  0.0985
 0
VERTEX
 8
PARTS
 10
 11.8383
 20
  3.6924
 30
0.0
 42
  0.0985
 0
VERTEX
 8
PARTS
 10
 11.8000
 20
  3.7000
 30
0.0
 42
  0.0985
 0
VERTEX
 8
PARTS
 10
 11.7617
 20
  3.6924
 30
0.0
 42
  0.0985
 0
VERTEX
 8
PARTS
 10
 11.7293
 20
  3.6707
 30
0.0
 42
  0.0985
 0
VERTEX
 8
PARTS
 10
 11.7076
 20
  3.6383
 30
0.0
 42
  0.0985
 0
VERTEX
 8
PARTS
 10
 11.7000
 20
  3.6000
 30
0.0
 42
  0.0985
 0
VERTEX
 8
PARTS
 10
 11.7076
 20
  3.5617
 30
0.0
 42
  0.0985
 0
VERTEX
 8
PARTS
 10
 11.7293
 20
  3.5293
 30
0.0
 42
  0.0985
 0
VERTEX
 8
PARTS
 10
 11.7617
 20
  3.5076
 30
0.0
 42
  0.0985
 0
VERTEX
 8
PARTS
 10
 11.8000
 20
  3.5000
 30
0.0
 42
  0.0985
 0
VERTEX
 8
PARTS
 10
 11.8383
 20
  3.5076
 30
0.0
 42
  0.0985
 0
VERTEX
 8
PARTS
 10
 11.8707
 20
  3.5293
 30
0.0
 42
  0.0985
 0
VERTEX
 8
PARTS
 10
 11.8924
 20
  3.5617
 30
0.0
 42
  0.0985
 0
SEQEND
 8
PARTS
 0
TEXT
 8
PARTTEXT
 10
 10.3300
 20
  6.9986
 30
0.0
 40
  0.0514
 1
MCL ZFL-500HLN
 0
TEXT
 8
PARTTEXT
 10
 10.3300
 20
  6.8986
 30
0.0
 40
  0.0514
 1
20dB Gain
 0
POLYLINE
 8
PARTS
 66
1
 10
0.0
 20
0.0
 30
0.0
 0
VERTEX
 8
PARTS
 10
 10.3000
 20
  7.1000
 30
0.0
 0
VERTEX
 8
PARTS
 10
 10.3000
 20
  7.5000
 30
0.0
 0
SEQEND
 8
PARTS
 0
POLYLINE
 8
PARTS
 66
1
 10
0.0
 20
0.0
 30
0.0
 0
VERTEX
 8
PARTS
 10
 10.3000
 20
  7.5000
 30
0.0
 0
VERTEX
 8
PARTS
 10
 10.3000
 20
  7.5000
 30
0.0
 0
VERTEX
 8
PARTS
 10
 10.7000
 20
  7.3000
 30
0.0
 0
VERTEX
 8
PARTS
 10
 10.3000
 20
  7.1000
 30
0.0
 0
SEQEND
 8
PARTS
 0
POLYLINE
 8
WIRE
 66
1
 10
0.0
 20
0.0
 30
0.0
 0
VERTEX
 8
WIRE
 10
  7.0000
 20
  9.1000
 30
0.0
 0
VERTEX
 8
WIRE
 10
 10.3000
 20
  9.1000
 30
0.0
 0
SEQEND
 8
WIRE
 0
POLYLINE
 8
WIRE
 66
1
 10
0.0
 20
0.0
 30
0.0
 0
VERTEX
 8
WIRE
 10
 10.7000
 20
  9.1000
 30
0.0
 0
VERTEX
 8
WIRE
 10
 11.6000
 20
  9.1000
 30
0.0
 0
SEQEND
 8
WIRE
 0
POLYLINE
 8
WIRE
 66
1
 10
0.0
 20
0.0
 30
0.0
 0
VERTEX
 8
WIRE
 10
  6.7000
 20
  8.8000
 30
0.0
 0
VERTEX
 8
WIRE
 10
  7.0000
 20
  8.8000
 30
0.0
 0
SEQEND
 8
WIRE
 0
POLYLINE
 8
WIRE
 66
1
 10
0.0
 20
0.0
 30
0.0
 0
VERTEX
 8
WIRE
 10
  4.3000
 20
  8.6000
 30
0.0
 0
VERTEX
 8
WIRE
 10
  5.3000
 20
  8.6000
 30
0.0
 0
SEQEND
 8
WIRE
 0
POLYLINE
 8
WIRE
 66
1
 10
0.0
 20
0.0
 30
0.0
 0
VERTEX
 8
WIRE
 10
  5.5000
 20
  8.6000
 30
0.0
 0
VERTEX
 8
WIRE
 10
  6.1000
 20
  8.6000
 30
0.0
 0
SEQEND
 8
WIRE
 0
POLYLINE
 8
WIRE
 66
1
 10
0.0
 20
0.0
 30
0.0
 0
VERTEX
 8
WIRE
 10
  1.1000
 20
  8.4000
 30
0.0
 0
VERTEX
 8
WIRE
 10
  1.4000
 20
  8.4000
 30
0.0
 0
SEQEND
 8
WIRE
 0
POLYLINE
 8
WIRE
 66
1
 10
0.0
 20
0.0
 30
0.0
 0
VERTEX
 8
WIRE
 10
  2.0000
 20
  8.4000
 30
0.0
 0
VERTEX
 8
WIRE
 10
  2.6000
 20
  8.4000
 30
0.0
 0
SEQEND
 8
WIRE
 0
POLYLINE
 8
WIRE
 66
1
 10
0.0
 20
0.0
 30
0.0
 0
VERTEX
 8
WIRE
 10
  3.0000
 20
  8.4000
 30
0.0
 0
VERTEX
 8
WIRE
 10
  3.7000
 20
  8.4000
 30
0.0
 0
SEQEND
 8
WIRE
 0
POLYLINE
 8
WIRE
 66
1
 10
0.0
 20
0.0
 30
0.0
 0
VERTEX
 8
WIRE
 10
  6.7000
 20
  8.4000
 30
0.0
 0
VERTEX
 8
WIRE
 10
 10.3000
 20
  8.4000
 30
0.0
 0
SEQEND
 8
WIRE
 0
POLYLINE
 8
WIRE
 66
1
 10
0.0
 20
0.0
 30
0.0
 0
VERTEX
 8
WIRE
 10
 10.7000
 20
  8.4000
 30
0.0
 0
VERTEX
 8
WIRE
 10
 11.6000
 20
  8.4000
 30
0.0
 0
SEQEND
 8
WIRE
 0
POLYLINE
 8
WIRE
 66
1
 10
0.0
 20
0.0
 30
0.0
 0
VERTEX
 8
WIRE
 10
  4.3000
 20
  8.2000
 30
0.0
 0
VERTEX
 8
WIRE
 10
  4.6000
 20
  8.2000
 30
0.0
 0
SEQEND
 8
WIRE
 0
POLYLINE
 8
WIRE
 66
1
 10
0.0
 20
0.0
 30
0.0
 0
VERTEX
 8
WIRE
 10
  4.6000
 20
  7.3000
 30
0.0
 0
VERTEX
 8
WIRE
 10
  4.9000
 20
  7.3000
 30
0.0
 0
SEQEND
 8
WIRE
 0
POLYLINE
 8
WIRE
 66
1
 10
0.0
 20
0.0
 30
0.0
 0
VERTEX
 8
WIRE
 10
  5.7000
 20
  7.3000
 30
0.0
 0
VERTEX
 8
WIRE
 10
  9.4000
 20
  7.3000
 30
0.0
 0
SEQEND
 8
WIRE
 0
POLYLINE
 8
WIRE
 66
1
 10
0.0
 20
0.0
 30
0.0
 0
VERTEX
 8
WIRE
 10
  9.6000
 20
  7.3000
 30
0.0
 0
VERTEX
 8
WIRE
 10
 10.3000
 20
  7.3000
 30
0.0
 0
SEQEND
 8
WIRE
 0
POLYLINE
 8
WIRE
 66
1
 10
0.0
 20
0.0
 30
0.0
 0
VERTEX
 8
WIRE
 10
 10.7000
 20
  7.3000
 30
0.0
 0
VERTEX
 8
WIRE
 10
 11.6000
 20
  7.3000
 30
0.0
 0
SEQEND
 8
WIRE
 0
POLYLINE
 8
WIRE
 66
1
 10
0.0
 20
0.0
 30
0.0
 0
VERTEX
 8
WIRE
 10
  4.6000
 20
  6.9000
 30
0.0
 0
VERTEX
 8
WIRE
 10
  4.9000
 20
  6.9000
 30
0.0
 0
SEQEND
 8
WIRE
 0
POLYLINE
 8
WIRE
 66
1
 10
0.0
 20
0.0
 30
0.0
 0
VERTEX
 8
WIRE
 10
  5.7000
 20
  6.9000
 30
0.0
 0
VERTEX
 8
WIRE
 10
  6.2000
 20
  6.9000
 30
0.0
 0
SEQEND
 8
WIRE
 0
POLYLINE
 8
WIRE
 66
1
 10
0.0
 20
0.0
 30
0.0
 0
VERTEX
 8
WIRE
 10
  3.8000
 20
  6.1000
 30
0.0
 0
VERTEX
 8
WIRE
 10
  4.6000
 20
  6.1000
 30
0.0
 0
SEQEND
 8
WIRE
 0
POLYLINE
 8
WIRE
 66
1
 10
0.0
 20
0.0
 30
0.0
 0
VERTEX
 8
WIRE
 10
  1.1000
 20
  5.9000
 30
0.0
 0
VERTEX
 8
WIRE
 10
  1.7000
 20
  5.9000
 30
0.0
 0
SEQEND
 8
WIRE
 0
POLYLINE
 8
WIRE
 66
1
 10
0.0
 20
0.0
 30
0.0
 0
VERTEX
 8
WIRE
 10
  1.9000
 20
  5.9000
 30
0.0
 0
VERTEX
 8
WIRE
 10
  3.2000
 20
  5.9000
 30
0.0
 0
SEQEND
 8
WIRE
 0
POLYLINE
 8
WIRE
 66
1
 10
0.0
 20
0.0
 30
0.0
 0
VERTEX
 8
WIRE
 10
  6.2000
 20
  5.9000
 30
0.0
 0
VERTEX
 8
WIRE
 10
  9.4000
 20
  5.9000
 30
0.0
 0
SEQEND
 8
WIRE
 0
POLYLINE
 8
WIRE
 66
1
 10
0.0
 20
0.0
 30
0.0
 0
VERTEX
 8
WIRE
 10
  9.6000
 20
  5.9000
 30
0.0
 0
VERTEX
 8
WIRE
 10
 10.3000
 20
  5.9000
 30
0.0
 0
SEQEND
 8
WIRE
 0
POLYLINE
 8
WIRE
 66
1
 10
0.0
 20
0.0
 30
0.0
 0
VERTEX
 8
WIRE
 10
 10.7000
 20
  5.9000
 30
0.0
 0
VERTEX
 8
WIRE
 10
 11.6000
 20
  5.9000
 30
0.0
 0
SEQEND
 8
WIRE
 0
POLYLINE
 8
WIRE
 66
1
 10
0.0
 20
0.0
 30
0.0
 0
VERTEX
 8
WIRE
 10
  3.8000
 20
  5.7000
 30
0.0
 0
VERTEX
 8
WIRE
 10
  4.6000
 20
  5.7000
 30
0.0
 0
SEQEND
 8
WIRE
 0
POLYLINE
 8
WIRE
 66
1
 10
0.0
 20
0.0
 30
0.0
 0
VERTEX
 8
WIRE
 10
  4.6000
 20
  4.8000
 30
0.0
 0
VERTEX
 8
WIRE
 10
  4.9000
 20
  4.8000
 30
0.0
 0
SEQEND
 8
WIRE
 0
POLYLINE
 8
WIRE
 66
1
 10
0.0
 20
0.0
 30
0.0
 0
VERTEX
 8
WIRE
 10
  5.7000
 20
  4.8000
 30
0.0
 0
VERTEX
 8
WIRE
 10
  9.4000
 20
  4.8000
 30
0.0
 0
SEQEND
 8
WIRE
 0
POLYLINE
 8
WIRE
 66
1
 10
0.0
 20
0.0
 30
0.0
 0
VERTEX
 8
WIRE
 10
  9.6000
 20
  4.8000
 30
0.0
 0
VERTEX
 8
WIRE
 10
 10.3000
 20
  4.8000
 30
0.0
 0
SEQEND
 8
WIRE
 0
POLYLINE
 8
WIRE
 66
1
 10
0.0
 20
0.0
 30
0.0
 0
VERTEX
 8
WIRE
 10
 10.7000
 20
  4.8000
 30
0.0
 0
VERTEX
 8
WIRE
 10
 11.6000
 20
  4.8000
 30
0.0
 0
SEQEND
 8
WIRE
 0
POLYLINE
 8
WIRE
 66
1
 10
0.0
 20
0.0
 30
0.0
 0
VERTEX
 8
WIRE
 10
  4.6000
 20
  4.4000
 30
0.0
 0
VERTEX
 8
WIRE
 10
  4.9000
 20
  4.4000
 30
0.0
 0
SEQEND
 8
WIRE
 0
POLYLINE
 8
WIRE
 66
1
 10
0.0
 20
0.0
 30
0.0
 0
VERTEX
 8
WIRE
 10
  5.7000
 20
  4.4000
 30
0.0
 0
VERTEX
 8
WIRE
 10
  6.9000
 20
  4.4000
 30
0.0
 0
SEQEND
 8
WIRE
 0
POLYLINE
 8
WIRE
 66
1
 10
0.0
 20
0.0
 30
0.0
 0
VERTEX
 8
WIRE
 10
  6.9000
 20
  3.6000
 30
0.0
 0
VERTEX
 8
WIRE
 10
  9.4000
 20
  3.6000
 30
0.0
 0
SEQEND
 8
WIRE
 0
POLYLINE
 8
WIRE
 66
1
 10
0.0
 20
0.0
 30
0.0
 0
VERTEX
 8
WIRE
 10
  9.6000
 20
  3.6000
 30
0.0
 0
VERTEX
 8
WIRE
 10
 10.3000
 20
  3.6000
 30
0.0
 0
SEQEND
 8
WIRE
 0
POLYLINE
 8
WIRE
 66
1
 10
0.0
 20
0.0
 30
0.0
 0
VERTEX
 8
WIRE
 10
 10.7000
 20
  3.6000
 30
0.0
 0
VERTEX
 8
WIRE
 10
 11.6000
 20
  3.6000
 30
0.0
 0
SEQEND
 8
WIRE
 0
POLYLINE
 8
WIRE
 66
1
 10
0.0
 20
0.0
 30
0.0
 0
VERTEX
 8
WIRE
 10
  4.3000
 20
  3.5000
 30
0.0
 0
VERTEX
 8
WIRE
 10
  4.6000
 20
  3.5000
 30
0.0
 0
SEQEND
 8
WIRE
 0
POLYLINE
 8
WIRE
 66
1
 10
0.0
 20
0.0
 30
0.0
 0
VERTEX
 8
WIRE
 10
  1.1000
 20
  3.3000
 30
0.0
 0
VERTEX
 8
WIRE
 10
  1.4000
 20
  3.3000
 30
0.0
 0
SEQEND
 8
WIRE
 0
POLYLINE
 8
WIRE
 66
1
 10
0.0
 20
0.0
 30
0.0
 0
VERTEX
 8
WIRE
 10
  2.0000
 20
  3.3000
 30
0.0
 0
VERTEX
 8
WIRE
 10
  2.6000
 20
  3.3000
 30
0.0
 0
SEQEND
 8
WIRE
 0
POLYLINE
 8
WIRE
 66
1
 10
0.0
 20
0.0
 30
0.0
 0
VERTEX
 8
WIRE
 10
  3.0000
 20
  3.3000
 30
0.0
 0
VERTEX
 8
WIRE
 10
  3.7000
 20
  3.3000
 30
0.0
 0
SEQEND
 8
WIRE
 0
POLYLINE
 8
WIRE
 66
1
 10
0.0
 20
0.0
 30
0.0
 0
VERTEX
 8
WIRE
 10
  4.3000
 20
  3.1000
 30
0.0
 0
VERTEX
 8
WIRE
 10
  4.6000
 20
  3.1000
 30
0.0
 0
SEQEND
 8
WIRE
 0
POLYLINE
 8
WIRE
 66
1
 10
0.0
 20
0.0
 30
0.0
 0
VERTEX
 8
WIRE
 10
  4.6000
 20
  2.4000
 30
0.0
 0
VERTEX
 8
WIRE
 10
  9.4000
 20
  2.4000
 30
0.0
 0
SEQEND
 8
WIRE
 0
POLYLINE
 8
WIRE
 66
1
 10
0.0
 20
0.0
 30
0.0
 0
VERTEX
 8
WIRE
 10
  9.6000
 20
  2.4000
 30
0.0
 0
VERTEX
 8
WIRE
 10
 10.3000
 20
  2.4000
 30
0.0
 0
SEQEND
 8
WIRE
 0
POLYLINE
 8
WIRE
 66
1
 10
0.0
 20
0.0
 30
0.0
 0
VERTEX
 8
WIRE
 10
 10.7000
 20
  2.4000
 30
0.0
 0
VERTEX
 8
WIRE
 10
 11.6000
 20
  2.4000
 30
0.0
 0
SEQEND
 8
WIRE
 0
POLYLINE
 8
WIRE
 66
1
 10
0.0
 20
0.0
 30
0.0
 0
VERTEX
 8
WIRE
 10
  1.1000
 20
  1.5000
 30
0.0
 0
VERTEX
 8
WIRE
 10
  1.9000
 20
  1.5000
 30
0.0
 0
SEQEND
 8
WIRE
 0
POLYLINE
 8
WIRE
 66
1
 10
0.0
 20
0.0
 30
0.0
 0
VERTEX
 8
WIRE
 10
  2.1000
 20
  1.5000
 30
0.0
 0
VERTEX
 8
WIRE
 10
  3.0000
 20
  1.5000
 30
0.0
 0
SEQEND
 8
WIRE
 0
POLYLINE
 8
WIRE
 66
1
 10
0.0
 20
0.0
 30
0.0
 0
VERTEX
 8
WIRE
 10
  4.6000
 20
  8.2000
 30
0.0
 0
VERTEX
 8
WIRE
 10
  4.6000
 20
  7.3000
 30
0.0
 0
SEQEND
 8
WIRE
 0
POLYLINE
 8
WIRE
 66
1
 10
0.0
 20
0.0
 30
0.0
 0
VERTEX
 8
WIRE
 10
  4.6000
 20
  6.9000
 30
0.0
 0
VERTEX
 8
WIRE
 10
  4.6000
 20
  6.1000
 30
0.0
 0
SEQEND
 8
WIRE
 0
POLYLINE
 8
WIRE
 66
1
 10
0.0
 20
0.0
 30
0.0
 0
VERTEX
 8
WIRE
 10
  4.6000
 20
  5.7000
 30
0.0
 0
VERTEX
 8
WIRE
 10
  4.6000
 20
  4.8000
 30
0.0
 0
SEQEND
 8
WIRE
 0
POLYLINE
 8
WIRE
 66
1
 10
0.0
 20
0.0
 30
0.0
 0
VERTEX
 8
WIRE
 10
  4.6000
 20
  4.4000
 30
0.0
 0
VERTEX
 8
WIRE
 10
  4.6000
 20
  3.5000
 30
0.0
 0
SEQEND
 8
WIRE
 0
POLYLINE
 8
WIRE
 66
1
 10
0.0
 20
0.0
 30
0.0
 0
VERTEX
 8
WIRE
 10
  4.6000
 20
  3.1000
 30
0.0
 0
VERTEX
 8
WIRE
 10
  4.6000
 20
  2.4000
 30
0.0
 0
SEQEND
 8
WIRE
 0
POLYLINE
 8
WIRE
 66
1
 10
0.0
 20
0.0
 30
0.0
 0
VERTEX
 8
WIRE
 10
  6.2000
 20
  6.9000
 30
0.0
 0
VERTEX
 8
WIRE
 10
  6.2000
 20
  5.9000
 30
0.0
 0
SEQEND
 8
WIRE
 0
POLYLINE
 8
WIRE
 66
1
 10
0.0
 20
0.0
 30
0.0
 0
VERTEX
 8
WIRE
 10
  6.9000
 20
  4.4000
 30
0.0
 0
VERTEX
 8
WIRE
 10
  6.9000
 20
  3.6000
 30
0.0
 0
SEQEND
 8
WIRE
 0
POLYLINE
 8
WIRE
 66
1
 10
0.0
 20
0.0
 30
0.0
 0
VERTEX
 8
WIRE
 10
  7.0000
 20
  9.1000
 30
0.0
 0
VERTEX
 8
WIRE
 10
  7.0000
 20
  8.8000
 30
0.0
 0
SEQEND
 8
WIRE
 0
POLYLINE
 8
PARTS
 66
1
 10
0.0
 20
0.0
 30
0.0
 0
VERTEX
 8
PARTS
 10
 11.7000
 20
  8.2000
 30
0.0
 0
VERTEX
 8
PARTS
 10
 11.9000
 20
  8.2000
 30
0.0
 0
SEQEND
 8
PARTS
 0
POLYLINE
 8
PARTS
 66
1
 10
0.0
 20
0.0
 30
0.0
 0
VERTEX
 8
PARTS
 10
 11.7300
 20
  8.1700
 30
0.0
 0
VERTEX
 8
PARTS
 10
 11.8700
 20
  8.1700
 30
0.0
 0
SEQEND
 8
PARTS
 0
POLYLINE
 8
PARTS
 66
1
 10
0.0
 20
0.0
 30
0.0
 0
VERTEX
 8
PARTS
 10
 11.8400
 20
  8.1400
 30
0.0
 0
VERTEX
 8
PARTS
 10
 11.7600
 20
  8.1400
 30
0.0
 0
SEQEND
 8
PARTS
 0
POLYLINE
 8
PARTS
 66
1
 10
0.0
 20
0.0
 30
0.0
 0
VERTEX
 8
PARTS
 10
 11.7900
 20
  8.1100
 30
0.0
 0
VERTEX
 8
PARTS
 10
 11.8100
 20
  8.1100
 30
0.0
 0
SEQEND
 8
PARTS
 0
POLYLINE
 8
PARTS
 66
1
 10
0.0
 20
0.0
 30
0.0
 0
VERTEX
 8
PARTS
 10
 11.7000
 20
  4.6000
 30
0.0
 0
VERTEX
 8
PARTS
 10
 11.9000
 20
  4.6000
 30
0.0
 0
SEQEND
 8
PARTS
 0
POLYLINE
 8
PARTS
 66
1
 10
0.0
 20
0.0
 30
0.0
 0
VERTEX
 8
PARTS
 10
 11.7300
 20
  4.5700
 30
0.0
 0
VERTEX
 8
PARTS
 10
 11.8700
 20
  4.5700
 30
0.0
 0
SEQEND
 8
PARTS
 0
POLYLINE
 8
PARTS
 66
1
 10
0.0
 20
0.0
 30
0.0
 0
VERTEX
 8
PARTS
 10
 11.8400
 20
  4.5400
 30
0.0
 0
VERTEX
 8
PARTS
 10
 11.7600
 20
  4.5400
 30
0.0
 0
SEQEND
 8
PARTS
 0
POLYLINE
 8
PARTS
 66
1
 10
0.0
 20
0.0
 30
0.0
 0
VERTEX
 8
PARTS
 10
 11.7900
 20
  4.5100
 30
0.0
 0
VERTEX
 8
PARTS
 10
 11.8100
 20
  4.5100
 30
0.0
 0
SEQEND
 8
PARTS
 0
POLYLINE
 8
PARTS
 66
1
 10
0.0
 20
0.0
 30
0.0
 0
VERTEX
 8
PARTS
 10
  0.8000
 20
  5.7000
 30
0.0
 0
VERTEX
 8
PARTS
 10
  1.0000
 20
  5.7000
 30
0.0
 0
SEQEND
 8
PARTS
 0
POLYLINE
 8
PARTS
 66
1
 10
0.0
 20
0.0
 30
0.0
 0
VERTEX
 8
PARTS
 10
  0.8300
 20
  5.6700
 30
0.0
 0
VERTEX
 8
PARTS
 10
  0.9700
 20
  5.6700
 30
0.0
 0
SEQEND
 8
PARTS
 0
POLYLINE
 8
PARTS
 66
1
 10
0.0
 20
0.0
 30
0.0
 0
VERTEX
 8
PARTS
 10
  0.9400
 20
  5.6400
 30
0.0
 0
VERTEX
 8
PARTS
 10
  0.8600
 20
  5.6400
 30
0.0
 0
SEQEND
 8
PARTS
 0
POLYLINE
 8
PARTS
 66
1
 10
0.0
 20
0.0
 30
0.0
 0
VERTEX
 8
PARTS
 10
  0.8900
 20
  5.6100
 30
0.0
 0
VERTEX
 8
PARTS
 10
  0.9100
 20
  5.6100
 30
0.0
 0
SEQEND
 8
PARTS
 0
POLYLINE
 8
PARTS
 66
1
 10
0.0
 20
0.0
 30
0.0
 0
VERTEX
 8
PARTS
 10
 11.7000
 20
  3.4000
 30
0.0
 0
VERTEX
 8
PARTS
 10
 11.9000
 20
  3.4000
 30
0.0
 0
SEQEND
 8
PARTS
 0
POLYLINE
 8
PARTS
 66
1
 10
0.0
 20
0.0
 30
0.0
 0
VERTEX
 8
PARTS
 10
 11.7300
 20
  3.3700
 30
0.0
 0
VERTEX
 8
PARTS
 10
 11.8700
 20
  3.3700
 30
0.0
 0
SEQEND
 8
PARTS
 0
POLYLINE
 8
PARTS
 66
1
 10
0.0
 20
0.0
 30
0.0
 0
VERTEX
 8
PARTS
 10
 11.8400
 20
  3.3400
 30
0.0
 0
VERTEX
 8
PARTS
 10
 11.7600
 20
  3.3400
 30
0.0
 0
SEQEND
 8
PARTS
 0
POLYLINE
 8
PARTS
 66
1
 10
0.0
 20
0.0
 30
0.0
 0
VERTEX
 8
PARTS
 10
 11.7900
 20
  3.3100
 30
0.0
 0
VERTEX
 8
PARTS
 10
 11.8100
 20
  3.3100
 30
0.0
 0
SEQEND
 8
PARTS
 0
POLYLINE
 8
PARTS
 66
1
 10
0.0
 20
0.0
 30
0.0
 0
VERTEX
 8
PARTS
 10
 11.7000
 20
  2.2000
 30
0.0
 0
VERTEX
 8
PARTS
 10
 11.9000
 20
  2.2000
 30
0.0
 0
SEQEND
 8
PARTS
 0
POLYLINE
 8
PARTS
 66
1
 10
0.0
 20
0.0
 30
0.0
 0
VERTEX
 8
PARTS
 10
 11.7300
 20
  2.1700
 30
0.0
 0
VERTEX
 8
PARTS
 10
 11.8700
 20
  2.1700
 30
0.0
 0
SEQEND
 8
PARTS
 0
POLYLINE
 8
PARTS
 66
1
 10
0.0
 20
0.0
 30
0.0
 0
VERTEX
 8
PARTS
 10
 11.8400
 20
  2.1400
 30
0.0
 0
VERTEX
 8
PARTS
 10
 11.7600
 20
  2.1400
 30
0.0
 0
SEQEND
 8
PARTS
 0
POLYLINE
 8
PARTS
 66
1
 10
0.0
 20
0.0
 30
0.0
 0
VERTEX
 8
PARTS
 10
 11.7900
 20
  2.1100
 30
0.0
 0
VERTEX
 8
PARTS
 10
 11.8100
 20
  2.1100
 30
0.0
 0
SEQEND
 8
PARTS
 0
POLYLINE
 8
PARTS
 66
1
 10
0.0
 20
0.0
 30
0.0
 0
VERTEX
 8
PARTS
 10
 11.7000
 20
  5.7000
 30
0.0
 0
VERTEX
 8
PARTS
 10
 11.9000
 20
  5.7000
 30
0.0
 0
SEQEND
 8
PARTS
 0
POLYLINE
 8
PARTS
 66
1
 10
0.0
 20
0.0
 30
0.0
 0
VERTEX
 8
PARTS
 10
 11.7300
 20
  5.6700
 30
0.0
 0
VERTEX
 8
PARTS
 10
 11.8700
 20
  5.6700
 30
0.0
 0
SEQEND
 8
PARTS
 0
POLYLINE
 8
PARTS
 66
1
 10
0.0
 20
0.0
 30
0.0
 0
VERTEX
 8
PARTS
 10
 11.8400
 20
  5.6400
 30
0.0
 0
VERTEX
 8
PARTS
 10
 11.7600
 20
  5.6400
 30
0.0
 0
SEQEND
 8
PARTS
 0
POLYLINE
 8
PARTS
 66
1
 10
0.0
 20
0.0
 30
0.0
 0
VERTEX
 8
PARTS
 10
 11.7900
 20
  5.6100
 30
0.0
 0
VERTEX
 8
PARTS
 10
 11.8100
 20
  5.6100
 30
0.0
 0
SEQEND
 8
PARTS
 0
POLYLINE
 8
PARTS
 66
1
 10
0.0
 20
0.0
 30
0.0
 0
VERTEX
 8
PARTS
 10
  0.8000
 20
  1.3000
 30
0.0
 0
VERTEX
 8
PARTS
 10
  1.0000
 20
  1.3000
 30
0.0
 0
SEQEND
 8
PARTS
 0
POLYLINE
 8
PARTS
 66
1
 10
0.0
 20
0.0
 30
0.0
 0
VERTEX
 8
PARTS
 10
  0.8300
 20
  1.2700
 30
0.0
 0
VERTEX
 8
PARTS
 10
  0.9700
 20
  1.2700
 30
0.0
 0
SEQEND
 8
PARTS
 0
POLYLINE
 8
PARTS
 66
1
 10
0.0
 20
0.0
 30
0.0
 0
VERTEX
 8
PARTS
 10
  0.9400
 20
  1.2400
 30
0.0
 0
VERTEX
 8
PARTS
 10
  0.8600
 20
  1.2400
 30
0.0
 0
SEQEND
 8
PARTS
 0
POLYLINE
 8
PARTS
 66
1
 10
0.0
 20
0.0
 30
0.0
 0
VERTEX
 8
PARTS
 10
  0.8900
 20
  1.2100
 30
0.0
 0
VERTEX
 8
PARTS
 10
  0.9100
 20
  1.2100
 30
0.0
 0
SEQEND
 8
PARTS
 0
POLYLINE
 8
PARTS
 66
1
 10
0.0
 20
0.0
 30
0.0
 0
VERTEX
 8
PARTS
 10
  0.8000
 20
  3.1000
 30
0.0
 0
VERTEX
 8
PARTS
 10
  1.0000
 20
  3.1000
 30
0.0
 0
SEQEND
 8
PARTS
 0
POLYLINE
 8
PARTS
 66
1
 10
0.0
 20
0.0
 30
0.0
 0
VERTEX
 8
PARTS
 10
  0.8300
 20
  3.0700
 30
0.0
 0
VERTEX
 8
PARTS
 10
  0.9700
 20
  3.0700
 30
0.0
 0
SEQEND
 8
PARTS
 0
POLYLINE
 8
PARTS
 66
1
 10
0.0
 20
0.0
 30
0.0
 0
VERTEX
 8
PARTS
 10
  0.9400
 20
  3.0400
 30
0.0
 0
VERTEX
 8
PARTS
 10
  0.8600
 20
  3.0400
 30
0.0
 0
SEQEND
 8
PARTS
 0
POLYLINE
 8
PARTS
 66
1
 10
0.0
 20
0.0
 30
0.0
 0
VERTEX
 8
PARTS
 10
  0.8900
 20
  3.0100
 30
0.0
 0
VERTEX
 8
PARTS
 10
  0.9100
 20
  3.0100
 30
0.0
 0
SEQEND
 8
PARTS
 0
POLYLINE
 8
PARTS
 66
1
 10
0.0
 20
0.0
 30
0.0
 0
VERTEX
 8
PARTS
 10
  0.8000
 20
  8.2000
 30
0.0
 0
VERTEX
 8
PARTS
 10
  1.0000
 20
  8.2000
 30
0.0
 0
SEQEND
 8
PARTS
 0
POLYLINE
 8
PARTS
 66
1
 10
0.0
 20
0.0
 30
0.0
 0
VERTEX
 8
PARTS
 10
  0.8300
 20
  8.1700
 30
0.0
 0
VERTEX
 8
PARTS
 10
  0.9700
 20
  8.1700
 30
0.0
 0
SEQEND
 8
PARTS
 0
POLYLINE
 8
PARTS
 66
1
 10
0.0
 20
0.0
 30
0.0
 0
VERTEX
 8
PARTS
 10
  0.9400
 20
  8.1400
 30
0.0
 0
VERTEX
 8
PARTS
 10
  0.8600
 20
  8.1400
 30
0.0
 0
SEQEND
 8
PARTS
 0
POLYLINE
 8
PARTS
 66
1
 10
0.0
 20
0.0
 30
0.0
 0
VERTEX
 8
PARTS
 10
  0.8900
 20
  8.1100
 30
0.0
 0
VERTEX
 8
PARTS
 10
  0.9100
 20
  8.1100
 30
0.0
 0
SEQEND
 8
PARTS
 0
POLYLINE
 8
PARTS
 66
1
 10
0.0
 20
0.0
 30
0.0
 0
VERTEX
 8
PARTS
 10
 11.7000
 20
  8.9000
 30
0.0
 0
VERTEX
 8
PARTS
 10
 11.9000
 20
  8.9000
 30
0.0
 0
SEQEND
 8
PARTS
 0
POLYLINE
 8
PARTS
 66
1
 10
0.0
 20
0.0
 30
0.0
 0
VERTEX
 8
PARTS
 10
 11.7300
 20
  8.8700
 30
0.0
 0
VERTEX
 8
PARTS
 10
 11.8700
 20
  8.8700
 30
0.0
 0
SEQEND
 8
PARTS
 0
POLYLINE
 8
PARTS
 66
1
 10
0.0
 20
0.0
 30
0.0
 0
VERTEX
 8
PARTS
 10
 11.8400
 20
  8.8400
 30
0.0
 0
VERTEX
 8
PARTS
 10
 11.7600
 20
  8.8400
 30
0.0
 0
SEQEND
 8
PARTS
 0
POLYLINE
 8
PARTS
 66
1
 10
0.0
 20
0.0
 30
0.0
 0
VERTEX
 8
PARTS
 10
 11.7900
 20
  8.8100
 30
0.0
 0
VERTEX
 8
PARTS
 10
 11.8100
 20
  8.8100
 30
0.0
 0
SEQEND
 8
PARTS
 0
POLYLINE
 8
PARTS
 66
1
 10
0.0
 20
0.0
 30
0.0
 0
VERTEX
 8
PARTS
 10
 11.7000
 20
  7.1000
 30
0.0
 0
VERTEX
 8
PARTS
 10
 11.9000
 20
  7.1000
 30
0.0
 0
SEQEND
 8
PARTS
 0
POLYLINE
 8
PARTS
 66
1
 10
0.0
 20
0.0
 30
0.0
 0
VERTEX
 8
PARTS
 10
 11.7300
 20
  7.0700
 30
0.0
 0
VERTEX
 8
PARTS
 10
 11.8700
 20
  7.0700
 30
0.0
 0
SEQEND
 8
PARTS
 0
POLYLINE
 8
PARTS
 66
1
 10
0.0
 20
0.0
 30
0.0
 0
VERTEX
 8
PARTS
 10
 11.8400
 20
  7.0400
 30
0.0
 0
VERTEX
 8
PARTS
 10
 11.7600
 20
  7.0400
 30
0.0
 0
SEQEND
 8
PARTS
 0
POLYLINE
 8
PARTS
 66
1
 10
0.0
 20
0.0
 30
0.0
 0
VERTEX
 8
PARTS
 10
 11.7900
 20
  7.0100
 30
0.0
 0
VERTEX
 8
PARTS
 10
 11.8100
 20
  7.0100
 30
0.0
 0
SEQEND
 8
PARTS
 0
TEXT
 8
PARTTEXT
 10
  4.2000
 20
  7.0686
 30
0.0
 40
  0.0514
 1
XferCtrl+
 0
POLYLINE
 8
PARTS
 66
1
 10
0.0
 20
0.0
 30
0.0
 0
VERTEX
 8
PARTS
 10
  4.9000
 20
  7.1500
 30
0.0
 0
VERTEX
 8
PARTS
 10
  4.7000
 20
  7.1500
 30
0.0
 0
SEQEND
 8
PARTS
 0
POLYLINE
 8
PARTS
 66
1
 10
0.0
 20
0.0
 30
0.0
 0
VERTEX
 8
PARTS
 10
  4.7000
 20
  7.1500
 30
0.0
 0
VERTEX
 8
PARTS
 10
  4.6000
 20
  7.1000
 30
0.0
 0
SEQEND
 8
PARTS
 0
POLYLINE
 8
PARTS
 66
1
 10
0.0
 20
0.0
 30
0.0
 0
VERTEX
 8
PARTS
 10
  4.6000
 20
  7.1000
 30
0.0
 0
VERTEX
 8
PARTS
 10
  4.7000
 20
  7.0500
 30
0.0
 0
SEQEND
 8
PARTS
 0
POLYLINE
 8
PARTS
 66
1
 10
0.0
 20
0.0
 30
0.0
 0
VERTEX
 8
PARTS
 10
  4.7000
 20
  7.0500
 30
0.0
 0
VERTEX
 8
PARTS
 10
  4.9000
 20
  7.0500
 30
0.0
 0
SEQEND
 8
PARTS
 0
POLYLINE
 8
PARTS
 66
1
 10
0.0
 20
0.0
 30
0.0
 0
VERTEX
 8
PARTS
 10
  4.9000
 20
  7.0500
 30
0.0
 0
VERTEX
 8
PARTS
 10
  4.9000
 20
  7.1500
 30
0.0
 0
SEQEND
 8
PARTS
 0
TEXT
 8
PARTTEXT
 10
  4.2000
 20
  4.5686
 30
0.0
 40
  0.0514
 1
XferCtrl+
 0
POLYLINE
 8
PARTS
 66
1
 10
0.0
 20
0.0
 30
0.0
 0
VERTEX
 8
PARTS
 10
  4.9000
 20
  4.6500
 30
0.0
 0
VERTEX
 8
PARTS
 10
  4.7000
 20
  4.6500
 30
0.0
 0
SEQEND
 8
PARTS
 0
POLYLINE
 8
PARTS
 66
1
 10
0.0
 20
0.0
 30
0.0
 0
VERTEX
 8
PARTS
 10
  4.7000
 20
  4.6500
 30
0.0
 0
VERTEX
 8
PARTS
 10
  4.6000
 20
  4.6000
 30
0.0
 0
SEQEND
 8
PARTS
 0
POLYLINE
 8
PARTS
 66
1
 10
0.0
 20
0.0
 30
0.0
 0
VERTEX
 8
PARTS
 10
  4.6000
 20
  4.6000
 30
0.0
 0
VERTEX
 8
PARTS
 10
  4.7000
 20
  4.5500
 30
0.0
 0
SEQEND
 8
PARTS
 0
POLYLINE
 8
PARTS
 66
1
 10
0.0
 20
0.0
 30
0.0
 0
VERTEX
 8
PARTS
 10
  4.7000
 20
  4.5500
 30
0.0
 0
VERTEX
 8
PARTS
 10
  4.9000
 20
  4.5500
 30
0.0
 0
SEQEND
 8
PARTS
 0
POLYLINE
 8
PARTS
 66
1
 10
0.0
 20
0.0
 30
0.0
 0
VERTEX
 8
PARTS
 10
  4.9000
 20
  4.5500
 30
0.0
 0
VERTEX
 8
PARTS
 10
  4.9000
 20
  4.6500
 30
0.0
 0
SEQEND
 8
PARTS
 0
TEXT
 8
PARTTEXT
 10
  6.0200
 20
  7.0686
 30
0.0
 40
  0.0514
 1
XferCtrl-
 0
POLYLINE
 8
PARTS
 66
1
 10
0.0
 20
0.0
 30
0.0
 0
VERTEX
 8
PARTS
 10
  5.7000
 20
  7.1000
 30
0.0
 0
VERTEX
 8
PARTS
 10
  5.8000
 20
  7.1500
 30
0.0
 0
SEQEND
 8
PARTS
 0
POLYLINE
 8
PARTS
 66
1
 10
0.0
 20
0.0
 30
0.0
 0
VERTEX
 8
PARTS
 10
  5.8000
 20
  7.1500
 30
0.0
 0
VERTEX
 8
PARTS
 10
  6.0000
 20
  7.1500
 30
0.0
 0
SEQEND
 8
PARTS
 0
POLYLINE
 8
PARTS
 66
1
 10
0.0
 20
0.0
 30
0.0
 0
VERTEX
 8
PARTS
 10
  6.0000
 20
  7.1500
 30
0.0
 0
VERTEX
 8
PARTS
 10
  6.0000
 20
  7.0500
 30
0.0
 0
SEQEND
 8
PARTS
 0
POLYLINE
 8
PARTS
 66
1
 10
0.0
 20
0.0
 30
0.0
 0
VERTEX
 8
PARTS
 10
  6.0000
 20
  7.0500
 30
0.0
 0
VERTEX
 8
PARTS
 10
  5.8000
 20
  7.0500
 30
0.0
 0
SEQEND
 8
PARTS
 0
POLYLINE
 8
PARTS
 66
1
 10
0.0
 20
0.0
 30
0.0
 0
VERTEX
 8
PARTS
 10
  5.8000
 20
  7.0500
 30
0.0
 0
VERTEX
 8
PARTS
 10
  5.7000
 20
  7.1000
 30
0.0
 0
SEQEND
 8
PARTS
 0
TEXT
 8
PARTTEXT
 10
  6.0200
 20
  4.5686
 30
0.0
 40
  0.0514
 1
XferCtrl-
 0
POLYLINE
 8
PARTS
 66
1
 10
0.0
 20
0.0
 30
0.0
 0
VERTEX
 8
PARTS
 10
  5.7000
 20
  4.6000
 30
0.0
 0
VERTEX
 8
PARTS
 10
  5.8000
 20
  4.6500
 30
0.0
 0
SEQEND
 8
PARTS
 0
POLYLINE
 8
PARTS
 66
1
 10
0.0
 20
0.0
 30
0.0
 0
VERTEX
 8
PARTS
 10
  5.8000
 20
  4.6500
 30
0.0
 0
VERTEX
 8
PARTS
 10
  6.0000
 20
  4.6500
 30
0.0
 0
SEQEND
 8
PARTS
 0
POLYLINE
 8
PARTS
 66
1
 10
0.0
 20
0.0
 30
0.0
 0
VERTEX
 8
PARTS
 10
  6.0000
 20
  4.6500
 30
0.0
 0
VERTEX
 8
PARTS
 10
  6.0000
 20
  4.5500
 30
0.0
 0
SEQEND
 8
PARTS
 0
POLYLINE
 8
PARTS
 66
1
 10
0.0
 20
0.0
 30
0.0
 0
VERTEX
 8
PARTS
 10
  6.0000
 20
  4.5500
 30
0.0
 0
VERTEX
 8
PARTS
 10
  5.8000
 20
  4.5500
 30
0.0
 0
SEQEND
 8
PARTS
 0
POLYLINE
 8
PARTS
 66
1
 10
0.0
 20
0.0
 30
0.0
 0
VERTEX
 8
PARTS
 10
  5.8000
 20
  4.5500
 30
0.0
 0
VERTEX
 8
PARTS
 10
  5.7000
 20
  4.6000
 30
0.0
 0
SEQEND
 8
PARTS
 0
TEXT
 8
COMMENTS
 10
 12.1000
 20
  7.5186
 30
0.0
 40
  0.0514
 1
20MHz
 0
TEXT
 8
COMMENTS
 10
  0.3000
 20
  8.4186
 30
0.0
 40
  0.0514
 1
20MHz
 0
TEXT
 8
COMMENTS
 10
 12.1000
 20
  7.3186
 30
0.0
 40
  0.0514
 1
(R/P to Sinc Filter)
 0
TEXT
 8
COMMENTS
 10
 12.1000
 20
  8.3186
 30
0.0
 40
  0.0514
 1
(F/P)
 0
TEXT
 8
COMMENTS
 10
 12.1000
 20
  8.5186
 30
0.0
 40
  0.0514
 1
20MHz 
 0
TEXT
 8
COMMENTS
 10
 12.1000
 20
  8.4186
 30
0.0
 40
  0.0514
 1
+13dBm
 0
TEXT
 8
COMMENTS
 10
 12.1000
 20
  4.9186
 30
0.0
 40
  0.0514
 1
20MHz 
 0
TEXT
 8
COMMENTS
 10
 12.1000
 20
  3.7186
 30
0.0
 40
  0.0514
 1
20MHz 
 0
TEXT
 8
COMMENTS
 10
 12.1000
 20
  3.5186
 30
0.0
 40
  0.0514
 1
(R/P to Down Converter)
 0
TEXT
 8
COMMENTS
 10
  0.2000
 20
  6.0186
 30
0.0
 40
  0.0514
 1
20MHz
 0
TEXT
 8
COMMENTS
 10
  0.2000
 20
  5.9186
 30
0.0
 40
  0.0514
 1
Fixed
 0
TEXT
 8
COMMENTS
 10
  0.2000
 20
  5.8186
 30
0.0
 40
  0.0514
 1
+13dBm
 0
TEXT
 8
COMMENTS
 10
 12.1000
 20
  2.2186
 30
0.0
 40
  0.0514
 1
(F/P)
 0
TEXT
 8
COMMENTS
 10
 12.1000
 20
  2.4186
 30
0.0
 40
  0.0514
 1
20MHz 
 0
TEXT
 8
COMMENTS
 10
 12.1000
 20
  2.3186
 30
0.0
 40
  0.0514
 1
+13dBm
 0
TEXT
 8
COMMENTS
 10
  0.3000
 20
  8.3186
 30
0.0
 40
  0.0514
 1
-4dBm
 0
TEXT
 8
COMMENTS
 10
 12.1000
 20
  4.7186
 30
0.0
 40
  0.0514
 1
(R/P to Upconverter)
 0
TEXT
 8
COMMENTS
 10
 12.1000
 20
  6.1186
 30
0.0
 40
  0.0514
 1
20MHz
 0
TEXT
 8
COMMENTS
 10
 12.1000
 20
  5.9186
 30
0.0
 40
  0.0514
 1
(R/P to PN Code)
 0
TEXT
 8
COMMENTS
 10
  0.2000
 20
  1.6186
 30
0.0
 40
  0.0514
 1
100MHz 
 0
TEXT
 8
COMMENTS
 10
  0.2000
 20
  1.5186
 30
0.0
 40
  0.0514
 1
+13dBm
 0
TEXT
 8
COMMENTS
 10
  2.5000
 20
  1.5186
 30
0.0
 40
  0.0514
 1
100MHz to /2 PCB
 0
TEXT
 8
COMMENTS
 10
  2.3000
 20
  8.8186
 30
0.0
 40
  0.0514
 1
-9dBm
 0
TEXT
 8
COMMENTS
 10
  4.4000
 20
  8.8186
 30
0.0
 40
  0.0514
 1
0dBm
 0
TEXT
 8
COMMENTS
 10
 12.1000
 20
  3.6186
 30
0.0
 40
  0.0514
 1
+13dBm
 0
TEXT
 8
COMMENTS
 10
 12.1000
 20
  4.8186
 30
0.0
 40
  0.0514
 1
+13dBm
 0
TEXT
 8
COMMENTS
 10
  0.3000
 20
  8.5186
 30
0.0
 40
  0.0514
 1
DDS2
 0
TEXT
 8
COMMENTS
 10
  0.3000
 20
  3.4186
 30
0.0
 40
  0.0514
 1
20MHz
 0
TEXT
 8
COMMENTS
 10
  0.3000
 20
  3.2186
 30
0.0
 40
  0.0514
 1
-4dBm
 0
TEXT
 8
COMMENTS
 10
  0.3000
 20
  3.3186
 30
0.0
 40
  0.0514
 1
DDS1
 0
TEXT
 8
COMMENTS
 10
 12.1000
 20
  8.6186
 30
0.0
 40
  0.0514
 1
DDS2
 0
TEXT
 8
COMMENTS
 10
 12.1000
 20
  7.4186
 30
0.0
 40
  0.0514
 1
+13dBm
 0
TEXT
 8
COMMENTS
 10
 12.1000
 20
  6.0186
 30
0.0
 40
  0.0514
 1
+13dBm
 0
TEXT
 8
COMMENTS
 10
 12.1000
 20
  2.5186
 30
0.0
 40
  0.0514
 1
DDS1
 0
TEXT
 8
COMMENTS
 10
  0.2000
 20
  5.7186
 30
0.0
 40
  0.0514
 1
(R/P)
 0
TEXT
 8
COMMENTS
 10
  0.2000
 20
  1.4186
 30
0.0
 40
  0.0514
 1
(R/P)
 0
TEXT
 8
COMMENTS
 10
 12.1000
 20
  9.0186
 30
0.0
 40
  0.0514
 1
(R/P)
 0
TEXT
 8
COMMENTS
 10
 12.1000
 20
  9.2186
 30
0.0
 40
  0.0514
 1
20MHz 
 0
TEXT
 8
COMMENTS
 10
 12.1000
 20
  9.1186
 30
0.0
 40
  0.0514
 1
+13dBm
 0
TEXT
 8
COMMENTS
 10
 12.1000
 20
  9.3186
 30
0.0
 40
  0.0514
 1
To Timing Gen. Drifted Clock
 0
ENDSEC
 0
EOF
