 0
SECTION
 2
HEADER
 9
$ACADVER
 1
AC1009
 0
ENDSEC
 0
SECTION
 2
ENTITIES
 0
POLYLINE
 8
TITLE
 66
1
 70
1
 10
0.0
 20
0.0
 30
0.0
 0
VERTEX
 8
TITLE
 10
 -0.1000
 20
  0.1000
 30
0.0
 0
VERTEX
 8
TITLE
 10
 15.1000
 20
  0.1000
 30
0.0
 0
VERTEX
 8
TITLE
 10
 15.1000
 20
  9.8000
 30
0.0
 0
VERTEX
 8
TITLE
 10
 -0.1000
 20
  9.8000
 30
0.0
 0
SEQEND
 8
TITLE
 0
POLYLINE
 8
TITLE
 66
1
 70
1
 10
0.0
 20
0.0
 30
0.0
 0
VERTEX
 8
TITLE
 10
  0.0000
 20
  0.2000
 30
0.0
 0
VERTEX
 8
TITLE
 10
 15.0000
 20
  0.2000
 30
0.0
 0
VERTEX
 8
TITLE
 10
 15.0000
 20
  9.7000
 30
0.0
 0
VERTEX
 8
TITLE
 10
  0.0000
 20
  9.7000
 30
0.0
 0
SEQEND
 8
TITLE
 0
POLYLINE
 8
TITLE
 66
1
 10
0.0
 20
0.0
 30
0.0
 0
VERTEX
 8
TITLE
 10
  2.0500
 20
  0.2000
 30
0.0
 0
VERTEX
 8
TITLE
 10
  2.0500
 20
  0.1000
 30
0.0
 0
SEQEND
 8
TITLE
 0
POLYLINE
 8
TITLE
 66
1
 10
0.0
 20
0.0
 30
0.0
 0
VERTEX
 8
TITLE
 10
  2.0500
 20
  9.7000
 30
0.0
 0
VERTEX
 8
TITLE
 10
  2.0500
 20
  9.8000
 30
0.0
 0
SEQEND
 8
TITLE
 0
SOLID
 8
TITLE
 10
  7.6000
 20
  0.2000
 30
0.0
 11
  7.5800
 21
  0.1500
 31
0.0
 12
  7.6200
 22
  0.1500
 32
0.0
 13
  7.6000
 23
  0.1500
 33
0.0
 0
SOLID
 8
TITLE
 10
  7.6000
 20
  9.7000
 30
0.0
 11
  7.5800
 21
  9.7500
 31
0.0
 12
  7.6200
 22
  9.7500
 32
0.0
 13
  7.6000
 23
  9.7500
 33
0.0
 0
POLYLINE
 8
TITLE
 66
1
 10
0.0
 20
0.0
 30
0.0
 0
VERTEX
 8
TITLE
 10
  3.9000
 20
  0.2000
 30
0.0
 0
VERTEX
 8
TITLE
 10
  3.9000
 20
  0.1000
 30
0.0
 0
SEQEND
 8
TITLE
 0
POLYLINE
 8
TITLE
 66
1
 10
0.0
 20
0.0
 30
0.0
 0
VERTEX
 8
TITLE
 10
  3.9000
 20
  9.7000
 30
0.0
 0
VERTEX
 8
TITLE
 10
  3.9000
 20
  9.8000
 30
0.0
 0
SEQEND
 8
TITLE
 0
SOLID
 8
TITLE
 10
  7.6000
 20
  0.2000
 30
0.0
 11
  7.5800
 21
  0.1500
 31
0.0
 12
  7.6200
 22
  0.1500
 32
0.0
 13
  7.6000
 23
  0.1500
 33
0.0
 0
SOLID
 8
TITLE
 10
  7.6000
 20
  9.7000
 30
0.0
 11
  7.5800
 21
  9.7500
 31
0.0
 12
  7.6200
 22
  9.7500
 32
0.0
 13
  7.6000
 23
  9.7500
 33
0.0
 0
POLYLINE
 8
TITLE
 66
1
 10
0.0
 20
0.0
 30
0.0
 0
VERTEX
 8
TITLE
 10
  5.7500
 20
  0.2000
 30
0.0
 0
VERTEX
 8
TITLE
 10
  5.7500
 20
  0.1000
 30
0.0
 0
SEQEND
 8
TITLE
 0
POLYLINE
 8
TITLE
 66
1
 10
0.0
 20
0.0
 30
0.0
 0
VERTEX
 8
TITLE
 10
  5.7500
 20
  9.7000
 30
0.0
 0
VERTEX
 8
TITLE
 10
  5.7500
 20
  9.8000
 30
0.0
 0
SEQEND
 8
TITLE
 0
SOLID
 8
TITLE
 10
  7.6000
 20
  0.2000
 30
0.0
 11
  7.5800
 21
  0.1500
 31
0.0
 12
  7.6200
 22
  0.1500
 32
0.0
 13
  7.6000
 23
  0.1500
 33
0.0
 0
SOLID
 8
TITLE
 10
  7.6000
 20
  9.7000
 30
0.0
 11
  7.5800
 21
  9.7500
 31
0.0
 12
  7.6200
 22
  9.7500
 32
0.0
 13
  7.6000
 23
  9.7500
 33
0.0
 0
POLYLINE
 8
TITLE
 66
1
 10
0.0
 20
0.0
 30
0.0
 0
VERTEX
 8
TITLE
 10
  7.6000
 20
  0.2000
 30
0.0
 0
VERTEX
 8
TITLE
 10
  7.6000
 20
  0.1000
 30
0.0
 0
SEQEND
 8
TITLE
 0
POLYLINE
 8
TITLE
 66
1
 10
0.0
 20
0.0
 30
0.0
 0
VERTEX
 8
TITLE
 10
  7.6000
 20
  9.7000
 30
0.0
 0
VERTEX
 8
TITLE
 10
  7.6000
 20
  9.8000
 30
0.0
 0
SEQEND
 8
TITLE
 0
SOLID
 8
TITLE
 10
  7.6000
 20
  0.2000
 30
0.0
 11
  7.5800
 21
  0.1500
 31
0.0
 12
  7.6200
 22
  0.1500
 32
0.0
 13
  7.6000
 23
  0.1500
 33
0.0
 0
SOLID
 8
TITLE
 10
  7.6000
 20
  9.7000
 30
0.0
 11
  7.5800
 21
  9.7500
 31
0.0
 12
  7.6200
 22
  9.7500
 32
0.0
 13
  7.6000
 23
  9.7500
 33
0.0
 0
POLYLINE
 8
TITLE
 66
1
 10
0.0
 20
0.0
 30
0.0
 0
VERTEX
 8
TITLE
 10
  9.4500
 20
  0.2000
 30
0.0
 0
VERTEX
 8
TITLE
 10
  9.4500
 20
  0.1000
 30
0.0
 0
SEQEND
 8
TITLE
 0
POLYLINE
 8
TITLE
 66
1
 10
0.0
 20
0.0
 30
0.0
 0
VERTEX
 8
TITLE
 10
  9.4500
 20
  9.7000
 30
0.0
 0
VERTEX
 8
TITLE
 10
  9.4500
 20
  9.8000
 30
0.0
 0
SEQEND
 8
TITLE
 0
SOLID
 8
TITLE
 10
  7.6000
 20
  0.2000
 30
0.0
 11
  7.5800
 21
  0.1500
 31
0.0
 12
  7.6200
 22
  0.1500
 32
0.0
 13
  7.6000
 23
  0.1500
 33
0.0
 0
SOLID
 8
TITLE
 10
  7.6000
 20
  9.7000
 30
0.0
 11
  7.5800
 21
  9.7500
 31
0.0
 12
  7.6200
 22
  9.7500
 32
0.0
 13
  7.6000
 23
  9.7500
 33
0.0
 0
POLYLINE
 8
TITLE
 66
1
 10
0.0
 20
0.0
 30
0.0
 0
VERTEX
 8
TITLE
 10
 11.3000
 20
  0.2000
 30
0.0
 0
VERTEX
 8
TITLE
 10
 11.3000
 20
  0.1000
 30
0.0
 0
SEQEND
 8
TITLE
 0
POLYLINE
 8
TITLE
 66
1
 10
0.0
 20
0.0
 30
0.0
 0
VERTEX
 8
TITLE
 10
 11.3000
 20
  9.7000
 30
0.0
 0
VERTEX
 8
TITLE
 10
 11.3000
 20
  9.8000
 30
0.0
 0
SEQEND
 8
TITLE
 0
SOLID
 8
TITLE
 10
  7.6000
 20
  0.2000
 30
0.0
 11
  7.5800
 21
  0.1500
 31
0.0
 12
  7.6200
 22
  0.1500
 32
0.0
 13
  7.6000
 23
  0.1500
 33
0.0
 0
SOLID
 8
TITLE
 10
  7.6000
 20
  9.7000
 30
0.0
 11
  7.5800
 21
  9.7500
 31
0.0
 12
  7.6200
 22
  9.7500
 32
0.0
 13
  7.6000
 23
  9.7500
 33
0.0
 0
POLYLINE
 8
TITLE
 66
1
 10
0.0
 20
0.0
 30
0.0
 0
VERTEX
 8
TITLE
 10
 13.1500
 20
  0.2000
 30
0.0
 0
VERTEX
 8
TITLE
 10
 13.1500
 20
  0.1000
 30
0.0
 0
SEQEND
 8
TITLE
 0
POLYLINE
 8
TITLE
 66
1
 10
0.0
 20
0.0
 30
0.0
 0
VERTEX
 8
TITLE
 10
 13.1500
 20
  9.7000
 30
0.0
 0
VERTEX
 8
TITLE
 10
 13.1500
 20
  9.8000
 30
0.0
 0
SEQEND
 8
TITLE
 0
SOLID
 8
TITLE
 10
  7.6000
 20
  0.2000
 30
0.0
 11
  7.5800
 21
  0.1500
 31
0.0
 12
  7.6200
 22
  0.1500
 32
0.0
 13
  7.6000
 23
  0.1500
 33
0.0
 0
SOLID
 8
TITLE
 10
  7.6000
 20
  9.7000
 30
0.0
 11
  7.5800
 21
  9.7500
 31
0.0
 12
  7.6200
 22
  9.7500
 32
0.0
 13
  7.6000
 23
  9.7500
 33
0.0
 0
TEXT
 8
TITLE
 10
  1.1200
 20
  0.1200
 30
0.0
 40
  0.0500
 1
8
 0
TEXT
 8
TITLE
 10
  1.1200
 20
  9.7200
 30
0.0
 40
  0.0500
 1
8
 0
TEXT
 8
TITLE
 10
  2.9700
 20
  0.1200
 30
0.0
 40
  0.0500
 1
7
 0
TEXT
 8
TITLE
 10
  2.9700
 20
  9.7200
 30
0.0
 40
  0.0500
 1
7
 0
TEXT
 8
TITLE
 10
  4.8200
 20
  0.1200
 30
0.0
 40
  0.0500
 1
6
 0
TEXT
 8
TITLE
 10
  4.8200
 20
  9.7200
 30
0.0
 40
  0.0500
 1
6
 0
TEXT
 8
TITLE
 10
  6.6700
 20
  0.1200
 30
0.0
 40
  0.0500
 1
5
 0
TEXT
 8
TITLE
 10
  6.6700
 20
  9.7200
 30
0.0
 40
  0.0500
 1
5
 0
TEXT
 8
TITLE
 10
  8.5200
 20
  0.1200
 30
0.0
 40
  0.0500
 1
4
 0
TEXT
 8
TITLE
 10
  8.5200
 20
  9.7200
 30
0.0
 40
  0.0500
 1
4
 0
TEXT
 8
TITLE
 10
 10.3700
 20
  0.1200
 30
0.0
 40
  0.0500
 1
3
 0
TEXT
 8
TITLE
 10
 10.3700
 20
  9.7200
 30
0.0
 40
  0.0500
 1
3
 0
TEXT
 8
TITLE
 10
 12.2200
 20
  0.1200
 30
0.0
 40
  0.0500
 1
2
 0
TEXT
 8
TITLE
 10
 12.2200
 20
  9.7200
 30
0.0
 40
  0.0500
 1
2
 0
TEXT
 8
TITLE
 10
 14.0700
 20
  0.1200
 30
0.0
 40
  0.0500
 1
1
 0
TEXT
 8
TITLE
 10
 14.0700
 20
  9.7200
 30
0.0
 40
  0.0500
 1
1
 0
POLYLINE
 8
TITLE
 66
1
 10
0.0
 20
0.0
 30
0.0
 0
VERTEX
 8
TITLE
 10
 -0.1000
 20
  7.1800
 30
0.0
 0
VERTEX
 8
TITLE
 10
  0.0000
 20
  7.1800
 30
0.0
 0
SEQEND
 8
TITLE
 0
POLYLINE
 8
TITLE
 66
1
 10
0.0
 20
0.0
 30
0.0
 0
VERTEX
 8
TITLE
 10
 15.0000
 20
  7.1800
 30
0.0
 0
VERTEX
 8
TITLE
 10
 15.1000
 20
  7.1800
 30
0.0
 0
SEQEND
 8
TITLE
 0
SOLID
 8
TITLE
 10
  0.0000
 20
  4.8600
 30
0.0
 11
 -0.0500
 21
  4.8800
 31
0.0
 12
 -0.0500
 22
  4.8400
 32
0.0
 13
 -0.0500
 23
  4.8600
 33
0.0
 0
SOLID
 8
TITLE
 10
 15.0000
 20
  4.8600
 30
0.0
 11
 15.0500
 21
  4.8800
 31
0.0
 12
 15.0500
 22
  4.8400
 32
0.0
 13
 15.0500
 23
  4.8600
 33
0.0
 0
POLYLINE
 8
TITLE
 66
1
 10
0.0
 20
0.0
 30
0.0
 0
VERTEX
 8
TITLE
 10
 -0.1000
 20
  4.8600
 30
0.0
 0
VERTEX
 8
TITLE
 10
  0.0000
 20
  4.8600
 30
0.0
 0
SEQEND
 8
TITLE
 0
POLYLINE
 8
TITLE
 66
1
 10
0.0
 20
0.0
 30
0.0
 0
VERTEX
 8
TITLE
 10
 15.0000
 20
  4.8600
 30
0.0
 0
VERTEX
 8
TITLE
 10
 15.1000
 20
  4.8600
 30
0.0
 0
SEQEND
 8
TITLE
 0
SOLID
 8
TITLE
 10
  0.0000
 20
  4.8600
 30
0.0
 11
 -0.0500
 21
  4.8800
 31
0.0
 12
 -0.0500
 22
  4.8400
 32
0.0
 13
 -0.0500
 23
  4.8600
 33
0.0
 0
SOLID
 8
TITLE
 10
 15.0000
 20
  4.8600
 30
0.0
 11
 15.0500
 21
  4.8800
 31
0.0
 12
 15.0500
 22
  4.8400
 32
0.0
 13
 15.0500
 23
  4.8600
 33
0.0
 0
POLYLINE
 8
TITLE
 66
1
 10
0.0
 20
0.0
 30
0.0
 0
VERTEX
 8
TITLE
 10
 -0.1000
 20
  2.5400
 30
0.0
 0
VERTEX
 8
TITLE
 10
  0.0000
 20
  2.5400
 30
0.0
 0
SEQEND
 8
TITLE
 0
POLYLINE
 8
TITLE
 66
1
 10
0.0
 20
0.0
 30
0.0
 0
VERTEX
 8
TITLE
 10
 15.0000
 20
  2.5400
 30
0.0
 0
VERTEX
 8
TITLE
 10
 15.1000
 20
  2.5400
 30
0.0
 0
SEQEND
 8
TITLE
 0
SOLID
 8
TITLE
 10
  0.0000
 20
  4.8600
 30
0.0
 11
 -0.0500
 21
  4.8800
 31
0.0
 12
 -0.0500
 22
  4.8400
 32
0.0
 13
 -0.0500
 23
  4.8600
 33
0.0
 0
SOLID
 8
TITLE
 10
 15.0000
 20
  4.8600
 30
0.0
 11
 15.0500
 21
  4.8800
 31
0.0
 12
 15.0500
 22
  4.8400
 32
0.0
 13
 15.0500
 23
  4.8600
 33
0.0
 0
TEXT
 8
TITLE
 10
 -0.0800
 20
  8.3400
 30
0.0
 40
  0.0500
 1
D
 0
TEXT
 8
TITLE
 10
 15.0200
 20
  8.3400
 30
0.0
 40
  0.0500
 1
D
 0
TEXT
 8
TITLE
 10
 -0.0800
 20
  6.0200
 30
0.0
 40
  0.0500
 1
C
 0
TEXT
 8
TITLE
 10
 15.0200
 20
  6.0200
 30
0.0
 40
  0.0500
 1
C
 0
TEXT
 8
TITLE
 10
 -0.0800
 20
  3.7000
 30
0.0
 40
  0.0500
 1
B
 0
TEXT
 8
TITLE
 10
 15.0200
 20
  3.7000
 30
0.0
 40
  0.0500
 1
B
 0
TEXT
 8
TITLE
 10
 -0.0800
 20
  1.3800
 30
0.0
 40
  0.0500
 1
A
 0
TEXT
 8
TITLE
 10
 15.0200
 20
  1.3800
 30
0.0
 40
  0.0500
 1
A
 0
TEXT
 8
TITLE
 10
 11.7000
 20
  0.4186
 30
0.0
 40
  0.0514
 1
POWER SUPPLY CHASSIS
 0
TEXT
 8
TITLE
 10
 14.6700
 20
  0.3986
 30
0.0
 40
  0.0514
 1
0
 0
TEXT
 8
TITLE
 10
 11.7000
 20
  0.7186
 30
0.0
 40
  0.0514
 1
DDS CONTROLLER
 0
TEXT
 8
TITLE
 10
 11.3000
 20
  1.3186
 30
0.0
 40
  0.0514
 1
ARECIBO OBSERVATORY
 0
TEXT
 8
TITLE
 10
 11.3000
 20
  1.1186
 30
0.0
 40
  0.0514
 1
BY : BILL SISK
 0
TEXT
 8
TITLE
 10
 11.3000
 20
  1.0186
 30
0.0
 40
  0.0514
 1
FILE : DDS8.SCH
 0
TEXT
 8
TITLE
 10
 11.4000
 20
  0.4186
 30
0.0
 40
  0.0514
 1
B
 0
TEXT
 8
TITLE
 10
 13.8000
 20
  0.2186
 30
0.0
 40
  0.0514
 1
1
 0
TEXT
 8
TITLE
 10
 14.4000
 20
  0.2186
 30
0.0
 40
  0.0514
 1
1
 0
TEXT
 8
TITLE
 10
 11.7100
 20
  0.2186
 30
0.0
 40
  0.0514
 1
Wednesday, December 10, 2003
 0
TEXT
 8
PARTTEXT
 10
 11.3000
 20
  0.8186
 30
0.0
 40
  0.0514
 1
Title
 0
TEXT
 8
PARTTEXT
 10
 11.3000
 20
  0.5186
 30
0.0
 40
  0.0514
 1
Size
 0
TEXT
 8
PARTTEXT
 10
 11.7000
 20
  0.5186
 30
0.0
 40
  0.0514
 1
Document Number
 0
TEXT
 8
PARTTEXT
 10
 14.6000
 20
  0.5186
 30
0.0
 40
  0.0514
 1
Rev
 0
TEXT
 8
PARTTEXT
 10
 11.3000
 20
  0.2186
 30
0.0
 40
  0.0514
 1
Date:
 0
TEXT
 8
PARTTEXT
 10
 13.3000
 20
  0.2186
 30
0.0
 40
  0.0514
 1
Sheet
 0
POLYLINE
 8
TITLE
 66
1
 70
1
 10
0.0
 20
0.0
 30
0.0
 0
VERTEX
 8
TITLE
 10
 11.3000
 20
  1.4000
 30
0.0
 0
VERTEX
 8
TITLE
 10
 14.9000
 20
  1.4000
 30
0.0
 0
VERTEX
 8
TITLE
 10
 14.9000
 20
  0.9000
 30
0.0
 0
VERTEX
 8
TITLE
 10
 11.3000
 20
  0.9000
 30
0.0
 0
SEQEND
 8
TITLE
 0
POLYLINE
 8
TITLE
 66
1
 70
1
 10
0.0
 20
0.0
 30
0.0
 0
VERTEX
 8
TITLE
 10
 11.3000
 20
  0.9000
 30
0.0
 0
VERTEX
 8
TITLE
 10
 14.9000
 20
  0.9000
 30
0.0
 0
VERTEX
 8
TITLE
 10
 14.9000
 20
  0.6000
 30
0.0
 0
VERTEX
 8
TITLE
 10
 11.3000
 20
  0.6000
 30
0.0
 0
SEQEND
 8
TITLE
 0
POLYLINE
 8
TITLE
 66
1
 70
1
 10
0.0
 20
0.0
 30
0.0
 0
VERTEX
 8
TITLE
 10
 11.3000
 20
  0.6000
 30
0.0
 0
VERTEX
 8
TITLE
 10
 11.6000
 20
  0.6000
 30
0.0
 0
VERTEX
 8
TITLE
 10
 11.6000
 20
  0.3000
 30
0.0
 0
VERTEX
 8
TITLE
 10
 11.3000
 20
  0.3000
 30
0.0
 0
SEQEND
 8
TITLE
 0
POLYLINE
 8
TITLE
 66
1
 70
1
 10
0.0
 20
0.0
 30
0.0
 0
VERTEX
 8
TITLE
 10
 11.6000
 20
  0.6000
 30
0.0
 0
VERTEX
 8
TITLE
 10
 14.6000
 20
  0.6000
 30
0.0
 0
VERTEX
 8
TITLE
 10
 14.6000
 20
  0.3000
 30
0.0
 0
VERTEX
 8
TITLE
 10
 11.6000
 20
  0.3000
 30
0.0
 0
SEQEND
 8
TITLE
 0
POLYLINE
 8
TITLE
 66
1
 70
1
 10
0.0
 20
0.0
 30
0.0
 0
VERTEX
 8
TITLE
 10
 14.6000
 20
  0.6000
 30
0.0
 0
VERTEX
 8
TITLE
 10
 14.9000
 20
  0.6000
 30
0.0
 0
VERTEX
 8
TITLE
 10
 14.9000
 20
  0.3000
 30
0.0
 0
VERTEX
 8
TITLE
 10
 14.6000
 20
  0.3000
 30
0.0
 0
SEQEND
 8
TITLE
 0
POLYLINE
 8
TITLE
 66
1
 70
1
 10
0.0
 20
0.0
 30
0.0
 0
VERTEX
 8
TITLE
 10
 11.3000
 20
  0.3000
 30
0.0
 0
VERTEX
 8
TITLE
 10
 13.3000
 20
  0.3000
 30
0.0
 0
VERTEX
 8
TITLE
 10
 13.3000
 20
  0.2000
 30
0.0
 0
VERTEX
 8
TITLE
 10
 11.3000
 20
  0.2000
 30
0.0
 0
SEQEND
 8
TITLE
 0
POLYLINE
 8
TITLE
 66
1
 70
1
 10
0.0
 20
0.0
 30
0.0
 0
VERTEX
 8
TITLE
 10
 13.3000
 20
  0.3000
 30
0.0
 0
VERTEX
 8
TITLE
 10
 14.9000
 20
  0.3000
 30
0.0
 0
VERTEX
 8
TITLE
 10
 14.9000
 20
  0.2000
 30
0.0
 0
VERTEX
 8
TITLE
 10
 13.3000
 20
  0.2000
 30
0.0
 0
SEQEND
 8
TITLE
 0
TEXT
 8
PARTTEXT
 10
 14.1000
 20
  0.2186
 30
0.0
 40
  0.0514
 1
of
 0
POLYLINE
 8
WIRE
 66
1
 10
0.0
 20
0.0
 30
0.0
 0
VERTEX
 8
WIRE
 10
  2.8000
 20
  7.6000
 30
0.0
 0
VERTEX
 8
WIRE
 10
  4.3000
 20
  7.6000
 30
0.0
 0
SEQEND
 8
WIRE
 0
POLYLINE
 8
WIRE
 66
1
 10
0.0
 20
0.0
 30
0.0
 0
VERTEX
 8
WIRE
 10
  5.2000
 20
  7.6000
 30
0.0
 0
VERTEX
 8
WIRE
 10
  6.7000
 20
  7.6000
 30
0.0
 0
SEQEND
 8
WIRE
 0
POLYLINE
 8
WIRE
 66
1
 10
0.0
 20
0.0
 30
0.0
 0
VERTEX
 8
WIRE
 10
  7.7000
 20
  7.6000
 30
0.0
 0
VERTEX
 8
WIRE
 10
  9.2000
 20
  7.6000
 30
0.0
 0
SEQEND
 8
WIRE
 0
POLYLINE
 8
WIRE
 66
1
 10
0.0
 20
0.0
 30
0.0
 0
VERTEX
 8
WIRE
 10
 10.2000
 20
  7.6000
 30
0.0
 0
VERTEX
 8
WIRE
 10
 11.7000
 20
  7.6000
 30
0.0
 0
SEQEND
 8
WIRE
 0
POLYLINE
 8
WIRE
 66
1
 10
0.0
 20
0.0
 30
0.0
 0
VERTEX
 8
WIRE
 10
  4.3000
 20
  6.5000
 30
0.0
 0
VERTEX
 8
WIRE
 10
  4.5000
 20
  6.5000
 30
0.0
 0
SEQEND
 8
WIRE
 0
POLYLINE
 8
WIRE
 66
1
 10
0.0
 20
0.0
 30
0.0
 0
VERTEX
 8
WIRE
 10
  6.7000
 20
  6.5000
 30
0.0
 0
VERTEX
 8
WIRE
 10
  6.9000
 20
  6.5000
 30
0.0
 0
SEQEND
 8
WIRE
 0
POLYLINE
 8
WIRE
 66
1
 10
0.0
 20
0.0
 30
0.0
 0
VERTEX
 8
WIRE
 10
  9.2000
 20
  6.5000
 30
0.0
 0
VERTEX
 8
WIRE
 10
  9.4000
 20
  6.5000
 30
0.0
 0
SEQEND
 8
WIRE
 0
POLYLINE
 8
WIRE
 66
1
 10
0.0
 20
0.0
 30
0.0
 0
VERTEX
 8
WIRE
 10
 11.7000
 20
  6.5000
 30
0.0
 0
VERTEX
 8
WIRE
 10
 11.9000
 20
  6.5000
 30
0.0
 0
SEQEND
 8
WIRE
 0
POLYLINE
 8
WIRE
 66
1
 10
0.0
 20
0.0
 30
0.0
 0
VERTEX
 8
WIRE
 10
  2.8000
 20
  6.3000
 30
0.0
 0
VERTEX
 8
WIRE
 10
  4.3000
 20
  6.3000
 30
0.0
 0
SEQEND
 8
WIRE
 0
POLYLINE
 8
WIRE
 66
1
 10
0.0
 20
0.0
 30
0.0
 0
VERTEX
 8
WIRE
 10
  5.2000
 20
  6.3000
 30
0.0
 0
VERTEX
 8
WIRE
 10
  6.7000
 20
  6.3000
 30
0.0
 0
SEQEND
 8
WIRE
 0
POLYLINE
 8
WIRE
 66
1
 10
0.0
 20
0.0
 30
0.0
 0
VERTEX
 8
WIRE
 10
  7.7000
 20
  6.3000
 30
0.0
 0
VERTEX
 8
WIRE
 10
  9.2000
 20
  6.3000
 30
0.0
 0
SEQEND
 8
WIRE
 0
POLYLINE
 8
WIRE
 66
1
 10
0.0
 20
0.0
 30
0.0
 0
VERTEX
 8
WIRE
 10
 10.2000
 20
  6.3000
 30
0.0
 0
VERTEX
 8
WIRE
 10
 11.7000
 20
  6.3000
 30
0.0
 0
SEQEND
 8
WIRE
 0
POLYLINE
 8
WIRE
 66
1
 10
0.0
 20
0.0
 30
0.0
 0
VERTEX
 8
WIRE
 10
  2.8000
 20
  5.5000
 30
0.0
 0
VERTEX
 8
WIRE
 10
  4.3000
 20
  5.5000
 30
0.0
 0
SEQEND
 8
WIRE
 0
POLYLINE
 8
WIRE
 66
1
 10
0.0
 20
0.0
 30
0.0
 0
VERTEX
 8
WIRE
 10
  5.2000
 20
  5.5000
 30
0.0
 0
VERTEX
 8
WIRE
 10
  6.7000
 20
  5.5000
 30
0.0
 0
SEQEND
 8
WIRE
 0
POLYLINE
 8
WIRE
 66
1
 10
0.0
 20
0.0
 30
0.0
 0
VERTEX
 8
WIRE
 10
  4.3000
 20
  5.3000
 30
0.0
 0
VERTEX
 8
WIRE
 10
  4.5000
 20
  5.3000
 30
0.0
 0
SEQEND
 8
WIRE
 0
POLYLINE
 8
WIRE
 66
1
 10
0.0
 20
0.0
 30
0.0
 0
VERTEX
 8
WIRE
 10
  6.7000
 20
  4.4000
 30
0.0
 0
VERTEX
 8
WIRE
 10
  6.9000
 20
  4.4000
 30
0.0
 0
SEQEND
 8
WIRE
 0
POLYLINE
 8
WIRE
 66
1
 10
0.0
 20
0.0
 30
0.0
 0
VERTEX
 8
WIRE
 10
  2.8000
 20
  4.2000
 30
0.0
 0
VERTEX
 8
WIRE
 10
  4.3000
 20
  4.2000
 30
0.0
 0
SEQEND
 8
WIRE
 0
POLYLINE
 8
WIRE
 66
1
 10
0.0
 20
0.0
 30
0.0
 0
VERTEX
 8
WIRE
 10
  5.2000
 20
  4.2000
 30
0.0
 0
VERTEX
 8
WIRE
 10
  6.7000
 20
  4.2000
 30
0.0
 0
SEQEND
 8
WIRE
 0
POLYLINE
 8
WIRE
 66
1
 10
0.0
 20
0.0
 30
0.0
 0
VERTEX
 8
WIRE
 10
  2.8000
 20
  7.6000
 30
0.0
 0
VERTEX
 8
WIRE
 10
  2.8000
 20
  6.3000
 30
0.0
 0
SEQEND
 8
WIRE
 0
POLYLINE
 8
WIRE
 66
1
 10
0.0
 20
0.0
 30
0.0
 0
VERTEX
 8
WIRE
 10
  2.8000
 20
  5.5000
 30
0.0
 0
VERTEX
 8
WIRE
 10
  2.8000
 20
  4.2000
 30
0.0
 0
SEQEND
 8
WIRE
 0
POLYLINE
 8
WIRE
 66
1
 10
0.0
 20
0.0
 30
0.0
 0
VERTEX
 8
WIRE
 10
  4.3000
 20
  7.6000
 30
0.0
 0
VERTEX
 8
WIRE
 10
  4.3000
 20
  7.4000
 30
0.0
 0
SEQEND
 8
WIRE
 0
POLYLINE
 8
WIRE
 66
1
 70
1
 10
0.0
 20
0.0
 30
0.0
 40
  0.0200
 41
  0.0200
 0
VERTEX
 8
WIRE
 10
  4.2900
 20
  7.4000
 30
0.0
 42
1.0
 0
VERTEX
 8
WIRE
 10
  4.3100
 20
  7.4000
 30
0.0
 42
1.0
 0
SEQEND
 8
WIRE
 0
POLYLINE
 8
WIRE
 66
1
 10
0.0
 20
0.0
 30
0.0
 0
VERTEX
 8
WIRE
 10
  4.3000
 20
  5.5000
 30
0.0
 0
VERTEX
 8
WIRE
 10
  4.3000
 20
  5.3000
 30
0.0
 0
SEQEND
 8
WIRE
 0
POLYLINE
 8
WIRE
 66
1
 70
1
 10
0.0
 20
0.0
 30
0.0
 40
  0.0200
 41
  0.0200
 0
VERTEX
 8
WIRE
 10
  4.2900
 20
  5.3000
 30
0.0
 42
1.0
 0
VERTEX
 8
WIRE
 10
  4.3100
 20
  5.3000
 30
0.0
 42
1.0
 0
SEQEND
 8
WIRE
 0
POLYLINE
 8
WIRE
 66
1
 10
0.0
 20
0.0
 30
0.0
 0
VERTEX
 8
WIRE
 10
  4.5000
 20
  6.5000
 30
0.0
 0
VERTEX
 8
WIRE
 10
  4.5000
 20
  6.4000
 30
0.0
 0
SEQEND
 8
WIRE
 0
POLYLINE
 8
WIRE
 66
1
 10
0.0
 20
0.0
 30
0.0
 0
VERTEX
 8
WIRE
 10
  4.5000
 20
  5.3000
 30
0.0
 0
VERTEX
 8
WIRE
 10
  4.5000
 20
  5.2000
 30
0.0
 0
SEQEND
 8
WIRE
 0
POLYLINE
 8
WIRE
 66
1
 10
0.0
 20
0.0
 30
0.0
 0
VERTEX
 8
WIRE
 10
  5.2000
 20
  7.6000
 30
0.0
 0
VERTEX
 8
WIRE
 10
  5.2000
 20
  6.3000
 30
0.0
 0
SEQEND
 8
WIRE
 0
POLYLINE
 8
WIRE
 66
1
 10
0.0
 20
0.0
 30
0.0
 0
VERTEX
 8
WIRE
 10
  5.2000
 20
  5.5000
 30
0.0
 0
VERTEX
 8
WIRE
 10
  5.2000
 20
  4.2000
 30
0.0
 0
SEQEND
 8
WIRE
 0
POLYLINE
 8
WIRE
 66
1
 10
0.0
 20
0.0
 30
0.0
 0
VERTEX
 8
WIRE
 10
  6.7000
 20
  7.6000
 30
0.0
 0
VERTEX
 8
WIRE
 10
  6.7000
 20
  7.4000
 30
0.0
 0
SEQEND
 8
WIRE
 0
POLYLINE
 8
WIRE
 66
1
 70
1
 10
0.0
 20
0.0
 30
0.0
 40
  0.0200
 41
  0.0200
 0
VERTEX
 8
WIRE
 10
  6.6900
 20
  7.4000
 30
0.0
 42
1.0
 0
VERTEX
 8
WIRE
 10
  6.7100
 20
  7.4000
 30
0.0
 42
1.0
 0
SEQEND
 8
WIRE
 0
POLYLINE
 8
WIRE
 66
1
 10
0.0
 20
0.0
 30
0.0
 0
VERTEX
 8
WIRE
 10
  6.7000
 20
  5.5000
 30
0.0
 0
VERTEX
 8
WIRE
 10
  6.7000
 20
  5.3000
 30
0.0
 0
SEQEND
 8
WIRE
 0
POLYLINE
 8
WIRE
 66
1
 70
1
 10
0.0
 20
0.0
 30
0.0
 40
  0.0200
 41
  0.0200
 0
VERTEX
 8
WIRE
 10
  6.6900
 20
  5.3000
 30
0.0
 42
1.0
 0
VERTEX
 8
WIRE
 10
  6.7100
 20
  5.3000
 30
0.0
 42
1.0
 0
SEQEND
 8
WIRE
 0
POLYLINE
 8
WIRE
 66
1
 10
0.0
 20
0.0
 30
0.0
 0
VERTEX
 8
WIRE
 10
  6.9000
 20
  6.5000
 30
0.0
 0
VERTEX
 8
WIRE
 10
  6.9000
 20
  6.4000
 30
0.0
 0
SEQEND
 8
WIRE
 0
POLYLINE
 8
WIRE
 66
1
 10
0.0
 20
0.0
 30
0.0
 0
VERTEX
 8
WIRE
 10
  6.9000
 20
  4.4000
 30
0.0
 0
VERTEX
 8
WIRE
 10
  6.9000
 20
  4.3000
 30
0.0
 0
SEQEND
 8
WIRE
 0
POLYLINE
 8
WIRE
 66
1
 10
0.0
 20
0.0
 30
0.0
 0
VERTEX
 8
WIRE
 10
  7.7000
 20
  7.6000
 30
0.0
 0
VERTEX
 8
WIRE
 10
  7.7000
 20
  6.3000
 30
0.0
 0
SEQEND
 8
WIRE
 0
POLYLINE
 8
WIRE
 66
1
 10
0.0
 20
0.0
 30
0.0
 0
VERTEX
 8
WIRE
 10
  9.2000
 20
  7.6000
 30
0.0
 0
VERTEX
 8
WIRE
 10
  9.2000
 20
  7.4000
 30
0.0
 0
SEQEND
 8
WIRE
 0
POLYLINE
 8
WIRE
 66
1
 70
1
 10
0.0
 20
0.0
 30
0.0
 40
  0.0200
 41
  0.0200
 0
VERTEX
 8
WIRE
 10
  9.1900
 20
  7.4000
 30
0.0
 42
1.0
 0
VERTEX
 8
WIRE
 10
  9.2100
 20
  7.4000
 30
0.0
 42
1.0
 0
SEQEND
 8
WIRE
 0
POLYLINE
 8
WIRE
 66
1
 10
0.0
 20
0.0
 30
0.0
 0
VERTEX
 8
WIRE
 10
  9.4000
 20
  6.5000
 30
0.0
 0
VERTEX
 8
WIRE
 10
  9.4000
 20
  6.4000
 30
0.0
 0
SEQEND
 8
WIRE
 0
POLYLINE
 8
WIRE
 66
1
 10
0.0
 20
0.0
 30
0.0
 0
VERTEX
 8
WIRE
 10
 10.2000
 20
  7.6000
 30
0.0
 0
VERTEX
 8
WIRE
 10
 10.2000
 20
  6.3000
 30
0.0
 0
SEQEND
 8
WIRE
 0
POLYLINE
 8
WIRE
 66
1
 10
0.0
 20
0.0
 30
0.0
 0
VERTEX
 8
WIRE
 10
 11.7000
 20
  7.6000
 30
0.0
 0
VERTEX
 8
WIRE
 10
 11.7000
 20
  7.4000
 30
0.0
 0
SEQEND
 8
WIRE
 0
POLYLINE
 8
WIRE
 66
1
 70
1
 10
0.0
 20
0.0
 30
0.0
 40
  0.0200
 41
  0.0200
 0
VERTEX
 8
WIRE
 10
 11.6900
 20
  7.4000
 30
0.0
 42
1.0
 0
VERTEX
 8
WIRE
 10
 11.7100
 20
  7.4000
 30
0.0
 42
1.0
 0
SEQEND
 8
WIRE
 0
POLYLINE
 8
WIRE
 66
1
 10
0.0
 20
0.0
 30
0.0
 0
VERTEX
 8
WIRE
 10
 11.9000
 20
  6.5000
 30
0.0
 0
VERTEX
 8
WIRE
 10
 11.9000
 20
  6.4000
 30
0.0
 0
SEQEND
 8
WIRE
 0
POLYLINE
 8
WIRE
 66
1
 10
0.0
 20
0.0
 30
0.0
 0
VERTEX
 8
WIRE
 10
  4.3000
 20
  6.5000
 30
0.0
 0
VERTEX
 8
WIRE
 10
  4.3000
 20
  6.3000
 30
0.0
 0
SEQEND
 8
WIRE
 0
POLYLINE
 8
WIRE
 66
1
 10
0.0
 20
0.0
 30
0.0
 0
VERTEX
 8
WIRE
 10
  6.7000
 20
  6.5000
 30
0.0
 0
VERTEX
 8
WIRE
 10
  6.7000
 20
  6.3000
 30
0.0
 0
SEQEND
 8
WIRE
 0
POLYLINE
 8
WIRE
 66
1
 10
0.0
 20
0.0
 30
0.0
 0
VERTEX
 8
WIRE
 10
  9.2000
 20
  6.5000
 30
0.0
 0
VERTEX
 8
WIRE
 10
  9.2000
 20
  6.3000
 30
0.0
 0
SEQEND
 8
WIRE
 0
POLYLINE
 8
WIRE
 66
1
 10
0.0
 20
0.0
 30
0.0
 0
VERTEX
 8
WIRE
 10
 11.7000
 20
  6.5000
 30
0.0
 0
VERTEX
 8
WIRE
 10
 11.7000
 20
  6.3000
 30
0.0
 0
SEQEND
 8
WIRE
 0
POLYLINE
 8
WIRE
 66
1
 10
0.0
 20
0.0
 30
0.0
 0
VERTEX
 8
WIRE
 10
  4.3000
 20
  5.3000
 30
0.0
 0
VERTEX
 8
WIRE
 10
  4.3000
 20
  4.4000
 30
0.0
 0
SEQEND
 8
WIRE
 0
POLYLINE
 8
WIRE
 66
1
 70
1
 10
0.0
 20
0.0
 30
0.0
 40
  0.0200
 41
  0.0200
 0
VERTEX
 8
WIRE
 10
  4.2900
 20
  4.4000
 30
0.0
 42
1.0
 0
VERTEX
 8
WIRE
 10
  4.3100
 20
  4.4000
 30
0.0
 42
1.0
 0
SEQEND
 8
WIRE
 0
POLYLINE
 8
WIRE
 66
1
 10
0.0
 20
0.0
 30
0.0
 0
VERTEX
 8
WIRE
 10
  6.7000
 20
  4.4000
 30
0.0
 0
VERTEX
 8
WIRE
 10
  6.7000
 20
  4.2000
 30
0.0
 0
SEQEND
 8
WIRE
 0
POLYLINE
 8
WIRE
 66
1
 10
0.0
 20
0.0
 30
0.0
 0
VERTEX
 8
WIRE
 10
  4.3000
 20
  7.4000
 30
0.0
 0
VERTEX
 8
WIRE
 10
  4.3000
 20
  6.5000
 30
0.0
 0
SEQEND
 8
WIRE
 0
POLYLINE
 8
WIRE
 66
1
 70
1
 10
0.0
 20
0.0
 30
0.0
 40
  0.0200
 41
  0.0200
 0
VERTEX
 8
WIRE
 10
  4.2900
 20
  6.5000
 30
0.0
 42
1.0
 0
VERTEX
 8
WIRE
 10
  4.3100
 20
  6.5000
 30
0.0
 42
1.0
 0
SEQEND
 8
WIRE
 0
POLYLINE
 8
WIRE
 66
1
 10
0.0
 20
0.0
 30
0.0
 0
VERTEX
 8
WIRE
 10
  6.7000
 20
  7.4000
 30
0.0
 0
VERTEX
 8
WIRE
 10
  6.7000
 20
  6.5000
 30
0.0
 0
SEQEND
 8
WIRE
 0
POLYLINE
 8
WIRE
 66
1
 70
1
 10
0.0
 20
0.0
 30
0.0
 40
  0.0200
 41
  0.0200
 0
VERTEX
 8
WIRE
 10
  6.6900
 20
  6.5000
 30
0.0
 42
1.0
 0
VERTEX
 8
WIRE
 10
  6.7100
 20
  6.5000
 30
0.0
 42
1.0
 0
SEQEND
 8
WIRE
 0
POLYLINE
 8
WIRE
 66
1
 10
0.0
 20
0.0
 30
0.0
 0
VERTEX
 8
WIRE
 10
  9.2000
 20
  7.4000
 30
0.0
 0
VERTEX
 8
WIRE
 10
  9.2000
 20
  6.5000
 30
0.0
 0
SEQEND
 8
WIRE
 0
POLYLINE
 8
WIRE
 66
1
 70
1
 10
0.0
 20
0.0
 30
0.0
 40
  0.0200
 41
  0.0200
 0
VERTEX
 8
WIRE
 10
  9.1900
 20
  6.5000
 30
0.0
 42
1.0
 0
VERTEX
 8
WIRE
 10
  9.2100
 20
  6.5000
 30
0.0
 42
1.0
 0
SEQEND
 8
WIRE
 0
POLYLINE
 8
WIRE
 66
1
 10
0.0
 20
0.0
 30
0.0
 0
VERTEX
 8
WIRE
 10
 11.7000
 20
  7.4000
 30
0.0
 0
VERTEX
 8
WIRE
 10
 11.7000
 20
  6.5000
 30
0.0
 0
SEQEND
 8
WIRE
 0
POLYLINE
 8
WIRE
 66
1
 70
1
 10
0.0
 20
0.0
 30
0.0
 40
  0.0200
 41
  0.0200
 0
VERTEX
 8
WIRE
 10
 11.6900
 20
  6.5000
 30
0.0
 42
1.0
 0
VERTEX
 8
WIRE
 10
 11.7100
 20
  6.5000
 30
0.0
 42
1.0
 0
SEQEND
 8
WIRE
 0
POLYLINE
 8
WIRE
 66
1
 10
0.0
 20
0.0
 30
0.0
 0
VERTEX
 8
WIRE
 10
  6.7000
 20
  5.3000
 30
0.0
 0
VERTEX
 8
WIRE
 10
  6.7000
 20
  4.4000
 30
0.0
 0
SEQEND
 8
WIRE
 0
POLYLINE
 8
WIRE
 66
1
 70
1
 10
0.0
 20
0.0
 30
0.0
 40
  0.0200
 41
  0.0200
 0
VERTEX
 8
WIRE
 10
  6.6900
 20
  4.4000
 30
0.0
 42
1.0
 0
VERTEX
 8
WIRE
 10
  6.7100
 20
  4.4000
 30
0.0
 42
1.0
 0
SEQEND
 8
WIRE
 0
POLYLINE
 8
WIRE
 66
1
 10
0.0
 20
0.0
 30
0.0
 0
VERTEX
 8
WIRE
 10
  4.3000
 20
  4.4000
 30
0.0
 0
VERTEX
 8
WIRE
 10
  4.4000
 20
  4.4000
 30
0.0
 0
SEQEND
 8
WIRE
 0
POLYLINE
 8
WIRE
 66
1
 10
0.0
 20
0.0
 30
0.0
 0
VERTEX
 8
WIRE
 10
  4.3000
 20
  4.4000
 30
0.0
 0
VERTEX
 8
WIRE
 10
  4.3000
 20
  4.2000
 30
0.0
 0
SEQEND
 8
WIRE
 0
POLYLINE
 8
PARTS
 66
1
 10
0.0
 20
0.0
 30
0.0
 0
VERTEX
 8
PARTS
 10
  4.4000
 20
  6.4000
 30
0.0
 0
VERTEX
 8
PARTS
 10
  4.6000
 20
  6.4000
 30
0.0
 0
SEQEND
 8
PARTS
 0
POLYLINE
 8
PARTS
 66
1
 10
0.0
 20
0.0
 30
0.0
 0
VERTEX
 8
PARTS
 10
  4.4300
 20
  6.3700
 30
0.0
 0
VERTEX
 8
PARTS
 10
  4.5700
 20
  6.3700
 30
0.0
 0
SEQEND
 8
PARTS
 0
POLYLINE
 8
PARTS
 66
1
 10
0.0
 20
0.0
 30
0.0
 0
VERTEX
 8
PARTS
 10
  4.5400
 20
  6.3400
 30
0.0
 0
VERTEX
 8
PARTS
 10
  4.4600
 20
  6.3400
 30
0.0
 0
SEQEND
 8
PARTS
 0
POLYLINE
 8
PARTS
 66
1
 10
0.0
 20
0.0
 30
0.0
 0
VERTEX
 8
PARTS
 10
  4.4900
 20
  6.3100
 30
0.0
 0
VERTEX
 8
PARTS
 10
  4.5100
 20
  6.3100
 30
0.0
 0
SEQEND
 8
PARTS
 0
POLYLINE
 8
PARTS
 66
1
 10
0.0
 20
0.0
 30
0.0
 0
VERTEX
 8
PARTS
 10
  6.8000
 20
  6.4000
 30
0.0
 0
VERTEX
 8
PARTS
 10
  7.0000
 20
  6.4000
 30
0.0
 0
SEQEND
 8
PARTS
 0
POLYLINE
 8
PARTS
 66
1
 10
0.0
 20
0.0
 30
0.0
 0
VERTEX
 8
PARTS
 10
  6.8300
 20
  6.3700
 30
0.0
 0
VERTEX
 8
PARTS
 10
  6.9700
 20
  6.3700
 30
0.0
 0
SEQEND
 8
PARTS
 0
POLYLINE
 8
PARTS
 66
1
 10
0.0
 20
0.0
 30
0.0
 0
VERTEX
 8
PARTS
 10
  6.9400
 20
  6.3400
 30
0.0
 0
VERTEX
 8
PARTS
 10
  6.8600
 20
  6.3400
 30
0.0
 0
SEQEND
 8
PARTS
 0
POLYLINE
 8
PARTS
 66
1
 10
0.0
 20
0.0
 30
0.0
 0
VERTEX
 8
PARTS
 10
  6.8900
 20
  6.3100
 30
0.0
 0
VERTEX
 8
PARTS
 10
  6.9100
 20
  6.3100
 30
0.0
 0
SEQEND
 8
PARTS
 0
POLYLINE
 8
PARTS
 66
1
 10
0.0
 20
0.0
 30
0.0
 0
VERTEX
 8
PARTS
 10
  9.3000
 20
  6.4000
 30
0.0
 0
VERTEX
 8
PARTS
 10
  9.5000
 20
  6.4000
 30
0.0
 0
SEQEND
 8
PARTS
 0
POLYLINE
 8
PARTS
 66
1
 10
0.0
 20
0.0
 30
0.0
 0
VERTEX
 8
PARTS
 10
  9.3300
 20
  6.3700
 30
0.0
 0
VERTEX
 8
PARTS
 10
  9.4700
 20
  6.3700
 30
0.0
 0
SEQEND
 8
PARTS
 0
POLYLINE
 8
PARTS
 66
1
 10
0.0
 20
0.0
 30
0.0
 0
VERTEX
 8
PARTS
 10
  9.4400
 20
  6.3400
 30
0.0
 0
VERTEX
 8
PARTS
 10
  9.3600
 20
  6.3400
 30
0.0
 0
SEQEND
 8
PARTS
 0
POLYLINE
 8
PARTS
 66
1
 10
0.0
 20
0.0
 30
0.0
 0
VERTEX
 8
PARTS
 10
  9.3900
 20
  6.3100
 30
0.0
 0
VERTEX
 8
PARTS
 10
  9.4100
 20
  6.3100
 30
0.0
 0
SEQEND
 8
PARTS
 0
POLYLINE
 8
PARTS
 66
1
 10
0.0
 20
0.0
 30
0.0
 0
VERTEX
 8
PARTS
 10
 11.8000
 20
  6.4000
 30
0.0
 0
VERTEX
 8
PARTS
 10
 12.0000
 20
  6.4000
 30
0.0
 0
SEQEND
 8
PARTS
 0
POLYLINE
 8
PARTS
 66
1
 10
0.0
 20
0.0
 30
0.0
 0
VERTEX
 8
PARTS
 10
 11.8300
 20
  6.3700
 30
0.0
 0
VERTEX
 8
PARTS
 10
 11.9700
 20
  6.3700
 30
0.0
 0
SEQEND
 8
PARTS
 0
POLYLINE
 8
PARTS
 66
1
 10
0.0
 20
0.0
 30
0.0
 0
VERTEX
 8
PARTS
 10
 11.9400
 20
  6.3400
 30
0.0
 0
VERTEX
 8
PARTS
 10
 11.8600
 20
  6.3400
 30
0.0
 0
SEQEND
 8
PARTS
 0
POLYLINE
 8
PARTS
 66
1
 10
0.0
 20
0.0
 30
0.0
 0
VERTEX
 8
PARTS
 10
 11.8900
 20
  6.3100
 30
0.0
 0
VERTEX
 8
PARTS
 10
 11.9100
 20
  6.3100
 30
0.0
 0
SEQEND
 8
PARTS
 0
POLYLINE
 8
PARTS
 66
1
 10
0.0
 20
0.0
 30
0.0
 0
VERTEX
 8
PARTS
 10
  4.4000
 20
  5.2000
 30
0.0
 0
VERTEX
 8
PARTS
 10
  4.6000
 20
  5.2000
 30
0.0
 0
SEQEND
 8
PARTS
 0
POLYLINE
 8
PARTS
 66
1
 10
0.0
 20
0.0
 30
0.0
 0
VERTEX
 8
PARTS
 10
  4.4300
 20
  5.1700
 30
0.0
 0
VERTEX
 8
PARTS
 10
  4.5700
 20
  5.1700
 30
0.0
 0
SEQEND
 8
PARTS
 0
POLYLINE
 8
PARTS
 66
1
 10
0.0
 20
0.0
 30
0.0
 0
VERTEX
 8
PARTS
 10
  4.5400
 20
  5.1400
 30
0.0
 0
VERTEX
 8
PARTS
 10
  4.4600
 20
  5.1400
 30
0.0
 0
SEQEND
 8
PARTS
 0
POLYLINE
 8
PARTS
 66
1
 10
0.0
 20
0.0
 30
0.0
 0
VERTEX
 8
PARTS
 10
  4.4900
 20
  5.1100
 30
0.0
 0
VERTEX
 8
PARTS
 10
  4.5100
 20
  5.1100
 30
0.0
 0
SEQEND
 8
PARTS
 0
POLYLINE
 8
PARTS
 66
1
 10
0.0
 20
0.0
 30
0.0
 0
VERTEX
 8
PARTS
 10
  6.8000
 20
  4.3000
 30
0.0
 0
VERTEX
 8
PARTS
 10
  7.0000
 20
  4.3000
 30
0.0
 0
SEQEND
 8
PARTS
 0
POLYLINE
 8
PARTS
 66
1
 10
0.0
 20
0.0
 30
0.0
 0
VERTEX
 8
PARTS
 10
  6.8300
 20
  4.2700
 30
0.0
 0
VERTEX
 8
PARTS
 10
  6.9700
 20
  4.2700
 30
0.0
 0
SEQEND
 8
PARTS
 0
POLYLINE
 8
PARTS
 66
1
 10
0.0
 20
0.0
 30
0.0
 0
VERTEX
 8
PARTS
 10
  6.9400
 20
  4.2400
 30
0.0
 0
VERTEX
 8
PARTS
 10
  6.8600
 20
  4.2400
 30
0.0
 0
SEQEND
 8
PARTS
 0
POLYLINE
 8
PARTS
 66
1
 10
0.0
 20
0.0
 30
0.0
 0
VERTEX
 8
PARTS
 10
  6.8900
 20
  4.2100
 30
0.0
 0
VERTEX
 8
PARTS
 10
  6.9100
 20
  4.2100
 30
0.0
 0
SEQEND
 8
PARTS
 0
TEXT
 8
PARTTEXT
 10
  4.4500
 20
  7.3786
 30
0.0
 40
  0.0514
 1
-5.2V
 0
POLYLINE
 8
PARTS
 66
1
 10
0.0
 20
0.0
 30
0.0
 0
VERTEX
 8
PARTS
 10
  4.4400
 20
  7.4000
 30
0.0
 0
VERTEX
 8
PARTS
 10
  4.4000
 20
  7.4000
 30
0.0
 0
SEQEND
 8
PARTS
 0
POLYLINE
 8
PARTS
 66
1
 70
1
 10
0.0
 20
0.0
 30
0.0
 0
VERTEX
 8
PARTS
 10
  4.5000
 20
  7.4000
 30
0.0
 42
  0.0985
 0
VERTEX
 8
PARTS
 10
  4.4977
 20
  7.4115
 30
0.0
 42
  0.0985
 0
VERTEX
 8
PARTS
 10
  4.4912
 20
  7.4212
 30
0.0
 42
  0.0985
 0
VERTEX
 8
PARTS
 10
  4.4815
 20
  7.4277
 30
0.0
 42
  0.0985
 0
VERTEX
 8
PARTS
 10
  4.4700
 20
  7.4300
 30
0.0
 42
  0.0985
 0
VERTEX
 8
PARTS
 10
  4.4585
 20
  7.4277
 30
0.0
 42
  0.0985
 0
VERTEX
 8
PARTS
 10
  4.4488
 20
  7.4212
 30
0.0
 42
  0.0985
 0
VERTEX
 8
PARTS
 10
  4.4423
 20
  7.4115
 30
0.0
 42
  0.0985
 0
VERTEX
 8
PARTS
 10
  4.4400
 20
  7.4000
 30
0.0
 42
  0.0985
 0
VERTEX
 8
PARTS
 10
  4.4423
 20
  7.3885
 30
0.0
 42
  0.0985
 0
VERTEX
 8
PARTS
 10
  4.4488
 20
  7.3788
 30
0.0
 42
  0.0985
 0
VERTEX
 8
PARTS
 10
  4.4585
 20
  7.3723
 30
0.0
 42
  0.0985
 0
VERTEX
 8
PARTS
 10
  4.4700
 20
  7.3700
 30
0.0
 42
  0.0985
 0
VERTEX
 8
PARTS
 10
  4.4815
 20
  7.3723
 30
0.0
 42
  0.0985
 0
VERTEX
 8
PARTS
 10
  4.4912
 20
  7.3788
 30
0.0
 42
  0.0985
 0
VERTEX
 8
PARTS
 10
  4.4977
 20
  7.3885
 30
0.0
 42
  0.0985
 0
SEQEND
 8
PARTS
 0
TEXT
 8
PARTTEXT
 10
  6.8500
 20
  7.3786
 30
0.0
 40
  0.0514
 1
+5V
 0
POLYLINE
 8
PARTS
 66
1
 10
0.0
 20
0.0
 30
0.0
 0
VERTEX
 8
PARTS
 10
  6.8400
 20
  7.4000
 30
0.0
 0
VERTEX
 8
PARTS
 10
  6.8000
 20
  7.4000
 30
0.0
 0
SEQEND
 8
PARTS
 0
POLYLINE
 8
PARTS
 66
1
 70
1
 10
0.0
 20
0.0
 30
0.0
 0
VERTEX
 8
PARTS
 10
  6.9000
 20
  7.4000
 30
0.0
 42
  0.0985
 0
VERTEX
 8
PARTS
 10
  6.8977
 20
  7.4115
 30
0.0
 42
  0.0985
 0
VERTEX
 8
PARTS
 10
  6.8912
 20
  7.4212
 30
0.0
 42
  0.0985
 0
VERTEX
 8
PARTS
 10
  6.8815
 20
  7.4277
 30
0.0
 42
  0.0985
 0
VERTEX
 8
PARTS
 10
  6.8700
 20
  7.4300
 30
0.0
 42
  0.0985
 0
VERTEX
 8
PARTS
 10
  6.8585
 20
  7.4277
 30
0.0
 42
  0.0985
 0
VERTEX
 8
PARTS
 10
  6.8488
 20
  7.4212
 30
0.0
 42
  0.0985
 0
VERTEX
 8
PARTS
 10
  6.8423
 20
  7.4115
 30
0.0
 42
  0.0985
 0
VERTEX
 8
PARTS
 10
  6.8400
 20
  7.4000
 30
0.0
 42
  0.0985
 0
VERTEX
 8
PARTS
 10
  6.8423
 20
  7.3885
 30
0.0
 42
  0.0985
 0
VERTEX
 8
PARTS
 10
  6.8488
 20
  7.3788
 30
0.0
 42
  0.0985
 0
VERTEX
 8
PARTS
 10
  6.8585
 20
  7.3723
 30
0.0
 42
  0.0985
 0
VERTEX
 8
PARTS
 10
  6.8700
 20
  7.3700
 30
0.0
 42
  0.0985
 0
VERTEX
 8
PARTS
 10
  6.8815
 20
  7.3723
 30
0.0
 42
  0.0985
 0
VERTEX
 8
PARTS
 10
  6.8912
 20
  7.3788
 30
0.0
 42
  0.0985
 0
VERTEX
 8
PARTS
 10
  6.8977
 20
  7.3885
 30
0.0
 42
  0.0985
 0
SEQEND
 8
PARTS
 0
TEXT
 8
PARTTEXT
 10
  9.3500
 20
  7.3786
 30
0.0
 40
  0.0514
 1
+15V
 0
POLYLINE
 8
PARTS
 66
1
 10
0.0
 20
0.0
 30
0.0
 0
VERTEX
 8
PARTS
 10
  9.3400
 20
  7.4000
 30
0.0
 0
VERTEX
 8
PARTS
 10
  9.3000
 20
  7.4000
 30
0.0
 0
SEQEND
 8
PARTS
 0
POLYLINE
 8
PARTS
 66
1
 70
1
 10
0.0
 20
0.0
 30
0.0
 0
VERTEX
 8
PARTS
 10
  9.4000
 20
  7.4000
 30
0.0
 42
  0.0985
 0
VERTEX
 8
PARTS
 10
  9.3977
 20
  7.4115
 30
0.0
 42
  0.0985
 0
VERTEX
 8
PARTS
 10
  9.3912
 20
  7.4212
 30
0.0
 42
  0.0985
 0
VERTEX
 8
PARTS
 10
  9.3815
 20
  7.4277
 30
0.0
 42
  0.0985
 0
VERTEX
 8
PARTS
 10
  9.3700
 20
  7.4300
 30
0.0
 42
  0.0985
 0
VERTEX
 8
PARTS
 10
  9.3585
 20
  7.4277
 30
0.0
 42
  0.0985
 0
VERTEX
 8
PARTS
 10
  9.3488
 20
  7.4212
 30
0.0
 42
  0.0985
 0
VERTEX
 8
PARTS
 10
  9.3423
 20
  7.4115
 30
0.0
 42
  0.0985
 0
VERTEX
 8
PARTS
 10
  9.3400
 20
  7.4000
 30
0.0
 42
  0.0985
 0
VERTEX
 8
PARTS
 10
  9.3423
 20
  7.3885
 30
0.0
 42
  0.0985
 0
VERTEX
 8
PARTS
 10
  9.3488
 20
  7.3788
 30
0.0
 42
  0.0985
 0
VERTEX
 8
PARTS
 10
  9.3585
 20
  7.3723
 30
0.0
 42
  0.0985
 0
VERTEX
 8
PARTS
 10
  9.3700
 20
  7.3700
 30
0.0
 42
  0.0985
 0
VERTEX
 8
PARTS
 10
  9.3815
 20
  7.3723
 30
0.0
 42
  0.0985
 0
VERTEX
 8
PARTS
 10
  9.3912
 20
  7.3788
 30
0.0
 42
  0.0985
 0
VERTEX
 8
PARTS
 10
  9.3977
 20
  7.3885
 30
0.0
 42
  0.0985
 0
SEQEND
 8
PARTS
 0
TEXT
 8
PARTTEXT
 10
 11.8500
 20
  7.3786
 30
0.0
 40
  0.0514
 1
+12V
 0
POLYLINE
 8
PARTS
 66
1
 10
0.0
 20
0.0
 30
0.0
 0
VERTEX
 8
PARTS
 10
 11.8400
 20
  7.4000
 30
0.0
 0
VERTEX
 8
PARTS
 10
 11.8000
 20
  7.4000
 30
0.0
 0
SEQEND
 8
PARTS
 0
POLYLINE
 8
PARTS
 66
1
 70
1
 10
0.0
 20
0.0
 30
0.0
 0
VERTEX
 8
PARTS
 10
 11.9000
 20
  7.4000
 30
0.0
 42
  0.0985
 0
VERTEX
 8
PARTS
 10
 11.8977
 20
  7.4115
 30
0.0
 42
  0.0985
 0
VERTEX
 8
PARTS
 10
 11.8912
 20
  7.4212
 30
0.0
 42
  0.0985
 0
VERTEX
 8
PARTS
 10
 11.8815
 20
  7.4277
 30
0.0
 42
  0.0985
 0
VERTEX
 8
PARTS
 10
 11.8700
 20
  7.4300
 30
0.0
 42
  0.0985
 0
VERTEX
 8
PARTS
 10
 11.8585
 20
  7.4277
 30
0.0
 42
  0.0985
 0
VERTEX
 8
PARTS
 10
 11.8488
 20
  7.4212
 30
0.0
 42
  0.0985
 0
VERTEX
 8
PARTS
 10
 11.8423
 20
  7.4115
 30
0.0
 42
  0.0985
 0
VERTEX
 8
PARTS
 10
 11.8400
 20
  7.4000
 30
0.0
 42
  0.0985
 0
VERTEX
 8
PARTS
 10
 11.8423
 20
  7.3885
 30
0.0
 42
  0.0985
 0
VERTEX
 8
PARTS
 10
 11.8488
 20
  7.3788
 30
0.0
 42
  0.0985
 0
VERTEX
 8
PARTS
 10
 11.8585
 20
  7.3723
 30
0.0
 42
  0.0985
 0
VERTEX
 8
PARTS
 10
 11.8700
 20
  7.3700
 30
0.0
 42
  0.0985
 0
VERTEX
 8
PARTS
 10
 11.8815
 20
  7.3723
 30
0.0
 42
  0.0985
 0
VERTEX
 8
PARTS
 10
 11.8912
 20
  7.3788
 30
0.0
 42
  0.0985
 0
VERTEX
 8
PARTS
 10
 11.8977
 20
  7.3885
 30
0.0
 42
  0.0985
 0
SEQEND
 8
PARTS
 0
TEXT
 8
PARTTEXT
 10
  4.5500
 20
  4.3786
 30
0.0
 40
  0.0514
 1
-5V
 0
POLYLINE
 8
PARTS
 66
1
 10
0.0
 20
0.0
 30
0.0
 0
VERTEX
 8
PARTS
 10
  4.5400
 20
  4.4000
 30
0.0
 0
VERTEX
 8
PARTS
 10
  4.5000
 20
  4.4000
 30
0.0
 0
SEQEND
 8
PARTS
 0
POLYLINE
 8
PARTS
 66
1
 70
1
 10
0.0
 20
0.0
 30
0.0
 0
VERTEX
 8
PARTS
 10
  4.6000
 20
  4.4000
 30
0.0
 42
  0.0985
 0
VERTEX
 8
PARTS
 10
  4.5977
 20
  4.4115
 30
0.0
 42
  0.0985
 0
VERTEX
 8
PARTS
 10
  4.5912
 20
  4.4212
 30
0.0
 42
  0.0985
 0
VERTEX
 8
PARTS
 10
  4.5815
 20
  4.4277
 30
0.0
 42
  0.0985
 0
VERTEX
 8
PARTS
 10
  4.5700
 20
  4.4300
 30
0.0
 42
  0.0985
 0
VERTEX
 8
PARTS
 10
  4.5585
 20
  4.4277
 30
0.0
 42
  0.0985
 0
VERTEX
 8
PARTS
 10
  4.5488
 20
  4.4212
 30
0.0
 42
  0.0985
 0
VERTEX
 8
PARTS
 10
  4.5423
 20
  4.4115
 30
0.0
 42
  0.0985
 0
VERTEX
 8
PARTS
 10
  4.5400
 20
  4.4000
 30
0.0
 42
  0.0985
 0
VERTEX
 8
PARTS
 10
  4.5423
 20
  4.3885
 30
0.0
 42
  0.0985
 0
VERTEX
 8
PARTS
 10
  4.5488
 20
  4.3788
 30
0.0
 42
  0.0985
 0
VERTEX
 8
PARTS
 10
  4.5585
 20
  4.3723
 30
0.0
 42
  0.0985
 0
VERTEX
 8
PARTS
 10
  4.5700
 20
  4.3700
 30
0.0
 42
  0.0985
 0
VERTEX
 8
PARTS
 10
  4.5815
 20
  4.3723
 30
0.0
 42
  0.0985
 0
VERTEX
 8
PARTS
 10
  4.5912
 20
  4.3788
 30
0.0
 42
  0.0985
 0
VERTEX
 8
PARTS
 10
  4.5977
 20
  4.3885
 30
0.0
 42
  0.0985
 0
SEQEND
 8
PARTS
 0
TEXT
 8
PARTTEXT
 10
  6.8500
 20
  5.2786
 30
0.0
 40
  0.0514
 1
+5V
 0
POLYLINE
 8
PARTS
 66
1
 10
0.0
 20
0.0
 30
0.0
 0
VERTEX
 8
PARTS
 10
  6.8400
 20
  5.3000
 30
0.0
 0
VERTEX
 8
PARTS
 10
  6.8000
 20
  5.3000
 30
0.0
 0
SEQEND
 8
PARTS
 0
POLYLINE
 8
PARTS
 66
1
 70
1
 10
0.0
 20
0.0
 30
0.0
 0
VERTEX
 8
PARTS
 10
  6.9000
 20
  5.3000
 30
0.0
 42
  0.0985
 0
VERTEX
 8
PARTS
 10
  6.8977
 20
  5.3115
 30
0.0
 42
  0.0985
 0
VERTEX
 8
PARTS
 10
  6.8912
 20
  5.3212
 30
0.0
 42
  0.0985
 0
VERTEX
 8
PARTS
 10
  6.8815
 20
  5.3277
 30
0.0
 42
  0.0985
 0
VERTEX
 8
PARTS
 10
  6.8700
 20
  5.3300
 30
0.0
 42
  0.0985
 0
VERTEX
 8
PARTS
 10
  6.8585
 20
  5.3277
 30
0.0
 42
  0.0985
 0
VERTEX
 8
PARTS
 10
  6.8488
 20
  5.3212
 30
0.0
 42
  0.0985
 0
VERTEX
 8
PARTS
 10
  6.8423
 20
  5.3115
 30
0.0
 42
  0.0985
 0
VERTEX
 8
PARTS
 10
  6.8400
 20
  5.3000
 30
0.0
 42
  0.0985
 0
VERTEX
 8
PARTS
 10
  6.8423
 20
  5.2885
 30
0.0
 42
  0.0985
 0
VERTEX
 8
PARTS
 10
  6.8488
 20
  5.2788
 30
0.0
 42
  0.0985
 0
VERTEX
 8
PARTS
 10
  6.8585
 20
  5.2723
 30
0.0
 42
  0.0985
 0
VERTEX
 8
PARTS
 10
  6.8700
 20
  5.2700
 30
0.0
 42
  0.0985
 0
VERTEX
 8
PARTS
 10
  6.8815
 20
  5.2723
 30
0.0
 42
  0.0985
 0
VERTEX
 8
PARTS
 10
  6.8912
 20
  5.2788
 30
0.0
 42
  0.0985
 0
VERTEX
 8
PARTS
 10
  6.8977
 20
  5.2885
 30
0.0
 42
  0.0985
 0
SEQEND
 8
PARTS
 0
TEXT
 8
COMMENTS
 10
  2.9000
 20
  6.4186
 30
0.0
 40
  0.0514
 1
(20 MHz BW)
 0
TEXT
 8
COMMENTS
 10
  2.9000
 20
  6.7186
 30
0.0
 40
  0.0514
 1
3A @ 40C
 0
TEXT
 8
COMMENTS
 10
  2.9000
 20
  6.9186
 30
0.0
 40
  0.0514
 1
SET TO -5.2V
 0
TEXT
 8
COMMENTS
 10
  2.9000
 20
  6.5186
 30
0.0
 40
  0.0514
 1
RIPPLE 1.5mV RMS 
 0
TEXT
 8
COMMENTS
 10
  5.3000
 20
  6.4186
 30
0.0
 40
  0.0514
 1
(20 MHz BW)
 0
TEXT
 8
COMMENTS
 10
  5.3000
 20
  6.7186
 30
0.0
 40
  0.0514
 1
3A @ 40C
 0
TEXT
 8
COMMENTS
 10
  5.3000
 20
  6.5186
 30
0.0
 40
  0.0514
 1
RIPPLE 1.5mV RMS 
 0
TEXT
 8
COMMENTS
 10
  2.9000
 20
  7.0186
 30
0.0
 40
  0.0514
 1
5V LINEAR PS
 0
TEXT
 8
COMMENTS
 10
  5.3000
 20
  7.0186
 30
0.0
 40
  0.0514
 1
5V LINEAR PS
 0
TEXT
 8
COMMENTS
 10
  7.8000
 20
  6.4186
 30
0.0
 40
  0.0514
 1
(20 MHz BW)
 0
TEXT
 8
COMMENTS
 10
  7.8000
 20
  6.5186
 30
0.0
 40
  0.0514
 1
RIPPLE 1.5mV RMS 
 0
TEXT
 8
COMMENTS
 10
  7.8000
 20
  7.0186
 30
0.0
 40
  0.0514
 1
15V LINEAR PS
 0
TEXT
 8
COMMENTS
 10
  2.9000
 20
  7.2186
 30
0.0
 40
  0.0514
 1
LAMDA LOS-Z-5-2
 0
TEXT
 8
COMMENTS
 10
  5.3000
 20
  7.2186
 30
0.0
 40
  0.0514
 1
LAMDA LOS-Z-5-2
 0
TEXT
 8
COMMENTS
 10
  7.8000
 20
  7.2186
 30
0.0
 40
  0.0514
 1
LAMDA LOS-Z-15-2
 0
TEXT
 8
COMMENTS
 10
  7.8000
 20
  6.7186
 30
0.0
 40
  0.0514
 1
1.4A @ 40C
 0
TEXT
 8
COMMENTS
 10
  5.4000
 20
  7.7186
 30
0.0
 40
  0.0514
 1
(Using ~1.5A)
 0
TEXT
 8
COMMENTS
 10
  3.0000
 20
  7.7186
 30
0.0
 40
  0.0514
 1
(Using ~1.0A)
 0
TEXT
 8
COMMENTS
 10
  7.9000
 20
  7.7186
 30
0.0
 40
  0.0514
 1
(Using ~0.5A)
 0
TEXT
 8
COMMENTS
 10
 10.4000
 20
  7.7186
 30
0.0
 40
  0.0514
 1
(Fan Supply)
 0
TEXT
 8
COMMENTS
 10
 10.3000
 20
  7.2186
 30
0.0
 40
  0.0514
 1
LAMDA LSS-35-12
 0
TEXT
 8
COMMENTS
 10
 10.3000
 20
  7.0186
 30
0.0
 40
  0.0514
 1
12V SWITCHING PS
 0
TEXT
 8
COMMENTS
 10
 10.3000
 20
  6.7186
 30
0.0
 40
  0.0514
 1
1.3A @ 40C
 0
TEXT
 8
COMMENTS
 10
  2.9000
 20
  5.1186
 30
0.0
 40
  0.0514
 1
LAMDA LUS-9-5
 0
TEXT
 8
COMMENTS
 10
  2.9000
 20
  4.9186
 30
0.0
 40
  0.0514
 1
5V SWITCHING PS
 0
TEXT
 8
COMMENTS
 10
  2.9000
 20
  4.6186
 30
0.0
 40
  0.0514
 1
5A @ 40C
 0
TEXT
 8
COMMENTS
 10
  2.8000
 20
  5.7186
 30
0.0
 40
  0.0514
 1
-5V for PNCode Generator
 0
TEXT
 8
COMMENTS
 10
  5.2000
 20
  5.7186
 30
0.0
 40
  0.0514
 1
+5V for PNCode Generator
 0
TEXT
 8
COMMENTS
 10
  2.8000
 20
  5.6186
 30
0.0
 40
  0.0514
 1
(Using 620mA)
 0
TEXT
 8
COMMENTS
 10
  5.2000
 20
  5.6186
 30
0.0
 40
  0.0514
 1
(Using ~350mA)
 0
TEXT
 8
COMMENTS
 10
  5.3000
 20
  5.1186
 30
0.0
 40
  0.0514
 1
LAMDA LZS-10
 0
TEXT
 8
COMMENTS
 10
  5.3000
 20
  4.9186
 30
0.0
 40
  0.0514
 1
5V LINEAR PS
 0
TEXT
 8
COMMENTS
 10
  5.3000
 20
  4.6186
 30
0.0
 40
  0.0514
 1
450mA @ 40C
 0
ENDSEC
 0
EOF
