 0
SECTION
 2
HEADER
 9
$ACADVER
 1
AC1009
 0
ENDSEC
 0
SECTION
 2
ENTITIES
 0
POLYLINE
 8
TITLE
 66
1
 70
1
 10
0.0
 20
0.0
 30
0.0
 0
VERTEX
 8
TITLE
 10
 -0.1000
 20
  0.1000
 30
0.0
 0
VERTEX
 8
TITLE
 10
 15.1000
 20
  0.1000
 30
0.0
 0
VERTEX
 8
TITLE
 10
 15.1000
 20
  9.8000
 30
0.0
 0
VERTEX
 8
TITLE
 10
 -0.1000
 20
  9.8000
 30
0.0
 0
SEQEND
 8
TITLE
 0
POLYLINE
 8
TITLE
 66
1
 70
1
 10
0.0
 20
0.0
 30
0.0
 0
VERTEX
 8
TITLE
 10
  0.0000
 20
  0.2000
 30
0.0
 0
VERTEX
 8
TITLE
 10
 15.0000
 20
  0.2000
 30
0.0
 0
VERTEX
 8
TITLE
 10
 15.0000
 20
  9.7000
 30
0.0
 0
VERTEX
 8
TITLE
 10
  0.0000
 20
  9.7000
 30
0.0
 0
SEQEND
 8
TITLE
 0
POLYLINE
 8
TITLE
 66
1
 10
0.0
 20
0.0
 30
0.0
 0
VERTEX
 8
TITLE
 10
  2.0500
 20
  0.2000
 30
0.0
 0
VERTEX
 8
TITLE
 10
  2.0500
 20
  0.1000
 30
0.0
 0
SEQEND
 8
TITLE
 0
POLYLINE
 8
TITLE
 66
1
 10
0.0
 20
0.0
 30
0.0
 0
VERTEX
 8
TITLE
 10
  2.0500
 20
  9.7000
 30
0.0
 0
VERTEX
 8
TITLE
 10
  2.0500
 20
  9.8000
 30
0.0
 0
SEQEND
 8
TITLE
 0
SOLID
 8
TITLE
 10
  7.6000
 20
  0.2000
 30
0.0
 11
  7.5800
 21
  0.1500
 31
0.0
 12
  7.6200
 22
  0.1500
 32
0.0
 13
  7.6000
 23
  0.1500
 33
0.0
 0
SOLID
 8
TITLE
 10
  7.6000
 20
  9.7000
 30
0.0
 11
  7.5800
 21
  9.7500
 31
0.0
 12
  7.6200
 22
  9.7500
 32
0.0
 13
  7.6000
 23
  9.7500
 33
0.0
 0
POLYLINE
 8
TITLE
 66
1
 10
0.0
 20
0.0
 30
0.0
 0
VERTEX
 8
TITLE
 10
  3.9000
 20
  0.2000
 30
0.0
 0
VERTEX
 8
TITLE
 10
  3.9000
 20
  0.1000
 30
0.0
 0
SEQEND
 8
TITLE
 0
POLYLINE
 8
TITLE
 66
1
 10
0.0
 20
0.0
 30
0.0
 0
VERTEX
 8
TITLE
 10
  3.9000
 20
  9.7000
 30
0.0
 0
VERTEX
 8
TITLE
 10
  3.9000
 20
  9.8000
 30
0.0
 0
SEQEND
 8
TITLE
 0
SOLID
 8
TITLE
 10
  7.6000
 20
  0.2000
 30
0.0
 11
  7.5800
 21
  0.1500
 31
0.0
 12
  7.6200
 22
  0.1500
 32
0.0
 13
  7.6000
 23
  0.1500
 33
0.0
 0
SOLID
 8
TITLE
 10
  7.6000
 20
  9.7000
 30
0.0
 11
  7.5800
 21
  9.7500
 31
0.0
 12
  7.6200
 22
  9.7500
 32
0.0
 13
  7.6000
 23
  9.7500
 33
0.0
 0
POLYLINE
 8
TITLE
 66
1
 10
0.0
 20
0.0
 30
0.0
 0
VERTEX
 8
TITLE
 10
  5.7500
 20
  0.2000
 30
0.0
 0
VERTEX
 8
TITLE
 10
  5.7500
 20
  0.1000
 30
0.0
 0
SEQEND
 8
TITLE
 0
POLYLINE
 8
TITLE
 66
1
 10
0.0
 20
0.0
 30
0.0
 0
VERTEX
 8
TITLE
 10
  5.7500
 20
  9.7000
 30
0.0
 0
VERTEX
 8
TITLE
 10
  5.7500
 20
  9.8000
 30
0.0
 0
SEQEND
 8
TITLE
 0
SOLID
 8
TITLE
 10
  7.6000
 20
  0.2000
 30
0.0
 11
  7.5800
 21
  0.1500
 31
0.0
 12
  7.6200
 22
  0.1500
 32
0.0
 13
  7.6000
 23
  0.1500
 33
0.0
 0
SOLID
 8
TITLE
 10
  7.6000
 20
  9.7000
 30
0.0
 11
  7.5800
 21
  9.7500
 31
0.0
 12
  7.6200
 22
  9.7500
 32
0.0
 13
  7.6000
 23
  9.7500
 33
0.0
 0
POLYLINE
 8
TITLE
 66
1
 10
0.0
 20
0.0
 30
0.0
 0
VERTEX
 8
TITLE
 10
  7.6000
 20
  0.2000
 30
0.0
 0
VERTEX
 8
TITLE
 10
  7.6000
 20
  0.1000
 30
0.0
 0
SEQEND
 8
TITLE
 0
POLYLINE
 8
TITLE
 66
1
 10
0.0
 20
0.0
 30
0.0
 0
VERTEX
 8
TITLE
 10
  7.6000
 20
  9.7000
 30
0.0
 0
VERTEX
 8
TITLE
 10
  7.6000
 20
  9.8000
 30
0.0
 0
SEQEND
 8
TITLE
 0
SOLID
 8
TITLE
 10
  7.6000
 20
  0.2000
 30
0.0
 11
  7.5800
 21
  0.1500
 31
0.0
 12
  7.6200
 22
  0.1500
 32
0.0
 13
  7.6000
 23
  0.1500
 33
0.0
 0
SOLID
 8
TITLE
 10
  7.6000
 20
  9.7000
 30
0.0
 11
  7.5800
 21
  9.7500
 31
0.0
 12
  7.6200
 22
  9.7500
 32
0.0
 13
  7.6000
 23
  9.7500
 33
0.0
 0
POLYLINE
 8
TITLE
 66
1
 10
0.0
 20
0.0
 30
0.0
 0
VERTEX
 8
TITLE
 10
  9.4500
 20
  0.2000
 30
0.0
 0
VERTEX
 8
TITLE
 10
  9.4500
 20
  0.1000
 30
0.0
 0
SEQEND
 8
TITLE
 0
POLYLINE
 8
TITLE
 66
1
 10
0.0
 20
0.0
 30
0.0
 0
VERTEX
 8
TITLE
 10
  9.4500
 20
  9.7000
 30
0.0
 0
VERTEX
 8
TITLE
 10
  9.4500
 20
  9.8000
 30
0.0
 0
SEQEND
 8
TITLE
 0
SOLID
 8
TITLE
 10
  7.6000
 20
  0.2000
 30
0.0
 11
  7.5800
 21
  0.1500
 31
0.0
 12
  7.6200
 22
  0.1500
 32
0.0
 13
  7.6000
 23
  0.1500
 33
0.0
 0
SOLID
 8
TITLE
 10
  7.6000
 20
  9.7000
 30
0.0
 11
  7.5800
 21
  9.7500
 31
0.0
 12
  7.6200
 22
  9.7500
 32
0.0
 13
  7.6000
 23
  9.7500
 33
0.0
 0
POLYLINE
 8
TITLE
 66
1
 10
0.0
 20
0.0
 30
0.0
 0
VERTEX
 8
TITLE
 10
 11.3000
 20
  0.2000
 30
0.0
 0
VERTEX
 8
TITLE
 10
 11.3000
 20
  0.1000
 30
0.0
 0
SEQEND
 8
TITLE
 0
POLYLINE
 8
TITLE
 66
1
 10
0.0
 20
0.0
 30
0.0
 0
VERTEX
 8
TITLE
 10
 11.3000
 20
  9.7000
 30
0.0
 0
VERTEX
 8
TITLE
 10
 11.3000
 20
  9.8000
 30
0.0
 0
SEQEND
 8
TITLE
 0
SOLID
 8
TITLE
 10
  7.6000
 20
  0.2000
 30
0.0
 11
  7.5800
 21
  0.1500
 31
0.0
 12
  7.6200
 22
  0.1500
 32
0.0
 13
  7.6000
 23
  0.1500
 33
0.0
 0
SOLID
 8
TITLE
 10
  7.6000
 20
  9.7000
 30
0.0
 11
  7.5800
 21
  9.7500
 31
0.0
 12
  7.6200
 22
  9.7500
 32
0.0
 13
  7.6000
 23
  9.7500
 33
0.0
 0
POLYLINE
 8
TITLE
 66
1
 10
0.0
 20
0.0
 30
0.0
 0
VERTEX
 8
TITLE
 10
 13.1500
 20
  0.2000
 30
0.0
 0
VERTEX
 8
TITLE
 10
 13.1500
 20
  0.1000
 30
0.0
 0
SEQEND
 8
TITLE
 0
POLYLINE
 8
TITLE
 66
1
 10
0.0
 20
0.0
 30
0.0
 0
VERTEX
 8
TITLE
 10
 13.1500
 20
  9.7000
 30
0.0
 0
VERTEX
 8
TITLE
 10
 13.1500
 20
  9.8000
 30
0.0
 0
SEQEND
 8
TITLE
 0
SOLID
 8
TITLE
 10
  7.6000
 20
  0.2000
 30
0.0
 11
  7.5800
 21
  0.1500
 31
0.0
 12
  7.6200
 22
  0.1500
 32
0.0
 13
  7.6000
 23
  0.1500
 33
0.0
 0
SOLID
 8
TITLE
 10
  7.6000
 20
  9.7000
 30
0.0
 11
  7.5800
 21
  9.7500
 31
0.0
 12
  7.6200
 22
  9.7500
 32
0.0
 13
  7.6000
 23
  9.7500
 33
0.0
 0
TEXT
 8
TITLE
 10
  1.1200
 20
  0.1200
 30
0.0
 40
  0.0500
 1
8
 0
TEXT
 8
TITLE
 10
  1.1200
 20
  9.7200
 30
0.0
 40
  0.0500
 1
8
 0
TEXT
 8
TITLE
 10
  2.9700
 20
  0.1200
 30
0.0
 40
  0.0500
 1
7
 0
TEXT
 8
TITLE
 10
  2.9700
 20
  9.7200
 30
0.0
 40
  0.0500
 1
7
 0
TEXT
 8
TITLE
 10
  4.8200
 20
  0.1200
 30
0.0
 40
  0.0500
 1
6
 0
TEXT
 8
TITLE
 10
  4.8200
 20
  9.7200
 30
0.0
 40
  0.0500
 1
6
 0
TEXT
 8
TITLE
 10
  6.6700
 20
  0.1200
 30
0.0
 40
  0.0500
 1
5
 0
TEXT
 8
TITLE
 10
  6.6700
 20
  9.7200
 30
0.0
 40
  0.0500
 1
5
 0
TEXT
 8
TITLE
 10
  8.5200
 20
  0.1200
 30
0.0
 40
  0.0500
 1
4
 0
TEXT
 8
TITLE
 10
  8.5200
 20
  9.7200
 30
0.0
 40
  0.0500
 1
4
 0
TEXT
 8
TITLE
 10
 10.3700
 20
  0.1200
 30
0.0
 40
  0.0500
 1
3
 0
TEXT
 8
TITLE
 10
 10.3700
 20
  9.7200
 30
0.0
 40
  0.0500
 1
3
 0
TEXT
 8
TITLE
 10
 12.2200
 20
  0.1200
 30
0.0
 40
  0.0500
 1
2
 0
TEXT
 8
TITLE
 10
 12.2200
 20
  9.7200
 30
0.0
 40
  0.0500
 1
2
 0
TEXT
 8
TITLE
 10
 14.0700
 20
  0.1200
 30
0.0
 40
  0.0500
 1
1
 0
TEXT
 8
TITLE
 10
 14.0700
 20
  9.7200
 30
0.0
 40
  0.0500
 1
1
 0
POLYLINE
 8
TITLE
 66
1
 10
0.0
 20
0.0
 30
0.0
 0
VERTEX
 8
TITLE
 10
 -0.1000
 20
  7.1800
 30
0.0
 0
VERTEX
 8
TITLE
 10
  0.0000
 20
  7.1800
 30
0.0
 0
SEQEND
 8
TITLE
 0
POLYLINE
 8
TITLE
 66
1
 10
0.0
 20
0.0
 30
0.0
 0
VERTEX
 8
TITLE
 10
 15.0000
 20
  7.1800
 30
0.0
 0
VERTEX
 8
TITLE
 10
 15.1000
 20
  7.1800
 30
0.0
 0
SEQEND
 8
TITLE
 0
SOLID
 8
TITLE
 10
  0.0000
 20
  4.8600
 30
0.0
 11
 -0.0500
 21
  4.8800
 31
0.0
 12
 -0.0500
 22
  4.8400
 32
0.0
 13
 -0.0500
 23
  4.8600
 33
0.0
 0
SOLID
 8
TITLE
 10
 15.0000
 20
  4.8600
 30
0.0
 11
 15.0500
 21
  4.8800
 31
0.0
 12
 15.0500
 22
  4.8400
 32
0.0
 13
 15.0500
 23
  4.8600
 33
0.0
 0
POLYLINE
 8
TITLE
 66
1
 10
0.0
 20
0.0
 30
0.0
 0
VERTEX
 8
TITLE
 10
 -0.1000
 20
  4.8600
 30
0.0
 0
VERTEX
 8
TITLE
 10
  0.0000
 20
  4.8600
 30
0.0
 0
SEQEND
 8
TITLE
 0
POLYLINE
 8
TITLE
 66
1
 10
0.0
 20
0.0
 30
0.0
 0
VERTEX
 8
TITLE
 10
 15.0000
 20
  4.8600
 30
0.0
 0
VERTEX
 8
TITLE
 10
 15.1000
 20
  4.8600
 30
0.0
 0
SEQEND
 8
TITLE
 0
SOLID
 8
TITLE
 10
  0.0000
 20
  4.8600
 30
0.0
 11
 -0.0500
 21
  4.8800
 31
0.0
 12
 -0.0500
 22
  4.8400
 32
0.0
 13
 -0.0500
 23
  4.8600
 33
0.0
 0
SOLID
 8
TITLE
 10
 15.0000
 20
  4.8600
 30
0.0
 11
 15.0500
 21
  4.8800
 31
0.0
 12
 15.0500
 22
  4.8400
 32
0.0
 13
 15.0500
 23
  4.8600
 33
0.0
 0
POLYLINE
 8
TITLE
 66
1
 10
0.0
 20
0.0
 30
0.0
 0
VERTEX
 8
TITLE
 10
 -0.1000
 20
  2.5400
 30
0.0
 0
VERTEX
 8
TITLE
 10
  0.0000
 20
  2.5400
 30
0.0
 0
SEQEND
 8
TITLE
 0
POLYLINE
 8
TITLE
 66
1
 10
0.0
 20
0.0
 30
0.0
 0
VERTEX
 8
TITLE
 10
 15.0000
 20
  2.5400
 30
0.0
 0
VERTEX
 8
TITLE
 10
 15.1000
 20
  2.5400
 30
0.0
 0
SEQEND
 8
TITLE
 0
SOLID
 8
TITLE
 10
  0.0000
 20
  4.8600
 30
0.0
 11
 -0.0500
 21
  4.8800
 31
0.0
 12
 -0.0500
 22
  4.8400
 32
0.0
 13
 -0.0500
 23
  4.8600
 33
0.0
 0
SOLID
 8
TITLE
 10
 15.0000
 20
  4.8600
 30
0.0
 11
 15.0500
 21
  4.8800
 31
0.0
 12
 15.0500
 22
  4.8400
 32
0.0
 13
 15.0500
 23
  4.8600
 33
0.0
 0
TEXT
 8
TITLE
 10
 -0.0800
 20
  8.3400
 30
0.0
 40
  0.0500
 1
D
 0
TEXT
 8
TITLE
 10
 15.0200
 20
  8.3400
 30
0.0
 40
  0.0500
 1
D
 0
TEXT
 8
TITLE
 10
 -0.0800
 20
  6.0200
 30
0.0
 40
  0.0500
 1
C
 0
TEXT
 8
TITLE
 10
 15.0200
 20
  6.0200
 30
0.0
 40
  0.0500
 1
C
 0
TEXT
 8
TITLE
 10
 -0.0800
 20
  3.7000
 30
0.0
 40
  0.0500
 1
B
 0
TEXT
 8
TITLE
 10
 15.0200
 20
  3.7000
 30
0.0
 40
  0.0500
 1
B
 0
TEXT
 8
TITLE
 10
 -0.0800
 20
  1.3800
 30
0.0
 40
  0.0500
 1
A
 0
TEXT
 8
TITLE
 10
 15.0200
 20
  1.3800
 30
0.0
 40
  0.0500
 1
A
 0
TEXT
 8
TITLE
 10
 11.7000
 20
  0.4186
 30
0.0
 40
  0.0514
 1
POWER WIRING, REAR PANEL
 0
TEXT
 8
TITLE
 10
 11.7000
 20
  0.7186
 30
0.0
 40
  0.0514
 1
HALF-BAND FILTER CHASSIS
 0
TEXT
 8
TITLE
 10
 11.3000
 20
  1.3186
 30
0.0
 40
  0.0514
 1
ARECIBO OBSERVATORY
 0
TEXT
 8
TITLE
 10
 11.3000
 20
  1.1186
 30
0.0
 40
  0.0514
 1
BY : BILL SISK
 0
TEXT
 8
TITLE
 10
 11.3000
 20
  1.0186
 30
0.0
 40
  0.0514
 1
FILE : RD_DF5.SCH
 0
TEXT
 8
TITLE
 10
 11.4000
 20
  0.4186
 30
0.0
 40
  0.0514
 1
B
 0
TEXT
 8
TITLE
 10
 13.8000
 20
  0.2186
 30
0.0
 40
  0.0514
 1
0
 0
TEXT
 8
TITLE
 10
 14.4000
 20
  0.2186
 30
0.0
 40
  0.0514
 1
0
 0
TEXT
 8
TITLE
 10
 11.7100
 20
  0.2186
 30
0.0
 40
  0.0514
 1
Wednesday, December 10, 2003
 0
TEXT
 8
PARTTEXT
 10
 11.3000
 20
  0.8186
 30
0.0
 40
  0.0514
 1
Title
 0
TEXT
 8
PARTTEXT
 10
 11.3000
 20
  0.5186
 30
0.0
 40
  0.0514
 1
Size
 0
TEXT
 8
PARTTEXT
 10
 11.7000
 20
  0.5186
 30
0.0
 40
  0.0514
 1
Document Number
 0
TEXT
 8
PARTTEXT
 10
 14.6000
 20
  0.5186
 30
0.0
 40
  0.0514
 1
Rev
 0
TEXT
 8
PARTTEXT
 10
 11.3000
 20
  0.2186
 30
0.0
 40
  0.0514
 1
Date:
 0
TEXT
 8
PARTTEXT
 10
 13.3000
 20
  0.2186
 30
0.0
 40
  0.0514
 1
Sheet
 0
POLYLINE
 8
TITLE
 66
1
 70
1
 10
0.0
 20
0.0
 30
0.0
 0
VERTEX
 8
TITLE
 10
 11.3000
 20
  1.4000
 30
0.0
 0
VERTEX
 8
TITLE
 10
 14.9000
 20
  1.4000
 30
0.0
 0
VERTEX
 8
TITLE
 10
 14.9000
 20
  0.9000
 30
0.0
 0
VERTEX
 8
TITLE
 10
 11.3000
 20
  0.9000
 30
0.0
 0
SEQEND
 8
TITLE
 0
POLYLINE
 8
TITLE
 66
1
 70
1
 10
0.0
 20
0.0
 30
0.0
 0
VERTEX
 8
TITLE
 10
 11.3000
 20
  0.9000
 30
0.0
 0
VERTEX
 8
TITLE
 10
 14.9000
 20
  0.9000
 30
0.0
 0
VERTEX
 8
TITLE
 10
 14.9000
 20
  0.6000
 30
0.0
 0
VERTEX
 8
TITLE
 10
 11.3000
 20
  0.6000
 30
0.0
 0
SEQEND
 8
TITLE
 0
POLYLINE
 8
TITLE
 66
1
 70
1
 10
0.0
 20
0.0
 30
0.0
 0
VERTEX
 8
TITLE
 10
 11.3000
 20
  0.6000
 30
0.0
 0
VERTEX
 8
TITLE
 10
 11.6000
 20
  0.6000
 30
0.0
 0
VERTEX
 8
TITLE
 10
 11.6000
 20
  0.3000
 30
0.0
 0
VERTEX
 8
TITLE
 10
 11.3000
 20
  0.3000
 30
0.0
 0
SEQEND
 8
TITLE
 0
POLYLINE
 8
TITLE
 66
1
 70
1
 10
0.0
 20
0.0
 30
0.0
 0
VERTEX
 8
TITLE
 10
 11.6000
 20
  0.6000
 30
0.0
 0
VERTEX
 8
TITLE
 10
 14.6000
 20
  0.6000
 30
0.0
 0
VERTEX
 8
TITLE
 10
 14.6000
 20
  0.3000
 30
0.0
 0
VERTEX
 8
TITLE
 10
 11.6000
 20
  0.3000
 30
0.0
 0
SEQEND
 8
TITLE
 0
POLYLINE
 8
TITLE
 66
1
 70
1
 10
0.0
 20
0.0
 30
0.0
 0
VERTEX
 8
TITLE
 10
 14.6000
 20
  0.6000
 30
0.0
 0
VERTEX
 8
TITLE
 10
 14.9000
 20
  0.6000
 30
0.0
 0
VERTEX
 8
TITLE
 10
 14.9000
 20
  0.3000
 30
0.0
 0
VERTEX
 8
TITLE
 10
 14.6000
 20
  0.3000
 30
0.0
 0
SEQEND
 8
TITLE
 0
POLYLINE
 8
TITLE
 66
1
 70
1
 10
0.0
 20
0.0
 30
0.0
 0
VERTEX
 8
TITLE
 10
 11.3000
 20
  0.3000
 30
0.0
 0
VERTEX
 8
TITLE
 10
 13.3000
 20
  0.3000
 30
0.0
 0
VERTEX
 8
TITLE
 10
 13.3000
 20
  0.2000
 30
0.0
 0
VERTEX
 8
TITLE
 10
 11.3000
 20
  0.2000
 30
0.0
 0
SEQEND
 8
TITLE
 0
POLYLINE
 8
TITLE
 66
1
 70
1
 10
0.0
 20
0.0
 30
0.0
 0
VERTEX
 8
TITLE
 10
 13.3000
 20
  0.3000
 30
0.0
 0
VERTEX
 8
TITLE
 10
 14.9000
 20
  0.3000
 30
0.0
 0
VERTEX
 8
TITLE
 10
 14.9000
 20
  0.2000
 30
0.0
 0
VERTEX
 8
TITLE
 10
 13.3000
 20
  0.2000
 30
0.0
 0
SEQEND
 8
TITLE
 0
TEXT
 8
PARTTEXT
 10
 14.1000
 20
  0.2186
 30
0.0
 40
  0.0514
 1
of
 0
POLYLINE
 8
PARTS
 66
1
 70
1
 10
0.0
 20
0.0
 30
0.0
 0
VERTEX
 8
PARTS
 10
  1.1000
 20
  8.6500
 30
0.0
 42
  0.0985
 0
VERTEX
 8
PARTS
 10
  1.0962
 20
  8.6691
 30
0.0
 42
  0.0985
 0
VERTEX
 8
PARTS
 10
  1.0854
 20
  8.6854
 30
0.0
 42
  0.0985
 0
VERTEX
 8
PARTS
 10
  1.0691
 20
  8.6962
 30
0.0
 42
  0.0985
 0
VERTEX
 8
PARTS
 10
  1.0500
 20
  8.7000
 30
0.0
 42
  0.0985
 0
VERTEX
 8
PARTS
 10
  1.0309
 20
  8.6962
 30
0.0
 42
  0.0985
 0
VERTEX
 8
PARTS
 10
  1.0146
 20
  8.6854
 30
0.0
 42
  0.0985
 0
VERTEX
 8
PARTS
 10
  1.0038
 20
  8.6691
 30
0.0
 42
  0.0985
 0
VERTEX
 8
PARTS
 10
  1.0000
 20
  8.6500
 30
0.0
 42
  0.0985
 0
VERTEX
 8
PARTS
 10
  1.0038
 20
  8.6309
 30
0.0
 42
  0.0985
 0
VERTEX
 8
PARTS
 10
  1.0146
 20
  8.6146
 30
0.0
 42
  0.0985
 0
VERTEX
 8
PARTS
 10
  1.0309
 20
  8.6038
 30
0.0
 42
  0.0985
 0
VERTEX
 8
PARTS
 10
  1.0500
 20
  8.6000
 30
0.0
 42
  0.0985
 0
VERTEX
 8
PARTS
 10
  1.0691
 20
  8.6038
 30
0.0
 42
  0.0985
 0
VERTEX
 8
PARTS
 10
  1.0854
 20
  8.6146
 30
0.0
 42
  0.0985
 0
VERTEX
 8
PARTS
 10
  1.0962
 20
  8.6309
 30
0.0
 42
  0.0985
 0
SEQEND
 8
PARTS
 0
POLYLINE
 8
PARTS
 66
1
 70
1
 10
0.0
 20
0.0
 30
0.0
 0
VERTEX
 8
PARTS
 10
  1.6000
 20
  8.6500
 30
0.0
 42
  0.0985
 0
VERTEX
 8
PARTS
 10
  1.5962
 20
  8.6691
 30
0.0
 42
  0.0985
 0
VERTEX
 8
PARTS
 10
  1.5854
 20
  8.6854
 30
0.0
 42
  0.0985
 0
VERTEX
 8
PARTS
 10
  1.5691
 20
  8.6962
 30
0.0
 42
  0.0985
 0
VERTEX
 8
PARTS
 10
  1.5500
 20
  8.7000
 30
0.0
 42
  0.0985
 0
VERTEX
 8
PARTS
 10
  1.5309
 20
  8.6962
 30
0.0
 42
  0.0985
 0
VERTEX
 8
PARTS
 10
  1.5146
 20
  8.6854
 30
0.0
 42
  0.0985
 0
VERTEX
 8
PARTS
 10
  1.5038
 20
  8.6691
 30
0.0
 42
  0.0985
 0
VERTEX
 8
PARTS
 10
  1.5000
 20
  8.6500
 30
0.0
 42
  0.0985
 0
VERTEX
 8
PARTS
 10
  1.5038
 20
  8.6309
 30
0.0
 42
  0.0985
 0
VERTEX
 8
PARTS
 10
  1.5146
 20
  8.6146
 30
0.0
 42
  0.0985
 0
VERTEX
 8
PARTS
 10
  1.5309
 20
  8.6038
 30
0.0
 42
  0.0985
 0
VERTEX
 8
PARTS
 10
  1.5500
 20
  8.6000
 30
0.0
 42
  0.0985
 0
VERTEX
 8
PARTS
 10
  1.5691
 20
  8.6038
 30
0.0
 42
  0.0985
 0
VERTEX
 8
PARTS
 10
  1.5854
 20
  8.6146
 30
0.0
 42
  0.0985
 0
VERTEX
 8
PARTS
 10
  1.5962
 20
  8.6309
 30
0.0
 42
  0.0985
 0
SEQEND
 8
PARTS
 0
POLYLINE
 8
PARTS
 66
1
 70
1
 10
0.0
 20
0.0
 30
0.0
 0
VERTEX
 8
PARTS
 10
  0.6000
 20
  8.2500
 30
0.0
 42
  0.0985
 0
VERTEX
 8
PARTS
 10
  0.5962
 20
  8.2691
 30
0.0
 42
  0.0985
 0
VERTEX
 8
PARTS
 10
  0.5854
 20
  8.2854
 30
0.0
 42
  0.0985
 0
VERTEX
 8
PARTS
 10
  0.5691
 20
  8.2962
 30
0.0
 42
  0.0985
 0
VERTEX
 8
PARTS
 10
  0.5500
 20
  8.3000
 30
0.0
 42
  0.0985
 0
VERTEX
 8
PARTS
 10
  0.5309
 20
  8.2962
 30
0.0
 42
  0.0985
 0
VERTEX
 8
PARTS
 10
  0.5146
 20
  8.2854
 30
0.0
 42
  0.0985
 0
VERTEX
 8
PARTS
 10
  0.5038
 20
  8.2691
 30
0.0
 42
  0.0985
 0
VERTEX
 8
PARTS
 10
  0.5000
 20
  8.2500
 30
0.0
 42
  0.0985
 0
VERTEX
 8
PARTS
 10
  0.5038
 20
  8.2309
 30
0.0
 42
  0.0985
 0
VERTEX
 8
PARTS
 10
  0.5146
 20
  8.2146
 30
0.0
 42
  0.0985
 0
VERTEX
 8
PARTS
 10
  0.5309
 20
  8.2038
 30
0.0
 42
  0.0985
 0
VERTEX
 8
PARTS
 10
  0.5500
 20
  8.2000
 30
0.0
 42
  0.0985
 0
VERTEX
 8
PARTS
 10
  0.5691
 20
  8.2038
 30
0.0
 42
  0.0985
 0
VERTEX
 8
PARTS
 10
  0.5854
 20
  8.2146
 30
0.0
 42
  0.0985
 0
VERTEX
 8
PARTS
 10
  0.5962
 20
  8.2309
 30
0.0
 42
  0.0985
 0
SEQEND
 8
PARTS
 0
POLYLINE
 8
PARTS
 66
1
 70
1
 10
0.0
 20
0.0
 30
0.0
 0
VERTEX
 8
PARTS
 10
  1.1000
 20
  8.2500
 30
0.0
 42
  0.0985
 0
VERTEX
 8
PARTS
 10
  1.0962
 20
  8.2691
 30
0.0
 42
  0.0985
 0
VERTEX
 8
PARTS
 10
  1.0854
 20
  8.2854
 30
0.0
 42
  0.0985
 0
VERTEX
 8
PARTS
 10
  1.0691
 20
  8.2962
 30
0.0
 42
  0.0985
 0
VERTEX
 8
PARTS
 10
  1.0500
 20
  8.3000
 30
0.0
 42
  0.0985
 0
VERTEX
 8
PARTS
 10
  1.0309
 20
  8.2962
 30
0.0
 42
  0.0985
 0
VERTEX
 8
PARTS
 10
  1.0146
 20
  8.2854
 30
0.0
 42
  0.0985
 0
VERTEX
 8
PARTS
 10
  1.0038
 20
  8.2691
 30
0.0
 42
  0.0985
 0
VERTEX
 8
PARTS
 10
  1.0000
 20
  8.2500
 30
0.0
 42
  0.0985
 0
VERTEX
 8
PARTS
 10
  1.0038
 20
  8.2309
 30
0.0
 42
  0.0985
 0
VERTEX
 8
PARTS
 10
  1.0146
 20
  8.2146
 30
0.0
 42
  0.0985
 0
VERTEX
 8
PARTS
 10
  1.0309
 20
  8.2038
 30
0.0
 42
  0.0985
 0
VERTEX
 8
PARTS
 10
  1.0500
 20
  8.2000
 30
0.0
 42
  0.0985
 0
VERTEX
 8
PARTS
 10
  1.0691
 20
  8.2038
 30
0.0
 42
  0.0985
 0
VERTEX
 8
PARTS
 10
  1.0854
 20
  8.2146
 30
0.0
 42
  0.0985
 0
VERTEX
 8
PARTS
 10
  1.0962
 20
  8.2309
 30
0.0
 42
  0.0985
 0
SEQEND
 8
PARTS
 0
POLYLINE
 8
PARTS
 66
1
 70
1
 10
0.0
 20
0.0
 30
0.0
 0
VERTEX
 8
PARTS
 10
  1.6000
 20
  8.2500
 30
0.0
 42
  0.0985
 0
VERTEX
 8
PARTS
 10
  1.5962
 20
  8.2691
 30
0.0
 42
  0.0985
 0
VERTEX
 8
PARTS
 10
  1.5854
 20
  8.2854
 30
0.0
 42
  0.0985
 0
VERTEX
 8
PARTS
 10
  1.5691
 20
  8.2962
 30
0.0
 42
  0.0985
 0
VERTEX
 8
PARTS
 10
  1.5500
 20
  8.3000
 30
0.0
 42
  0.0985
 0
VERTEX
 8
PARTS
 10
  1.5309
 20
  8.2962
 30
0.0
 42
  0.0985
 0
VERTEX
 8
PARTS
 10
  1.5146
 20
  8.2854
 30
0.0
 42
  0.0985
 0
VERTEX
 8
PARTS
 10
  1.5038
 20
  8.2691
 30
0.0
 42
  0.0985
 0
VERTEX
 8
PARTS
 10
  1.5000
 20
  8.2500
 30
0.0
 42
  0.0985
 0
VERTEX
 8
PARTS
 10
  1.5038
 20
  8.2309
 30
0.0
 42
  0.0985
 0
VERTEX
 8
PARTS
 10
  1.5146
 20
  8.2146
 30
0.0
 42
  0.0985
 0
VERTEX
 8
PARTS
 10
  1.5309
 20
  8.2038
 30
0.0
 42
  0.0985
 0
VERTEX
 8
PARTS
 10
  1.5500
 20
  8.2000
 30
0.0
 42
  0.0985
 0
VERTEX
 8
PARTS
 10
  1.5691
 20
  8.2038
 30
0.0
 42
  0.0985
 0
VERTEX
 8
PARTS
 10
  1.5854
 20
  8.2146
 30
0.0
 42
  0.0985
 0
VERTEX
 8
PARTS
 10
  1.5962
 20
  8.2309
 30
0.0
 42
  0.0985
 0
SEQEND
 8
PARTS
 0
POLYLINE
 8
PARTS
 66
1
 70
1
 10
0.0
 20
0.0
 30
0.0
 0
VERTEX
 8
PARTS
 10
  0.6000
 20
  7.8500
 30
0.0
 42
  0.0985
 0
VERTEX
 8
PARTS
 10
  0.5962
 20
  7.8691
 30
0.0
 42
  0.0985
 0
VERTEX
 8
PARTS
 10
  0.5854
 20
  7.8854
 30
0.0
 42
  0.0985
 0
VERTEX
 8
PARTS
 10
  0.5691
 20
  7.8962
 30
0.0
 42
  0.0985
 0
VERTEX
 8
PARTS
 10
  0.5500
 20
  7.9000
 30
0.0
 42
  0.0985
 0
VERTEX
 8
PARTS
 10
  0.5309
 20
  7.8962
 30
0.0
 42
  0.0985
 0
VERTEX
 8
PARTS
 10
  0.5146
 20
  7.8854
 30
0.0
 42
  0.0985
 0
VERTEX
 8
PARTS
 10
  0.5038
 20
  7.8691
 30
0.0
 42
  0.0985
 0
VERTEX
 8
PARTS
 10
  0.5000
 20
  7.8500
 30
0.0
 42
  0.0985
 0
VERTEX
 8
PARTS
 10
  0.5038
 20
  7.8309
 30
0.0
 42
  0.0985
 0
VERTEX
 8
PARTS
 10
  0.5146
 20
  7.8146
 30
0.0
 42
  0.0985
 0
VERTEX
 8
PARTS
 10
  0.5309
 20
  7.8038
 30
0.0
 42
  0.0985
 0
VERTEX
 8
PARTS
 10
  0.5500
 20
  7.8000
 30
0.0
 42
  0.0985
 0
VERTEX
 8
PARTS
 10
  0.5691
 20
  7.8038
 30
0.0
 42
  0.0985
 0
VERTEX
 8
PARTS
 10
  0.5854
 20
  7.8146
 30
0.0
 42
  0.0985
 0
VERTEX
 8
PARTS
 10
  0.5962
 20
  7.8309
 30
0.0
 42
  0.0985
 0
SEQEND
 8
PARTS
 0
POLYLINE
 8
PARTS
 66
1
 70
1
 10
0.0
 20
0.0
 30
0.0
 0
VERTEX
 8
PARTS
 10
  1.1000
 20
  7.8500
 30
0.0
 42
  0.0985
 0
VERTEX
 8
PARTS
 10
  1.0962
 20
  7.8691
 30
0.0
 42
  0.0985
 0
VERTEX
 8
PARTS
 10
  1.0854
 20
  7.8854
 30
0.0
 42
  0.0985
 0
VERTEX
 8
PARTS
 10
  1.0691
 20
  7.8962
 30
0.0
 42
  0.0985
 0
VERTEX
 8
PARTS
 10
  1.0500
 20
  7.9000
 30
0.0
 42
  0.0985
 0
VERTEX
 8
PARTS
 10
  1.0309
 20
  7.8962
 30
0.0
 42
  0.0985
 0
VERTEX
 8
PARTS
 10
  1.0146
 20
  7.8854
 30
0.0
 42
  0.0985
 0
VERTEX
 8
PARTS
 10
  1.0038
 20
  7.8691
 30
0.0
 42
  0.0985
 0
VERTEX
 8
PARTS
 10
  1.0000
 20
  7.8500
 30
0.0
 42
  0.0985
 0
VERTEX
 8
PARTS
 10
  1.0038
 20
  7.8309
 30
0.0
 42
  0.0985
 0
VERTEX
 8
PARTS
 10
  1.0146
 20
  7.8146
 30
0.0
 42
  0.0985
 0
VERTEX
 8
PARTS
 10
  1.0309
 20
  7.8038
 30
0.0
 42
  0.0985
 0
VERTEX
 8
PARTS
 10
  1.0500
 20
  7.8000
 30
0.0
 42
  0.0985
 0
VERTEX
 8
PARTS
 10
  1.0691
 20
  7.8038
 30
0.0
 42
  0.0985
 0
VERTEX
 8
PARTS
 10
  1.0854
 20
  7.8146
 30
0.0
 42
  0.0985
 0
VERTEX
 8
PARTS
 10
  1.0962
 20
  7.8309
 30
0.0
 42
  0.0985
 0
SEQEND
 8
PARTS
 0
POLYLINE
 8
PARTS
 66
1
 70
1
 10
0.0
 20
0.0
 30
0.0
 0
VERTEX
 8
PARTS
 10
  1.6000
 20
  7.8500
 30
0.0
 42
  0.0985
 0
VERTEX
 8
PARTS
 10
  1.5962
 20
  7.8691
 30
0.0
 42
  0.0985
 0
VERTEX
 8
PARTS
 10
  1.5854
 20
  7.8854
 30
0.0
 42
  0.0985
 0
VERTEX
 8
PARTS
 10
  1.5691
 20
  7.8962
 30
0.0
 42
  0.0985
 0
VERTEX
 8
PARTS
 10
  1.5500
 20
  7.9000
 30
0.0
 42
  0.0985
 0
VERTEX
 8
PARTS
 10
  1.5309
 20
  7.8962
 30
0.0
 42
  0.0985
 0
VERTEX
 8
PARTS
 10
  1.5146
 20
  7.8854
 30
0.0
 42
  0.0985
 0
VERTEX
 8
PARTS
 10
  1.5038
 20
  7.8691
 30
0.0
 42
  0.0985
 0
VERTEX
 8
PARTS
 10
  1.5000
 20
  7.8500
 30
0.0
 42
  0.0985
 0
VERTEX
 8
PARTS
 10
  1.5038
 20
  7.8309
 30
0.0
 42
  0.0985
 0
VERTEX
 8
PARTS
 10
  1.5146
 20
  7.8146
 30
0.0
 42
  0.0985
 0
VERTEX
 8
PARTS
 10
  1.5309
 20
  7.8038
 30
0.0
 42
  0.0985
 0
VERTEX
 8
PARTS
 10
  1.5500
 20
  7.8000
 30
0.0
 42
  0.0985
 0
VERTEX
 8
PARTS
 10
  1.5691
 20
  7.8038
 30
0.0
 42
  0.0985
 0
VERTEX
 8
PARTS
 10
  1.5854
 20
  7.8146
 30
0.0
 42
  0.0985
 0
VERTEX
 8
PARTS
 10
  1.5962
 20
  7.8309
 30
0.0
 42
  0.0985
 0
SEQEND
 8
PARTS
 0
POLYLINE
 8
PARTS
 66
1
 70
1
 10
0.0
 20
0.0
 30
0.0
 0
VERTEX
 8
PARTS
 10
  0.6000
 20
  7.4500
 30
0.0
 42
  0.0985
 0
VERTEX
 8
PARTS
 10
  0.5962
 20
  7.4691
 30
0.0
 42
  0.0985
 0
VERTEX
 8
PARTS
 10
  0.5854
 20
  7.4854
 30
0.0
 42
  0.0985
 0
VERTEX
 8
PARTS
 10
  0.5691
 20
  7.4962
 30
0.0
 42
  0.0985
 0
VERTEX
 8
PARTS
 10
  0.5500
 20
  7.5000
 30
0.0
 42
  0.0985
 0
VERTEX
 8
PARTS
 10
  0.5309
 20
  7.4962
 30
0.0
 42
  0.0985
 0
VERTEX
 8
PARTS
 10
  0.5146
 20
  7.4854
 30
0.0
 42
  0.0985
 0
VERTEX
 8
PARTS
 10
  0.5038
 20
  7.4691
 30
0.0
 42
  0.0985
 0
VERTEX
 8
PARTS
 10
  0.5000
 20
  7.4500
 30
0.0
 42
  0.0985
 0
VERTEX
 8
PARTS
 10
  0.5038
 20
  7.4309
 30
0.0
 42
  0.0985
 0
VERTEX
 8
PARTS
 10
  0.5146
 20
  7.4146
 30
0.0
 42
  0.0985
 0
VERTEX
 8
PARTS
 10
  0.5309
 20
  7.4038
 30
0.0
 42
  0.0985
 0
VERTEX
 8
PARTS
 10
  0.5500
 20
  7.4000
 30
0.0
 42
  0.0985
 0
VERTEX
 8
PARTS
 10
  0.5691
 20
  7.4038
 30
0.0
 42
  0.0985
 0
VERTEX
 8
PARTS
 10
  0.5854
 20
  7.4146
 30
0.0
 42
  0.0985
 0
VERTEX
 8
PARTS
 10
  0.5962
 20
  7.4309
 30
0.0
 42
  0.0985
 0
SEQEND
 8
PARTS
 0
POLYLINE
 8
PARTS
 66
1
 70
1
 10
0.0
 20
0.0
 30
0.0
 0
VERTEX
 8
PARTS
 10
  1.1000
 20
  7.4500
 30
0.0
 42
  0.0985
 0
VERTEX
 8
PARTS
 10
  1.0962
 20
  7.4691
 30
0.0
 42
  0.0985
 0
VERTEX
 8
PARTS
 10
  1.0854
 20
  7.4854
 30
0.0
 42
  0.0985
 0
VERTEX
 8
PARTS
 10
  1.0691
 20
  7.4962
 30
0.0
 42
  0.0985
 0
VERTEX
 8
PARTS
 10
  1.0500
 20
  7.5000
 30
0.0
 42
  0.0985
 0
VERTEX
 8
PARTS
 10
  1.0309
 20
  7.4962
 30
0.0
 42
  0.0985
 0
VERTEX
 8
PARTS
 10
  1.0146
 20
  7.4854
 30
0.0
 42
  0.0985
 0
VERTEX
 8
PARTS
 10
  1.0038
 20
  7.4691
 30
0.0
 42
  0.0985
 0
VERTEX
 8
PARTS
 10
  1.0000
 20
  7.4500
 30
0.0
 42
  0.0985
 0
VERTEX
 8
PARTS
 10
  1.0038
 20
  7.4309
 30
0.0
 42
  0.0985
 0
VERTEX
 8
PARTS
 10
  1.0146
 20
  7.4146
 30
0.0
 42
  0.0985
 0
VERTEX
 8
PARTS
 10
  1.0309
 20
  7.4038
 30
0.0
 42
  0.0985
 0
VERTEX
 8
PARTS
 10
  1.0500
 20
  7.4000
 30
0.0
 42
  0.0985
 0
VERTEX
 8
PARTS
 10
  1.0691
 20
  7.4038
 30
0.0
 42
  0.0985
 0
VERTEX
 8
PARTS
 10
  1.0854
 20
  7.4146
 30
0.0
 42
  0.0985
 0
VERTEX
 8
PARTS
 10
  1.0962
 20
  7.4309
 30
0.0
 42
  0.0985
 0
SEQEND
 8
PARTS
 0
POLYLINE
 8
PARTS
 66
1
 70
1
 10
0.0
 20
0.0
 30
0.0
 0
VERTEX
 8
PARTS
 10
  1.6000
 20
  7.4500
 30
0.0
 42
  0.0985
 0
VERTEX
 8
PARTS
 10
  1.5962
 20
  7.4691
 30
0.0
 42
  0.0985
 0
VERTEX
 8
PARTS
 10
  1.5854
 20
  7.4854
 30
0.0
 42
  0.0985
 0
VERTEX
 8
PARTS
 10
  1.5691
 20
  7.4962
 30
0.0
 42
  0.0985
 0
VERTEX
 8
PARTS
 10
  1.5500
 20
  7.5000
 30
0.0
 42
  0.0985
 0
VERTEX
 8
PARTS
 10
  1.5309
 20
  7.4962
 30
0.0
 42
  0.0985
 0
VERTEX
 8
PARTS
 10
  1.5146
 20
  7.4854
 30
0.0
 42
  0.0985
 0
VERTEX
 8
PARTS
 10
  1.5038
 20
  7.4691
 30
0.0
 42
  0.0985
 0
VERTEX
 8
PARTS
 10
  1.5000
 20
  7.4500
 30
0.0
 42
  0.0985
 0
VERTEX
 8
PARTS
 10
  1.5038
 20
  7.4309
 30
0.0
 42
  0.0985
 0
VERTEX
 8
PARTS
 10
  1.5146
 20
  7.4146
 30
0.0
 42
  0.0985
 0
VERTEX
 8
PARTS
 10
  1.5309
 20
  7.4038
 30
0.0
 42
  0.0985
 0
VERTEX
 8
PARTS
 10
  1.5500
 20
  7.4000
 30
0.0
 42
  0.0985
 0
VERTEX
 8
PARTS
 10
  1.5691
 20
  7.4038
 30
0.0
 42
  0.0985
 0
VERTEX
 8
PARTS
 10
  1.5854
 20
  7.4146
 30
0.0
 42
  0.0985
 0
VERTEX
 8
PARTS
 10
  1.5962
 20
  7.4309
 30
0.0
 42
  0.0985
 0
SEQEND
 8
PARTS
 0
POLYLINE
 8
PARTS
 66
1
 70
1
 10
0.0
 20
0.0
 30
0.0
 0
VERTEX
 8
PARTS
 10
  0.6000
 20
  9.0500
 30
0.0
 42
  0.0985
 0
VERTEX
 8
PARTS
 10
  0.5962
 20
  9.0691
 30
0.0
 42
  0.0985
 0
VERTEX
 8
PARTS
 10
  0.5854
 20
  9.0854
 30
0.0
 42
  0.0985
 0
VERTEX
 8
PARTS
 10
  0.5691
 20
  9.0962
 30
0.0
 42
  0.0985
 0
VERTEX
 8
PARTS
 10
  0.5500
 20
  9.1000
 30
0.0
 42
  0.0985
 0
VERTEX
 8
PARTS
 10
  0.5309
 20
  9.0962
 30
0.0
 42
  0.0985
 0
VERTEX
 8
PARTS
 10
  0.5146
 20
  9.0854
 30
0.0
 42
  0.0985
 0
VERTEX
 8
PARTS
 10
  0.5038
 20
  9.0691
 30
0.0
 42
  0.0985
 0
VERTEX
 8
PARTS
 10
  0.5000
 20
  9.0500
 30
0.0
 42
  0.0985
 0
VERTEX
 8
PARTS
 10
  0.5038
 20
  9.0309
 30
0.0
 42
  0.0985
 0
VERTEX
 8
PARTS
 10
  0.5146
 20
  9.0146
 30
0.0
 42
  0.0985
 0
VERTEX
 8
PARTS
 10
  0.5309
 20
  9.0038
 30
0.0
 42
  0.0985
 0
VERTEX
 8
PARTS
 10
  0.5500
 20
  9.0000
 30
0.0
 42
  0.0985
 0
VERTEX
 8
PARTS
 10
  0.5691
 20
  9.0038
 30
0.0
 42
  0.0985
 0
VERTEX
 8
PARTS
 10
  0.5854
 20
  9.0146
 30
0.0
 42
  0.0985
 0
VERTEX
 8
PARTS
 10
  0.5962
 20
  9.0309
 30
0.0
 42
  0.0985
 0
SEQEND
 8
PARTS
 0
POLYLINE
 8
PARTS
 66
1
 70
1
 10
0.0
 20
0.0
 30
0.0
 0
VERTEX
 8
PARTS
 10
  1.1000
 20
  9.0500
 30
0.0
 42
  0.0985
 0
VERTEX
 8
PARTS
 10
  1.0962
 20
  9.0691
 30
0.0
 42
  0.0985
 0
VERTEX
 8
PARTS
 10
  1.0854
 20
  9.0854
 30
0.0
 42
  0.0985
 0
VERTEX
 8
PARTS
 10
  1.0691
 20
  9.0962
 30
0.0
 42
  0.0985
 0
VERTEX
 8
PARTS
 10
  1.0500
 20
  9.1000
 30
0.0
 42
  0.0985
 0
VERTEX
 8
PARTS
 10
  1.0309
 20
  9.0962
 30
0.0
 42
  0.0985
 0
VERTEX
 8
PARTS
 10
  1.0146
 20
  9.0854
 30
0.0
 42
  0.0985
 0
VERTEX
 8
PARTS
 10
  1.0038
 20
  9.0691
 30
0.0
 42
  0.0985
 0
VERTEX
 8
PARTS
 10
  1.0000
 20
  9.0500
 30
0.0
 42
  0.0985
 0
VERTEX
 8
PARTS
 10
  1.0038
 20
  9.0309
 30
0.0
 42
  0.0985
 0
VERTEX
 8
PARTS
 10
  1.0146
 20
  9.0146
 30
0.0
 42
  0.0985
 0
VERTEX
 8
PARTS
 10
  1.0309
 20
  9.0038
 30
0.0
 42
  0.0985
 0
VERTEX
 8
PARTS
 10
  1.0500
 20
  9.0000
 30
0.0
 42
  0.0985
 0
VERTEX
 8
PARTS
 10
  1.0691
 20
  9.0038
 30
0.0
 42
  0.0985
 0
VERTEX
 8
PARTS
 10
  1.0854
 20
  9.0146
 30
0.0
 42
  0.0985
 0
VERTEX
 8
PARTS
 10
  1.0962
 20
  9.0309
 30
0.0
 42
  0.0985
 0
SEQEND
 8
PARTS
 0
POLYLINE
 8
PARTS
 66
1
 70
1
 10
0.0
 20
0.0
 30
0.0
 0
VERTEX
 8
PARTS
 10
  1.6000
 20
  9.0500
 30
0.0
 42
  0.0985
 0
VERTEX
 8
PARTS
 10
  1.5962
 20
  9.0691
 30
0.0
 42
  0.0985
 0
VERTEX
 8
PARTS
 10
  1.5854
 20
  9.0854
 30
0.0
 42
  0.0985
 0
VERTEX
 8
PARTS
 10
  1.5691
 20
  9.0962
 30
0.0
 42
  0.0985
 0
VERTEX
 8
PARTS
 10
  1.5500
 20
  9.1000
 30
0.0
 42
  0.0985
 0
VERTEX
 8
PARTS
 10
  1.5309
 20
  9.0962
 30
0.0
 42
  0.0985
 0
VERTEX
 8
PARTS
 10
  1.5146
 20
  9.0854
 30
0.0
 42
  0.0985
 0
VERTEX
 8
PARTS
 10
  1.5038
 20
  9.0691
 30
0.0
 42
  0.0985
 0
VERTEX
 8
PARTS
 10
  1.5000
 20
  9.0500
 30
0.0
 42
  0.0985
 0
VERTEX
 8
PARTS
 10
  1.5038
 20
  9.0309
 30
0.0
 42
  0.0985
 0
VERTEX
 8
PARTS
 10
  1.5146
 20
  9.0146
 30
0.0
 42
  0.0985
 0
VERTEX
 8
PARTS
 10
  1.5309
 20
  9.0038
 30
0.0
 42
  0.0985
 0
VERTEX
 8
PARTS
 10
  1.5500
 20
  9.0000
 30
0.0
 42
  0.0985
 0
VERTEX
 8
PARTS
 10
  1.5691
 20
  9.0038
 30
0.0
 42
  0.0985
 0
VERTEX
 8
PARTS
 10
  1.5854
 20
  9.0146
 30
0.0
 42
  0.0985
 0
VERTEX
 8
PARTS
 10
  1.5962
 20
  9.0309
 30
0.0
 42
  0.0985
 0
SEQEND
 8
PARTS
 0
POLYLINE
 8
PARTS
 66
1
 70
1
 10
0.0
 20
0.0
 30
0.0
 0
VERTEX
 8
PARTS
 10
  0.6000
 20
  8.6500
 30
0.0
 42
  0.0985
 0
VERTEX
 8
PARTS
 10
  0.5962
 20
  8.6691
 30
0.0
 42
  0.0985
 0
VERTEX
 8
PARTS
 10
  0.5854
 20
  8.6854
 30
0.0
 42
  0.0985
 0
VERTEX
 8
PARTS
 10
  0.5691
 20
  8.6962
 30
0.0
 42
  0.0985
 0
VERTEX
 8
PARTS
 10
  0.5500
 20
  8.7000
 30
0.0
 42
  0.0985
 0
VERTEX
 8
PARTS
 10
  0.5309
 20
  8.6962
 30
0.0
 42
  0.0985
 0
VERTEX
 8
PARTS
 10
  0.5146
 20
  8.6854
 30
0.0
 42
  0.0985
 0
VERTEX
 8
PARTS
 10
  0.5038
 20
  8.6691
 30
0.0
 42
  0.0985
 0
VERTEX
 8
PARTS
 10
  0.5000
 20
  8.6500
 30
0.0
 42
  0.0985
 0
VERTEX
 8
PARTS
 10
  0.5038
 20
  8.6309
 30
0.0
 42
  0.0985
 0
VERTEX
 8
PARTS
 10
  0.5146
 20
  8.6146
 30
0.0
 42
  0.0985
 0
VERTEX
 8
PARTS
 10
  0.5309
 20
  8.6038
 30
0.0
 42
  0.0985
 0
VERTEX
 8
PARTS
 10
  0.5500
 20
  8.6000
 30
0.0
 42
  0.0985
 0
VERTEX
 8
PARTS
 10
  0.5691
 20
  8.6038
 30
0.0
 42
  0.0985
 0
VERTEX
 8
PARTS
 10
  0.5854
 20
  8.6146
 30
0.0
 42
  0.0985
 0
VERTEX
 8
PARTS
 10
  0.5962
 20
  8.6309
 30
0.0
 42
  0.0985
 0
SEQEND
 8
PARTS
 0
POLYLINE
 8
WIRE
 66
1
 10
0.0
 20
0.0
 30
0.0
 0
VERTEX
 8
WIRE
 10
  0.3000
 20
  9.3000
 30
0.0
 0
VERTEX
 8
WIRE
 10
  1.8000
 20
  9.3000
 30
0.0
 0
SEQEND
 8
WIRE
 0
POLYLINE
 8
WIRE
 66
1
 10
0.0
 20
0.0
 30
0.0
 0
VERTEX
 8
WIRE
 10
  0.3000
 20
  7.2000
 30
0.0
 0
VERTEX
 8
WIRE
 10
  1.8000
 20
  7.2000
 30
0.0
 0
SEQEND
 8
WIRE
 0
POLYLINE
 8
WIRE
 66
1
 10
0.0
 20
0.0
 30
0.0
 0
VERTEX
 8
WIRE
 10
  0.3000
 20
  9.3000
 30
0.0
 0
VERTEX
 8
WIRE
 10
  0.3000
 20
  7.2000
 30
0.0
 0
SEQEND
 8
WIRE
 0
POLYLINE
 8
WIRE
 66
1
 10
0.0
 20
0.0
 30
0.0
 0
VERTEX
 8
WIRE
 10
  1.8000
 20
  9.3000
 30
0.0
 0
VERTEX
 8
WIRE
 10
  1.8000
 20
  7.2000
 30
0.0
 0
SEQEND
 8
WIRE
 0
TEXT
 8
COMMENTS
 10
  0.5000
 20
  9.1186
 30
0.0
 40
  0.0514
 1
1
 0
TEXT
 8
COMMENTS
 10
  1.0000
 20
  9.1186
 30
0.0
 40
  0.0514
 1
2
 0
TEXT
 8
COMMENTS
 10
  1.5000
 20
  9.1186
 30
0.0
 40
  0.0514
 1
3
 0
TEXT
 8
COMMENTS
 10
  0.5000
 20
  8.7186
 30
0.0
 40
  0.0514
 1
4
 0
TEXT
 8
COMMENTS
 10
  1.0000
 20
  8.7186
 30
0.0
 40
  0.0514
 1
5
 0
TEXT
 8
COMMENTS
 10
  1.5000
 20
  8.7186
 30
0.0
 40
  0.0514
 1
6
 0
TEXT
 8
COMMENTS
 10
  0.5000
 20
  8.3186
 30
0.0
 40
  0.0514
 1
7
 0
TEXT
 8
COMMENTS
 10
  1.0000
 20
  8.3186
 30
0.0
 40
  0.0514
 1
8
 0
TEXT
 8
COMMENTS
 10
  1.5000
 20
  8.3186
 30
0.0
 40
  0.0514
 1
9
 0
TEXT
 8
COMMENTS
 10
  0.5000
 20
  7.9186
 30
0.0
 40
  0.0514
 1
10
 0
TEXT
 8
COMMENTS
 10
  1.0000
 20
  7.9186
 30
0.0
 40
  0.0514
 1
11
 0
TEXT
 8
COMMENTS
 10
  1.5000
 20
  7.9186
 30
0.0
 40
  0.0514
 1
12
 0
TEXT
 8
COMMENTS
 10
  0.5000
 20
  7.5186
 30
0.0
 40
  0.0514
 1
13
 0
TEXT
 8
COMMENTS
 10
  1.0000
 20
  7.5186
 30
0.0
 40
  0.0514
 1
14
 0
TEXT
 8
COMMENTS
 10
  1.5000
 20
  7.5186
 30
0.0
 40
  0.0514
 1
15
 0
TEXT
 8
COMMENTS
 10
  2.5000
 20
  9.0186
 30
0.0
 40
  0.0514
 1
3 +Sense (+5V Dig.)
 0
TEXT
 8
COMMENTS
 10
  2.5000
 20
  8.9186
 30
0.0
 40
  0.0514
 1
4 -Sense (+5V Dig.)
 0
TEXT
 8
COMMENTS
 10
  2.5000
 20
  9.1186
 30
0.0
 40
  0.0514
 1
2 Gnd (+5V Dig.)
 0
TEXT
 8
COMMENTS
 10
  2.5000
 20
  9.2186
 30
0.0
 40
  0.0514
 1
1 +5V Dig.
 0
TEXT
 8
COMMENTS
 10
  2.5000
 20
  8.7186
 30
0.0
 40
  0.0514
 1
5 -5.2V Dig.
 0
TEXT
 8
COMMENTS
 10
  2.5000
 20
  8.6186
 30
0.0
 40
  0.0514
 1
6 Gnd (-5.2V Dig.)
 0
TEXT
 8
COMMENTS
 10
  2.5000
 20
  8.5186
 30
0.0
 40
  0.0514
 1
7 -Sense (-5.2V Dig.)
 0
TEXT
 8
COMMENTS
 10
  2.5000
 20
  8.4186
 30
0.0
 40
  0.0514
 1
8 +Sense (-5.2V Dig.)
 0
TEXT
 8
COMMENTS
 10
  2.5000
 20
  8.2186
 30
0.0
 40
  0.0514
 1
9 +12V (fan)
 0
TEXT
 8
COMMENTS
 10
  2.5000
 20
  8.1186
 30
0.0
 40
  0.0514
 1
10 Gnd (+12V)
 0
TEXT
 8
COMMENTS
 10
  0.3000
 20
  9.4186
 30
0.0
 40
  0.0514
 1
AMP MATE-N-LOK II
 0
TEXT
 8
COMMENTS
 10
  2.5000
 20
  7.9186
 30
0.0
 40
  0.0514
 1
11 NC
 0
TEXT
 8
COMMENTS
 10
  2.5000
 20
  7.8186
 30
0.0
 40
  0.0514
 1
12 NC
 0
TEXT
 8
COMMENTS
 10
  2.5000
 20
  7.6186
 30
0.0
 40
  0.0514
 1
13 NC
 0
TEXT
 8
COMMENTS
 10
  2.5000
 20
  7.3186
 30
0.0
 40
  0.0514
 1
15 +15V
 0
TEXT
 8
COMMENTS
 10
  2.5000
 20
  7.4186
 30
0.0
 40
  0.0514
 1
14 Gnd (+15V)
 0
ENDSEC
 0
EOF
