 0
SECTION
 2
HEADER
 9
$ACADVER
 1
AC1009
 0
ENDSEC
 0
SECTION
 2
ENTITIES
 0
POLYLINE
 8
TITLE
 66
1
 70
1
 10
0.0
 20
0.0
 30
0.0
 0
VERTEX
 8
TITLE
 10
 -0.1000
 20
  0.1000
 30
0.0
 0
VERTEX
 8
TITLE
 10
 15.1000
 20
  0.1000
 30
0.0
 0
VERTEX
 8
TITLE
 10
 15.1000
 20
  9.8000
 30
0.0
 0
VERTEX
 8
TITLE
 10
 -0.1000
 20
  9.8000
 30
0.0
 0
SEQEND
 8
TITLE
 0
POLYLINE
 8
TITLE
 66
1
 70
1
 10
0.0
 20
0.0
 30
0.0
 0
VERTEX
 8
TITLE
 10
  0.0000
 20
  0.2000
 30
0.0
 0
VERTEX
 8
TITLE
 10
 15.0000
 20
  0.2000
 30
0.0
 0
VERTEX
 8
TITLE
 10
 15.0000
 20
  9.7000
 30
0.0
 0
VERTEX
 8
TITLE
 10
  0.0000
 20
  9.7000
 30
0.0
 0
SEQEND
 8
TITLE
 0
POLYLINE
 8
TITLE
 66
1
 10
0.0
 20
0.0
 30
0.0
 0
VERTEX
 8
TITLE
 10
  2.0500
 20
  0.2000
 30
0.0
 0
VERTEX
 8
TITLE
 10
  2.0500
 20
  0.1000
 30
0.0
 0
SEQEND
 8
TITLE
 0
POLYLINE
 8
TITLE
 66
1
 10
0.0
 20
0.0
 30
0.0
 0
VERTEX
 8
TITLE
 10
  2.0500
 20
  9.7000
 30
0.0
 0
VERTEX
 8
TITLE
 10
  2.0500
 20
  9.8000
 30
0.0
 0
SEQEND
 8
TITLE
 0
SOLID
 8
TITLE
 10
  7.6000
 20
  0.2000
 30
0.0
 11
  7.5800
 21
  0.1500
 31
0.0
 12
  7.6200
 22
  0.1500
 32
0.0
 13
  7.6000
 23
  0.1500
 33
0.0
 0
SOLID
 8
TITLE
 10
  7.6000
 20
  9.7000
 30
0.0
 11
  7.5800
 21
  9.7500
 31
0.0
 12
  7.6200
 22
  9.7500
 32
0.0
 13
  7.6000
 23
  9.7500
 33
0.0
 0
POLYLINE
 8
TITLE
 66
1
 10
0.0
 20
0.0
 30
0.0
 0
VERTEX
 8
TITLE
 10
  3.9000
 20
  0.2000
 30
0.0
 0
VERTEX
 8
TITLE
 10
  3.9000
 20
  0.1000
 30
0.0
 0
SEQEND
 8
TITLE
 0
POLYLINE
 8
TITLE
 66
1
 10
0.0
 20
0.0
 30
0.0
 0
VERTEX
 8
TITLE
 10
  3.9000
 20
  9.7000
 30
0.0
 0
VERTEX
 8
TITLE
 10
  3.9000
 20
  9.8000
 30
0.0
 0
SEQEND
 8
TITLE
 0
SOLID
 8
TITLE
 10
  7.6000
 20
  0.2000
 30
0.0
 11
  7.5800
 21
  0.1500
 31
0.0
 12
  7.6200
 22
  0.1500
 32
0.0
 13
  7.6000
 23
  0.1500
 33
0.0
 0
SOLID
 8
TITLE
 10
  7.6000
 20
  9.7000
 30
0.0
 11
  7.5800
 21
  9.7500
 31
0.0
 12
  7.6200
 22
  9.7500
 32
0.0
 13
  7.6000
 23
  9.7500
 33
0.0
 0
POLYLINE
 8
TITLE
 66
1
 10
0.0
 20
0.0
 30
0.0
 0
VERTEX
 8
TITLE
 10
  5.7500
 20
  0.2000
 30
0.0
 0
VERTEX
 8
TITLE
 10
  5.7500
 20
  0.1000
 30
0.0
 0
SEQEND
 8
TITLE
 0
POLYLINE
 8
TITLE
 66
1
 10
0.0
 20
0.0
 30
0.0
 0
VERTEX
 8
TITLE
 10
  5.7500
 20
  9.7000
 30
0.0
 0
VERTEX
 8
TITLE
 10
  5.7500
 20
  9.8000
 30
0.0
 0
SEQEND
 8
TITLE
 0
SOLID
 8
TITLE
 10
  7.6000
 20
  0.2000
 30
0.0
 11
  7.5800
 21
  0.1500
 31
0.0
 12
  7.6200
 22
  0.1500
 32
0.0
 13
  7.6000
 23
  0.1500
 33
0.0
 0
SOLID
 8
TITLE
 10
  7.6000
 20
  9.7000
 30
0.0
 11
  7.5800
 21
  9.7500
 31
0.0
 12
  7.6200
 22
  9.7500
 32
0.0
 13
  7.6000
 23
  9.7500
 33
0.0
 0
POLYLINE
 8
TITLE
 66
1
 10
0.0
 20
0.0
 30
0.0
 0
VERTEX
 8
TITLE
 10
  7.6000
 20
  0.2000
 30
0.0
 0
VERTEX
 8
TITLE
 10
  7.6000
 20
  0.1000
 30
0.0
 0
SEQEND
 8
TITLE
 0
POLYLINE
 8
TITLE
 66
1
 10
0.0
 20
0.0
 30
0.0
 0
VERTEX
 8
TITLE
 10
  7.6000
 20
  9.7000
 30
0.0
 0
VERTEX
 8
TITLE
 10
  7.6000
 20
  9.8000
 30
0.0
 0
SEQEND
 8
TITLE
 0
SOLID
 8
TITLE
 10
  7.6000
 20
  0.2000
 30
0.0
 11
  7.5800
 21
  0.1500
 31
0.0
 12
  7.6200
 22
  0.1500
 32
0.0
 13
  7.6000
 23
  0.1500
 33
0.0
 0
SOLID
 8
TITLE
 10
  7.6000
 20
  9.7000
 30
0.0
 11
  7.5800
 21
  9.7500
 31
0.0
 12
  7.6200
 22
  9.7500
 32
0.0
 13
  7.6000
 23
  9.7500
 33
0.0
 0
POLYLINE
 8
TITLE
 66
1
 10
0.0
 20
0.0
 30
0.0
 0
VERTEX
 8
TITLE
 10
  9.4500
 20
  0.2000
 30
0.0
 0
VERTEX
 8
TITLE
 10
  9.4500
 20
  0.1000
 30
0.0
 0
SEQEND
 8
TITLE
 0
POLYLINE
 8
TITLE
 66
1
 10
0.0
 20
0.0
 30
0.0
 0
VERTEX
 8
TITLE
 10
  9.4500
 20
  9.7000
 30
0.0
 0
VERTEX
 8
TITLE
 10
  9.4500
 20
  9.8000
 30
0.0
 0
SEQEND
 8
TITLE
 0
SOLID
 8
TITLE
 10
  7.6000
 20
  0.2000
 30
0.0
 11
  7.5800
 21
  0.1500
 31
0.0
 12
  7.6200
 22
  0.1500
 32
0.0
 13
  7.6000
 23
  0.1500
 33
0.0
 0
SOLID
 8
TITLE
 10
  7.6000
 20
  9.7000
 30
0.0
 11
  7.5800
 21
  9.7500
 31
0.0
 12
  7.6200
 22
  9.7500
 32
0.0
 13
  7.6000
 23
  9.7500
 33
0.0
 0
POLYLINE
 8
TITLE
 66
1
 10
0.0
 20
0.0
 30
0.0
 0
VERTEX
 8
TITLE
 10
 11.3000
 20
  0.2000
 30
0.0
 0
VERTEX
 8
TITLE
 10
 11.3000
 20
  0.1000
 30
0.0
 0
SEQEND
 8
TITLE
 0
POLYLINE
 8
TITLE
 66
1
 10
0.0
 20
0.0
 30
0.0
 0
VERTEX
 8
TITLE
 10
 11.3000
 20
  9.7000
 30
0.0
 0
VERTEX
 8
TITLE
 10
 11.3000
 20
  9.8000
 30
0.0
 0
SEQEND
 8
TITLE
 0
SOLID
 8
TITLE
 10
  7.6000
 20
  0.2000
 30
0.0
 11
  7.5800
 21
  0.1500
 31
0.0
 12
  7.6200
 22
  0.1500
 32
0.0
 13
  7.6000
 23
  0.1500
 33
0.0
 0
SOLID
 8
TITLE
 10
  7.6000
 20
  9.7000
 30
0.0
 11
  7.5800
 21
  9.7500
 31
0.0
 12
  7.6200
 22
  9.7500
 32
0.0
 13
  7.6000
 23
  9.7500
 33
0.0
 0
POLYLINE
 8
TITLE
 66
1
 10
0.0
 20
0.0
 30
0.0
 0
VERTEX
 8
TITLE
 10
 13.1500
 20
  0.2000
 30
0.0
 0
VERTEX
 8
TITLE
 10
 13.1500
 20
  0.1000
 30
0.0
 0
SEQEND
 8
TITLE
 0
POLYLINE
 8
TITLE
 66
1
 10
0.0
 20
0.0
 30
0.0
 0
VERTEX
 8
TITLE
 10
 13.1500
 20
  9.7000
 30
0.0
 0
VERTEX
 8
TITLE
 10
 13.1500
 20
  9.8000
 30
0.0
 0
SEQEND
 8
TITLE
 0
SOLID
 8
TITLE
 10
  7.6000
 20
  0.2000
 30
0.0
 11
  7.5800
 21
  0.1500
 31
0.0
 12
  7.6200
 22
  0.1500
 32
0.0
 13
  7.6000
 23
  0.1500
 33
0.0
 0
SOLID
 8
TITLE
 10
  7.6000
 20
  9.7000
 30
0.0
 11
  7.5800
 21
  9.7500
 31
0.0
 12
  7.6200
 22
  9.7500
 32
0.0
 13
  7.6000
 23
  9.7500
 33
0.0
 0
TEXT
 8
TITLE
 10
  1.1200
 20
  0.1200
 30
0.0
 40
  0.0500
 1
8
 0
TEXT
 8
TITLE
 10
  1.1200
 20
  9.7200
 30
0.0
 40
  0.0500
 1
8
 0
TEXT
 8
TITLE
 10
  2.9700
 20
  0.1200
 30
0.0
 40
  0.0500
 1
7
 0
TEXT
 8
TITLE
 10
  2.9700
 20
  9.7200
 30
0.0
 40
  0.0500
 1
7
 0
TEXT
 8
TITLE
 10
  4.8200
 20
  0.1200
 30
0.0
 40
  0.0500
 1
6
 0
TEXT
 8
TITLE
 10
  4.8200
 20
  9.7200
 30
0.0
 40
  0.0500
 1
6
 0
TEXT
 8
TITLE
 10
  6.6700
 20
  0.1200
 30
0.0
 40
  0.0500
 1
5
 0
TEXT
 8
TITLE
 10
  6.6700
 20
  9.7200
 30
0.0
 40
  0.0500
 1
5
 0
TEXT
 8
TITLE
 10
  8.5200
 20
  0.1200
 30
0.0
 40
  0.0500
 1
4
 0
TEXT
 8
TITLE
 10
  8.5200
 20
  9.7200
 30
0.0
 40
  0.0500
 1
4
 0
TEXT
 8
TITLE
 10
 10.3700
 20
  0.1200
 30
0.0
 40
  0.0500
 1
3
 0
TEXT
 8
TITLE
 10
 10.3700
 20
  9.7200
 30
0.0
 40
  0.0500
 1
3
 0
TEXT
 8
TITLE
 10
 12.2200
 20
  0.1200
 30
0.0
 40
  0.0500
 1
2
 0
TEXT
 8
TITLE
 10
 12.2200
 20
  9.7200
 30
0.0
 40
  0.0500
 1
2
 0
TEXT
 8
TITLE
 10
 14.0700
 20
  0.1200
 30
0.0
 40
  0.0500
 1
1
 0
TEXT
 8
TITLE
 10
 14.0700
 20
  9.7200
 30
0.0
 40
  0.0500
 1
1
 0
POLYLINE
 8
TITLE
 66
1
 10
0.0
 20
0.0
 30
0.0
 0
VERTEX
 8
TITLE
 10
 -0.1000
 20
  7.1800
 30
0.0
 0
VERTEX
 8
TITLE
 10
  0.0000
 20
  7.1800
 30
0.0
 0
SEQEND
 8
TITLE
 0
POLYLINE
 8
TITLE
 66
1
 10
0.0
 20
0.0
 30
0.0
 0
VERTEX
 8
TITLE
 10
 15.0000
 20
  7.1800
 30
0.0
 0
VERTEX
 8
TITLE
 10
 15.1000
 20
  7.1800
 30
0.0
 0
SEQEND
 8
TITLE
 0
SOLID
 8
TITLE
 10
  0.0000
 20
  4.8600
 30
0.0
 11
 -0.0500
 21
  4.8800
 31
0.0
 12
 -0.0500
 22
  4.8400
 32
0.0
 13
 -0.0500
 23
  4.8600
 33
0.0
 0
SOLID
 8
TITLE
 10
 15.0000
 20
  4.8600
 30
0.0
 11
 15.0500
 21
  4.8800
 31
0.0
 12
 15.0500
 22
  4.8400
 32
0.0
 13
 15.0500
 23
  4.8600
 33
0.0
 0
POLYLINE
 8
TITLE
 66
1
 10
0.0
 20
0.0
 30
0.0
 0
VERTEX
 8
TITLE
 10
 -0.1000
 20
  4.8600
 30
0.0
 0
VERTEX
 8
TITLE
 10
  0.0000
 20
  4.8600
 30
0.0
 0
SEQEND
 8
TITLE
 0
POLYLINE
 8
TITLE
 66
1
 10
0.0
 20
0.0
 30
0.0
 0
VERTEX
 8
TITLE
 10
 15.0000
 20
  4.8600
 30
0.0
 0
VERTEX
 8
TITLE
 10
 15.1000
 20
  4.8600
 30
0.0
 0
SEQEND
 8
TITLE
 0
SOLID
 8
TITLE
 10
  0.0000
 20
  4.8600
 30
0.0
 11
 -0.0500
 21
  4.8800
 31
0.0
 12
 -0.0500
 22
  4.8400
 32
0.0
 13
 -0.0500
 23
  4.8600
 33
0.0
 0
SOLID
 8
TITLE
 10
 15.0000
 20
  4.8600
 30
0.0
 11
 15.0500
 21
  4.8800
 31
0.0
 12
 15.0500
 22
  4.8400
 32
0.0
 13
 15.0500
 23
  4.8600
 33
0.0
 0
POLYLINE
 8
TITLE
 66
1
 10
0.0
 20
0.0
 30
0.0
 0
VERTEX
 8
TITLE
 10
 -0.1000
 20
  2.5400
 30
0.0
 0
VERTEX
 8
TITLE
 10
  0.0000
 20
  2.5400
 30
0.0
 0
SEQEND
 8
TITLE
 0
POLYLINE
 8
TITLE
 66
1
 10
0.0
 20
0.0
 30
0.0
 0
VERTEX
 8
TITLE
 10
 15.0000
 20
  2.5400
 30
0.0
 0
VERTEX
 8
TITLE
 10
 15.1000
 20
  2.5400
 30
0.0
 0
SEQEND
 8
TITLE
 0
SOLID
 8
TITLE
 10
  0.0000
 20
  4.8600
 30
0.0
 11
 -0.0500
 21
  4.8800
 31
0.0
 12
 -0.0500
 22
  4.8400
 32
0.0
 13
 -0.0500
 23
  4.8600
 33
0.0
 0
SOLID
 8
TITLE
 10
 15.0000
 20
  4.8600
 30
0.0
 11
 15.0500
 21
  4.8800
 31
0.0
 12
 15.0500
 22
  4.8400
 32
0.0
 13
 15.0500
 23
  4.8600
 33
0.0
 0
TEXT
 8
TITLE
 10
 -0.0800
 20
  8.3400
 30
0.0
 40
  0.0500
 1
D
 0
TEXT
 8
TITLE
 10
 15.0200
 20
  8.3400
 30
0.0
 40
  0.0500
 1
D
 0
TEXT
 8
TITLE
 10
 -0.0800
 20
  6.0200
 30
0.0
 40
  0.0500
 1
C
 0
TEXT
 8
TITLE
 10
 15.0200
 20
  6.0200
 30
0.0
 40
  0.0500
 1
C
 0
TEXT
 8
TITLE
 10
 -0.0800
 20
  3.7000
 30
0.0
 40
  0.0500
 1
B
 0
TEXT
 8
TITLE
 10
 15.0200
 20
  3.7000
 30
0.0
 40
  0.0500
 1
B
 0
TEXT
 8
TITLE
 10
 -0.0800
 20
  1.3800
 30
0.0
 40
  0.0500
 1
A
 0
TEXT
 8
TITLE
 10
 15.0200
 20
  1.3800
 30
0.0
 40
  0.0500
 1
A
 0
TEXT
 8
TITLE
 10
 11.7000
 20
  0.4186
 30
0.0
 40
  0.0514
 1
IPACK BOARD
 0
TEXT
 8
TITLE
 10
 14.6700
 20
  0.3986
 30
0.0
 40
  0.0514
 1
0
 0
TEXT
 8
TITLE
 10
 11.7000
 20
  0.7186
 30
0.0
 40
  0.0514
 1
DDS CONTROLLER
 0
TEXT
 8
TITLE
 10
 11.3000
 20
  1.3186
 30
0.0
 40
  0.0514
 1
ARECIBO OBSERVATORY
 0
TEXT
 8
TITLE
 10
 11.3000
 20
  1.1186
 30
0.0
 40
  0.0514
 1
BY : BILL SISK
 0
TEXT
 8
TITLE
 10
 11.3000
 20
  1.0186
 30
0.0
 40
  0.0514
 1
FILE : DDS1.SCH
 0
TEXT
 8
TITLE
 10
 11.4000
 20
  0.4186
 30
0.0
 40
  0.0514
 1
B
 0
TEXT
 8
TITLE
 10
 13.8000
 20
  0.2186
 30
0.0
 40
  0.0514
 1
1
 0
TEXT
 8
TITLE
 10
 14.4000
 20
  0.2186
 30
0.0
 40
  0.0514
 1
1
 0
TEXT
 8
TITLE
 10
 11.7100
 20
  0.2186
 30
0.0
 40
  0.0514
 1
Wednesday, December 10, 2003
 0
TEXT
 8
PARTTEXT
 10
 11.3000
 20
  0.8186
 30
0.0
 40
  0.0514
 1
Title
 0
TEXT
 8
PARTTEXT
 10
 11.3000
 20
  0.5186
 30
0.0
 40
  0.0514
 1
Size
 0
TEXT
 8
PARTTEXT
 10
 11.7000
 20
  0.5186
 30
0.0
 40
  0.0514
 1
Document Number
 0
TEXT
 8
PARTTEXT
 10
 14.6000
 20
  0.5186
 30
0.0
 40
  0.0514
 1
Rev
 0
TEXT
 8
PARTTEXT
 10
 11.3000
 20
  0.2186
 30
0.0
 40
  0.0514
 1
Date:
 0
TEXT
 8
PARTTEXT
 10
 13.3000
 20
  0.2186
 30
0.0
 40
  0.0514
 1
Sheet
 0
POLYLINE
 8
TITLE
 66
1
 70
1
 10
0.0
 20
0.0
 30
0.0
 0
VERTEX
 8
TITLE
 10
 11.3000
 20
  1.4000
 30
0.0
 0
VERTEX
 8
TITLE
 10
 14.9000
 20
  1.4000
 30
0.0
 0
VERTEX
 8
TITLE
 10
 14.9000
 20
  0.9000
 30
0.0
 0
VERTEX
 8
TITLE
 10
 11.3000
 20
  0.9000
 30
0.0
 0
SEQEND
 8
TITLE
 0
POLYLINE
 8
TITLE
 66
1
 70
1
 10
0.0
 20
0.0
 30
0.0
 0
VERTEX
 8
TITLE
 10
 11.3000
 20
  0.9000
 30
0.0
 0
VERTEX
 8
TITLE
 10
 14.9000
 20
  0.9000
 30
0.0
 0
VERTEX
 8
TITLE
 10
 14.9000
 20
  0.6000
 30
0.0
 0
VERTEX
 8
TITLE
 10
 11.3000
 20
  0.6000
 30
0.0
 0
SEQEND
 8
TITLE
 0
POLYLINE
 8
TITLE
 66
1
 70
1
 10
0.0
 20
0.0
 30
0.0
 0
VERTEX
 8
TITLE
 10
 11.3000
 20
  0.6000
 30
0.0
 0
VERTEX
 8
TITLE
 10
 11.6000
 20
  0.6000
 30
0.0
 0
VERTEX
 8
TITLE
 10
 11.6000
 20
  0.3000
 30
0.0
 0
VERTEX
 8
TITLE
 10
 11.3000
 20
  0.3000
 30
0.0
 0
SEQEND
 8
TITLE
 0
POLYLINE
 8
TITLE
 66
1
 70
1
 10
0.0
 20
0.0
 30
0.0
 0
VERTEX
 8
TITLE
 10
 11.6000
 20
  0.6000
 30
0.0
 0
VERTEX
 8
TITLE
 10
 14.6000
 20
  0.6000
 30
0.0
 0
VERTEX
 8
TITLE
 10
 14.6000
 20
  0.3000
 30
0.0
 0
VERTEX
 8
TITLE
 10
 11.6000
 20
  0.3000
 30
0.0
 0
SEQEND
 8
TITLE
 0
POLYLINE
 8
TITLE
 66
1
 70
1
 10
0.0
 20
0.0
 30
0.0
 0
VERTEX
 8
TITLE
 10
 14.6000
 20
  0.6000
 30
0.0
 0
VERTEX
 8
TITLE
 10
 14.9000
 20
  0.6000
 30
0.0
 0
VERTEX
 8
TITLE
 10
 14.9000
 20
  0.3000
 30
0.0
 0
VERTEX
 8
TITLE
 10
 14.6000
 20
  0.3000
 30
0.0
 0
SEQEND
 8
TITLE
 0
POLYLINE
 8
TITLE
 66
1
 70
1
 10
0.0
 20
0.0
 30
0.0
 0
VERTEX
 8
TITLE
 10
 11.3000
 20
  0.3000
 30
0.0
 0
VERTEX
 8
TITLE
 10
 13.3000
 20
  0.3000
 30
0.0
 0
VERTEX
 8
TITLE
 10
 13.3000
 20
  0.2000
 30
0.0
 0
VERTEX
 8
TITLE
 10
 11.3000
 20
  0.2000
 30
0.0
 0
SEQEND
 8
TITLE
 0
POLYLINE
 8
TITLE
 66
1
 70
1
 10
0.0
 20
0.0
 30
0.0
 0
VERTEX
 8
TITLE
 10
 13.3000
 20
  0.3000
 30
0.0
 0
VERTEX
 8
TITLE
 10
 14.9000
 20
  0.3000
 30
0.0
 0
VERTEX
 8
TITLE
 10
 14.9000
 20
  0.2000
 30
0.0
 0
VERTEX
 8
TITLE
 10
 13.3000
 20
  0.2000
 30
0.0
 0
SEQEND
 8
TITLE
 0
TEXT
 8
PARTTEXT
 10
 14.1000
 20
  0.2186
 30
0.0
 40
  0.0514
 1
of
 0
TEXT
 8
PARTTEXT
 10
  1.9500
 20
  6.5086
 30
0.0
 40
  0.0514
 1
J1
 0
TEXT
 8
PARTTEXT
 10
  1.9500
 20
  1.3086
 30
0.0
 40
  0.0514
 1
CON50
 0
LINE
 8
PARTS
 10
  1.6000
 20
  6.4000
 30
0.0
 11
  1.9000
 21
  6.4000
 31
0.0
 0
TEXT
 8
PARTS
 10
  1.9900
 20
  6.3750
 30
0.0
 40
  0.0500
 1
1
 0
TEXT
 8
PARTS
 10
  1.8000
 20
  6.4300
 30
0.0
 40
  0.0500
 1
1
 0
LINE
 8
PARTS
 10
  1.6000
 20
  6.3000
 30
0.0
 11
  1.9000
 21
  6.3000
 31
0.0
 0
TEXT
 8
PARTS
 10
  1.9900
 20
  6.2750
 30
0.0
 40
  0.0500
 1
2
 0
TEXT
 8
PARTS
 10
  1.8000
 20
  6.3300
 30
0.0
 40
  0.0500
 1
2
 0
LINE
 8
PARTS
 10
  1.6000
 20
  6.2000
 30
0.0
 11
  1.9000
 21
  6.2000
 31
0.0
 0
TEXT
 8
PARTS
 10
  1.9900
 20
  6.1750
 30
0.0
 40
  0.0500
 1
3
 0
TEXT
 8
PARTS
 10
  1.8000
 20
  6.2300
 30
0.0
 40
  0.0500
 1
3
 0
LINE
 8
PARTS
 10
  1.6000
 20
  6.1000
 30
0.0
 11
  1.9000
 21
  6.1000
 31
0.0
 0
TEXT
 8
PARTS
 10
  1.9900
 20
  6.0750
 30
0.0
 40
  0.0500
 1
4
 0
TEXT
 8
PARTS
 10
  1.8000
 20
  6.1300
 30
0.0
 40
  0.0500
 1
4
 0
LINE
 8
PARTS
 10
  1.6000
 20
  6.0000
 30
0.0
 11
  1.9000
 21
  6.0000
 31
0.0
 0
TEXT
 8
PARTS
 10
  1.9900
 20
  5.9750
 30
0.0
 40
  0.0500
 1
5
 0
TEXT
 8
PARTS
 10
  1.8000
 20
  6.0300
 30
0.0
 40
  0.0500
 1
5
 0
LINE
 8
PARTS
 10
  1.6000
 20
  5.9000
 30
0.0
 11
  1.9000
 21
  5.9000
 31
0.0
 0
TEXT
 8
PARTS
 10
  1.9900
 20
  5.8750
 30
0.0
 40
  0.0500
 1
6
 0
TEXT
 8
PARTS
 10
  1.8000
 20
  5.9300
 30
0.0
 40
  0.0500
 1
6
 0
LINE
 8
PARTS
 10
  1.6000
 20
  5.8000
 30
0.0
 11
  1.9000
 21
  5.8000
 31
0.0
 0
TEXT
 8
PARTS
 10
  1.9900
 20
  5.7750
 30
0.0
 40
  0.0500
 1
7
 0
TEXT
 8
PARTS
 10
  1.8000
 20
  5.8300
 30
0.0
 40
  0.0500
 1
7
 0
LINE
 8
PARTS
 10
  1.6000
 20
  5.7000
 30
0.0
 11
  1.9000
 21
  5.7000
 31
0.0
 0
TEXT
 8
PARTS
 10
  1.9900
 20
  5.6750
 30
0.0
 40
  0.0500
 1
8
 0
TEXT
 8
PARTS
 10
  1.8000
 20
  5.7300
 30
0.0
 40
  0.0500
 1
8
 0
LINE
 8
PARTS
 10
  1.6000
 20
  5.6000
 30
0.0
 11
  1.9000
 21
  5.6000
 31
0.0
 0
TEXT
 8
PARTS
 10
  1.9900
 20
  5.5750
 30
0.0
 40
  0.0500
 1
9
 0
TEXT
 8
PARTS
 10
  1.8000
 20
  5.6300
 30
0.0
 40
  0.0500
 1
9
 0
LINE
 8
PARTS
 10
  1.6000
 20
  5.5000
 30
0.0
 11
  1.9000
 21
  5.5000
 31
0.0
 0
TEXT
 8
PARTS
 10
  1.9900
 20
  5.4750
 30
0.0
 40
  0.0500
 1
10
 0
TEXT
 8
PARTS
 10
  1.7600
 20
  5.5300
 30
0.0
 40
  0.0500
 1
10
 0
LINE
 8
PARTS
 10
  1.6000
 20
  5.4000
 30
0.0
 11
  1.9000
 21
  5.4000
 31
0.0
 0
TEXT
 8
PARTS
 10
  1.9900
 20
  5.3750
 30
0.0
 40
  0.0500
 1
11
 0
TEXT
 8
PARTS
 10
  1.7600
 20
  5.4300
 30
0.0
 40
  0.0500
 1
11
 0
LINE
 8
PARTS
 10
  1.6000
 20
  5.3000
 30
0.0
 11
  1.9000
 21
  5.3000
 31
0.0
 0
TEXT
 8
PARTS
 10
  1.9900
 20
  5.2750
 30
0.0
 40
  0.0500
 1
12
 0
TEXT
 8
PARTS
 10
  1.7600
 20
  5.3300
 30
0.0
 40
  0.0500
 1
12
 0
LINE
 8
PARTS
 10
  1.6000
 20
  5.2000
 30
0.0
 11
  1.9000
 21
  5.2000
 31
0.0
 0
TEXT
 8
PARTS
 10
  1.9900
 20
  5.1750
 30
0.0
 40
  0.0500
 1
13
 0
TEXT
 8
PARTS
 10
  1.7600
 20
  5.2300
 30
0.0
 40
  0.0500
 1
13
 0
LINE
 8
PARTS
 10
  1.6000
 20
  5.1000
 30
0.0
 11
  1.9000
 21
  5.1000
 31
0.0
 0
TEXT
 8
PARTS
 10
  1.9900
 20
  5.0750
 30
0.0
 40
  0.0500
 1
14
 0
TEXT
 8
PARTS
 10
  1.7600
 20
  5.1300
 30
0.0
 40
  0.0500
 1
14
 0
LINE
 8
PARTS
 10
  1.6000
 20
  5.0000
 30
0.0
 11
  1.9000
 21
  5.0000
 31
0.0
 0
TEXT
 8
PARTS
 10
  1.9900
 20
  4.9750
 30
0.0
 40
  0.0500
 1
15
 0
TEXT
 8
PARTS
 10
  1.7600
 20
  5.0300
 30
0.0
 40
  0.0500
 1
15
 0
LINE
 8
PARTS
 10
  1.6000
 20
  4.9000
 30
0.0
 11
  1.9000
 21
  4.9000
 31
0.0
 0
TEXT
 8
PARTS
 10
  1.9900
 20
  4.8750
 30
0.0
 40
  0.0500
 1
16
 0
TEXT
 8
PARTS
 10
  1.7600
 20
  4.9300
 30
0.0
 40
  0.0500
 1
16
 0
LINE
 8
PARTS
 10
  1.6000
 20
  4.8000
 30
0.0
 11
  1.9000
 21
  4.8000
 31
0.0
 0
TEXT
 8
PARTS
 10
  1.9900
 20
  4.7750
 30
0.0
 40
  0.0500
 1
17
 0
TEXT
 8
PARTS
 10
  1.7600
 20
  4.8300
 30
0.0
 40
  0.0500
 1
17
 0
LINE
 8
PARTS
 10
  1.6000
 20
  4.7000
 30
0.0
 11
  1.9000
 21
  4.7000
 31
0.0
 0
TEXT
 8
PARTS
 10
  1.9900
 20
  4.6750
 30
0.0
 40
  0.0500
 1
18
 0
TEXT
 8
PARTS
 10
  1.7600
 20
  4.7300
 30
0.0
 40
  0.0500
 1
18
 0
LINE
 8
PARTS
 10
  1.6000
 20
  4.6000
 30
0.0
 11
  1.9000
 21
  4.6000
 31
0.0
 0
TEXT
 8
PARTS
 10
  1.9900
 20
  4.5750
 30
0.0
 40
  0.0500
 1
19
 0
TEXT
 8
PARTS
 10
  1.7600
 20
  4.6300
 30
0.0
 40
  0.0500
 1
19
 0
LINE
 8
PARTS
 10
  1.6000
 20
  4.5000
 30
0.0
 11
  1.9000
 21
  4.5000
 31
0.0
 0
TEXT
 8
PARTS
 10
  1.9900
 20
  4.4750
 30
0.0
 40
  0.0500
 1
20
 0
TEXT
 8
PARTS
 10
  1.7600
 20
  4.5300
 30
0.0
 40
  0.0500
 1
20
 0
LINE
 8
PARTS
 10
  1.6000
 20
  4.4000
 30
0.0
 11
  1.9000
 21
  4.4000
 31
0.0
 0
TEXT
 8
PARTS
 10
  1.9900
 20
  4.3750
 30
0.0
 40
  0.0500
 1
21
 0
TEXT
 8
PARTS
 10
  1.7600
 20
  4.4300
 30
0.0
 40
  0.0500
 1
21
 0
LINE
 8
PARTS
 10
  1.6000
 20
  4.3000
 30
0.0
 11
  1.9000
 21
  4.3000
 31
0.0
 0
TEXT
 8
PARTS
 10
  1.9900
 20
  4.2750
 30
0.0
 40
  0.0500
 1
22
 0
TEXT
 8
PARTS
 10
  1.7600
 20
  4.3300
 30
0.0
 40
  0.0500
 1
22
 0
LINE
 8
PARTS
 10
  1.6000
 20
  4.2000
 30
0.0
 11
  1.9000
 21
  4.2000
 31
0.0
 0
TEXT
 8
PARTS
 10
  1.9900
 20
  4.1750
 30
0.0
 40
  0.0500
 1
23
 0
TEXT
 8
PARTS
 10
  1.7600
 20
  4.2300
 30
0.0
 40
  0.0500
 1
23
 0
LINE
 8
PARTS
 10
  1.6000
 20
  4.1000
 30
0.0
 11
  1.9000
 21
  4.1000
 31
0.0
 0
TEXT
 8
PARTS
 10
  1.9900
 20
  4.0750
 30
0.0
 40
  0.0500
 1
24
 0
TEXT
 8
PARTS
 10
  1.7600
 20
  4.1300
 30
0.0
 40
  0.0500
 1
24
 0
LINE
 8
PARTS
 10
  1.6000
 20
  4.0000
 30
0.0
 11
  1.9000
 21
  4.0000
 31
0.0
 0
TEXT
 8
PARTS
 10
  1.9900
 20
  3.9750
 30
0.0
 40
  0.0500
 1
25
 0
TEXT
 8
PARTS
 10
  1.7600
 20
  4.0300
 30
0.0
 40
  0.0500
 1
25
 0
LINE
 8
PARTS
 10
  1.6000
 20
  3.9000
 30
0.0
 11
  1.9000
 21
  3.9000
 31
0.0
 0
TEXT
 8
PARTS
 10
  1.9900
 20
  3.8750
 30
0.0
 40
  0.0500
 1
26
 0
TEXT
 8
PARTS
 10
  1.7600
 20
  3.9300
 30
0.0
 40
  0.0500
 1
26
 0
LINE
 8
PARTS
 10
  1.6000
 20
  3.8000
 30
0.0
 11
  1.9000
 21
  3.8000
 31
0.0
 0
TEXT
 8
PARTS
 10
  1.9900
 20
  3.7750
 30
0.0
 40
  0.0500
 1
27
 0
TEXT
 8
PARTS
 10
  1.7600
 20
  3.8300
 30
0.0
 40
  0.0500
 1
27
 0
LINE
 8
PARTS
 10
  1.6000
 20
  3.7000
 30
0.0
 11
  1.9000
 21
  3.7000
 31
0.0
 0
TEXT
 8
PARTS
 10
  1.9900
 20
  3.6750
 30
0.0
 40
  0.0500
 1
28
 0
TEXT
 8
PARTS
 10
  1.7600
 20
  3.7300
 30
0.0
 40
  0.0500
 1
28
 0
LINE
 8
PARTS
 10
  1.6000
 20
  3.6000
 30
0.0
 11
  1.9000
 21
  3.6000
 31
0.0
 0
TEXT
 8
PARTS
 10
  1.9900
 20
  3.5750
 30
0.0
 40
  0.0500
 1
29
 0
TEXT
 8
PARTS
 10
  1.7600
 20
  3.6300
 30
0.0
 40
  0.0500
 1
29
 0
LINE
 8
PARTS
 10
  1.6000
 20
  3.5000
 30
0.0
 11
  1.9000
 21
  3.5000
 31
0.0
 0
TEXT
 8
PARTS
 10
  1.9900
 20
  3.4750
 30
0.0
 40
  0.0500
 1
30
 0
TEXT
 8
PARTS
 10
  1.7600
 20
  3.5300
 30
0.0
 40
  0.0500
 1
30
 0
LINE
 8
PARTS
 10
  1.6000
 20
  3.4000
 30
0.0
 11
  1.9000
 21
  3.4000
 31
0.0
 0
TEXT
 8
PARTS
 10
  1.9900
 20
  3.3750
 30
0.0
 40
  0.0500
 1
31
 0
TEXT
 8
PARTS
 10
  1.7600
 20
  3.4300
 30
0.0
 40
  0.0500
 1
31
 0
LINE
 8
PARTS
 10
  1.6000
 20
  3.3000
 30
0.0
 11
  1.9000
 21
  3.3000
 31
0.0
 0
TEXT
 8
PARTS
 10
  1.9900
 20
  3.2750
 30
0.0
 40
  0.0500
 1
32
 0
TEXT
 8
PARTS
 10
  1.7600
 20
  3.3300
 30
0.0
 40
  0.0500
 1
32
 0
LINE
 8
PARTS
 10
  1.6000
 20
  3.2000
 30
0.0
 11
  1.9000
 21
  3.2000
 31
0.0
 0
TEXT
 8
PARTS
 10
  1.9900
 20
  3.1750
 30
0.0
 40
  0.0500
 1
33
 0
TEXT
 8
PARTS
 10
  1.7600
 20
  3.2300
 30
0.0
 40
  0.0500
 1
33
 0
LINE
 8
PARTS
 10
  1.6000
 20
  3.1000
 30
0.0
 11
  1.9000
 21
  3.1000
 31
0.0
 0
TEXT
 8
PARTS
 10
  1.9900
 20
  3.0750
 30
0.0
 40
  0.0500
 1
34
 0
TEXT
 8
PARTS
 10
  1.7600
 20
  3.1300
 30
0.0
 40
  0.0500
 1
34
 0
LINE
 8
PARTS
 10
  1.6000
 20
  3.0000
 30
0.0
 11
  1.9000
 21
  3.0000
 31
0.0
 0
TEXT
 8
PARTS
 10
  1.9900
 20
  2.9750
 30
0.0
 40
  0.0500
 1
35
 0
TEXT
 8
PARTS
 10
  1.7600
 20
  3.0300
 30
0.0
 40
  0.0500
 1
35
 0
LINE
 8
PARTS
 10
  1.6000
 20
  2.9000
 30
0.0
 11
  1.9000
 21
  2.9000
 31
0.0
 0
TEXT
 8
PARTS
 10
  1.9900
 20
  2.8750
 30
0.0
 40
  0.0500
 1
36
 0
TEXT
 8
PARTS
 10
  1.7600
 20
  2.9300
 30
0.0
 40
  0.0500
 1
36
 0
LINE
 8
PARTS
 10
  1.6000
 20
  2.8000
 30
0.0
 11
  1.9000
 21
  2.8000
 31
0.0
 0
TEXT
 8
PARTS
 10
  1.9900
 20
  2.7750
 30
0.0
 40
  0.0500
 1
37
 0
TEXT
 8
PARTS
 10
  1.7600
 20
  2.8300
 30
0.0
 40
  0.0500
 1
37
 0
LINE
 8
PARTS
 10
  1.6000
 20
  2.7000
 30
0.0
 11
  1.9000
 21
  2.7000
 31
0.0
 0
TEXT
 8
PARTS
 10
  1.9900
 20
  2.6750
 30
0.0
 40
  0.0500
 1
38
 0
TEXT
 8
PARTS
 10
  1.7600
 20
  2.7300
 30
0.0
 40
  0.0500
 1
38
 0
LINE
 8
PARTS
 10
  1.6000
 20
  2.6000
 30
0.0
 11
  1.9000
 21
  2.6000
 31
0.0
 0
TEXT
 8
PARTS
 10
  1.9900
 20
  2.5750
 30
0.0
 40
  0.0500
 1
39
 0
TEXT
 8
PARTS
 10
  1.7600
 20
  2.6300
 30
0.0
 40
  0.0500
 1
39
 0
LINE
 8
PARTS
 10
  1.6000
 20
  2.5000
 30
0.0
 11
  1.9000
 21
  2.5000
 31
0.0
 0
TEXT
 8
PARTS
 10
  1.9900
 20
  2.4750
 30
0.0
 40
  0.0500
 1
40
 0
TEXT
 8
PARTS
 10
  1.7600
 20
  2.5300
 30
0.0
 40
  0.0500
 1
40
 0
LINE
 8
PARTS
 10
  1.6000
 20
  2.4000
 30
0.0
 11
  1.9000
 21
  2.4000
 31
0.0
 0
TEXT
 8
PARTS
 10
  1.9900
 20
  2.3750
 30
0.0
 40
  0.0500
 1
41
 0
TEXT
 8
PARTS
 10
  1.7600
 20
  2.4300
 30
0.0
 40
  0.0500
 1
41
 0
LINE
 8
PARTS
 10
  1.6000
 20
  2.3000
 30
0.0
 11
  1.9000
 21
  2.3000
 31
0.0
 0
TEXT
 8
PARTS
 10
  1.9900
 20
  2.2750
 30
0.0
 40
  0.0500
 1
42
 0
TEXT
 8
PARTS
 10
  1.7600
 20
  2.3300
 30
0.0
 40
  0.0500
 1
42
 0
LINE
 8
PARTS
 10
  1.6000
 20
  2.2000
 30
0.0
 11
  1.9000
 21
  2.2000
 31
0.0
 0
TEXT
 8
PARTS
 10
  1.9900
 20
  2.1750
 30
0.0
 40
  0.0500
 1
43
 0
TEXT
 8
PARTS
 10
  1.7600
 20
  2.2300
 30
0.0
 40
  0.0500
 1
43
 0
LINE
 8
PARTS
 10
  1.6000
 20
  2.1000
 30
0.0
 11
  1.9000
 21
  2.1000
 31
0.0
 0
TEXT
 8
PARTS
 10
  1.9900
 20
  2.0750
 30
0.0
 40
  0.0500
 1
44
 0
TEXT
 8
PARTS
 10
  1.7600
 20
  2.1300
 30
0.0
 40
  0.0500
 1
44
 0
LINE
 8
PARTS
 10
  1.6000
 20
  2.0000
 30
0.0
 11
  1.9000
 21
  2.0000
 31
0.0
 0
TEXT
 8
PARTS
 10
  1.9900
 20
  1.9750
 30
0.0
 40
  0.0500
 1
45
 0
TEXT
 8
PARTS
 10
  1.7600
 20
  2.0300
 30
0.0
 40
  0.0500
 1
45
 0
LINE
 8
PARTS
 10
  1.6000
 20
  1.9000
 30
0.0
 11
  1.9000
 21
  1.9000
 31
0.0
 0
TEXT
 8
PARTS
 10
  1.9900
 20
  1.8750
 30
0.0
 40
  0.0500
 1
46
 0
TEXT
 8
PARTS
 10
  1.7600
 20
  1.9300
 30
0.0
 40
  0.0500
 1
46
 0
LINE
 8
PARTS
 10
  1.6000
 20
  1.8000
 30
0.0
 11
  1.9000
 21
  1.8000
 31
0.0
 0
TEXT
 8
PARTS
 10
  1.9900
 20
  1.7750
 30
0.0
 40
  0.0500
 1
47
 0
TEXT
 8
PARTS
 10
  1.7600
 20
  1.8300
 30
0.0
 40
  0.0500
 1
47
 0
LINE
 8
PARTS
 10
  1.6000
 20
  1.7000
 30
0.0
 11
  1.9000
 21
  1.7000
 31
0.0
 0
TEXT
 8
PARTS
 10
  1.9900
 20
  1.6750
 30
0.0
 40
  0.0500
 1
48
 0
TEXT
 8
PARTS
 10
  1.7600
 20
  1.7300
 30
0.0
 40
  0.0500
 1
48
 0
LINE
 8
PARTS
 10
  1.6000
 20
  1.6000
 30
0.0
 11
  1.9000
 21
  1.6000
 31
0.0
 0
TEXT
 8
PARTS
 10
  1.9900
 20
  1.5750
 30
0.0
 40
  0.0500
 1
49
 0
TEXT
 8
PARTS
 10
  1.7600
 20
  1.6300
 30
0.0
 40
  0.0500
 1
49
 0
LINE
 8
PARTS
 10
  1.6000
 20
  1.5000
 30
0.0
 11
  1.9000
 21
  1.5000
 31
0.0
 0
TEXT
 8
PARTS
 10
  1.9900
 20
  1.4750
 30
0.0
 40
  0.0500
 1
50
 0
TEXT
 8
PARTS
 10
  1.7600
 20
  1.5300
 30
0.0
 40
  0.0500
 1
50
 0
POLYLINE
 8
PARTS
 66
1
 70
1
 10
0.0
 20
0.0
 30
0.0
 0
VERTEX
 8
PARTS
 10
  1.9000
 20
  6.5000
 30
0.0
 0
VERTEX
 8
PARTS
 10
  2.2000
 20
  6.5000
 30
0.0
 0
VERTEX
 8
PARTS
 10
  2.2000
 20
  1.4000
 30
0.0
 0
VERTEX
 8
PARTS
 10
  1.9000
 20
  1.4000
 30
0.0
 0
SEQEND
 8
PARTS
 0
TEXT
 8
PARTTEXT
 10
  3.3500
 20
  6.5086
 30
0.0
 40
  0.0514
 1
J3
 0
TEXT
 8
PARTTEXT
 10
  3.3500
 20
  1.3086
 30
0.0
 40
  0.0514
 1
CON50
 0
LINE
 8
PARTS
 10
  3.0000
 20
  6.4000
 30
0.0
 11
  3.3000
 21
  6.4000
 31
0.0
 0
TEXT
 8
PARTS
 10
  3.3900
 20
  6.3750
 30
0.0
 40
  0.0500
 1
1
 0
TEXT
 8
PARTS
 10
  3.2000
 20
  6.4300
 30
0.0
 40
  0.0500
 1
1
 0
LINE
 8
PARTS
 10
  3.0000
 20
  6.3000
 30
0.0
 11
  3.3000
 21
  6.3000
 31
0.0
 0
TEXT
 8
PARTS
 10
  3.3900
 20
  6.2750
 30
0.0
 40
  0.0500
 1
2
 0
TEXT
 8
PARTS
 10
  3.2000
 20
  6.3300
 30
0.0
 40
  0.0500
 1
2
 0
LINE
 8
PARTS
 10
  3.0000
 20
  6.2000
 30
0.0
 11
  3.3000
 21
  6.2000
 31
0.0
 0
TEXT
 8
PARTS
 10
  3.3900
 20
  6.1750
 30
0.0
 40
  0.0500
 1
3
 0
TEXT
 8
PARTS
 10
  3.2000
 20
  6.2300
 30
0.0
 40
  0.0500
 1
3
 0
LINE
 8
PARTS
 10
  3.0000
 20
  6.1000
 30
0.0
 11
  3.3000
 21
  6.1000
 31
0.0
 0
TEXT
 8
PARTS
 10
  3.3900
 20
  6.0750
 30
0.0
 40
  0.0500
 1
4
 0
TEXT
 8
PARTS
 10
  3.2000
 20
  6.1300
 30
0.0
 40
  0.0500
 1
4
 0
LINE
 8
PARTS
 10
  3.0000
 20
  6.0000
 30
0.0
 11
  3.3000
 21
  6.0000
 31
0.0
 0
TEXT
 8
PARTS
 10
  3.3900
 20
  5.9750
 30
0.0
 40
  0.0500
 1
5
 0
TEXT
 8
PARTS
 10
  3.2000
 20
  6.0300
 30
0.0
 40
  0.0500
 1
5
 0
LINE
 8
PARTS
 10
  3.0000
 20
  5.9000
 30
0.0
 11
  3.3000
 21
  5.9000
 31
0.0
 0
TEXT
 8
PARTS
 10
  3.3900
 20
  5.8750
 30
0.0
 40
  0.0500
 1
6
 0
TEXT
 8
PARTS
 10
  3.2000
 20
  5.9300
 30
0.0
 40
  0.0500
 1
6
 0
LINE
 8
PARTS
 10
  3.0000
 20
  5.8000
 30
0.0
 11
  3.3000
 21
  5.8000
 31
0.0
 0
TEXT
 8
PARTS
 10
  3.3900
 20
  5.7750
 30
0.0
 40
  0.0500
 1
7
 0
TEXT
 8
PARTS
 10
  3.2000
 20
  5.8300
 30
0.0
 40
  0.0500
 1
7
 0
LINE
 8
PARTS
 10
  3.0000
 20
  5.7000
 30
0.0
 11
  3.3000
 21
  5.7000
 31
0.0
 0
TEXT
 8
PARTS
 10
  3.3900
 20
  5.6750
 30
0.0
 40
  0.0500
 1
8
 0
TEXT
 8
PARTS
 10
  3.2000
 20
  5.7300
 30
0.0
 40
  0.0500
 1
8
 0
LINE
 8
PARTS
 10
  3.0000
 20
  5.6000
 30
0.0
 11
  3.3000
 21
  5.6000
 31
0.0
 0
TEXT
 8
PARTS
 10
  3.3900
 20
  5.5750
 30
0.0
 40
  0.0500
 1
9
 0
TEXT
 8
PARTS
 10
  3.2000
 20
  5.6300
 30
0.0
 40
  0.0500
 1
9
 0
LINE
 8
PARTS
 10
  3.0000
 20
  5.5000
 30
0.0
 11
  3.3000
 21
  5.5000
 31
0.0
 0
TEXT
 8
PARTS
 10
  3.3900
 20
  5.4750
 30
0.0
 40
  0.0500
 1
10
 0
TEXT
 8
PARTS
 10
  3.1600
 20
  5.5300
 30
0.0
 40
  0.0500
 1
10
 0
LINE
 8
PARTS
 10
  3.0000
 20
  5.4000
 30
0.0
 11
  3.3000
 21
  5.4000
 31
0.0
 0
TEXT
 8
PARTS
 10
  3.3900
 20
  5.3750
 30
0.0
 40
  0.0500
 1
11
 0
TEXT
 8
PARTS
 10
  3.1600
 20
  5.4300
 30
0.0
 40
  0.0500
 1
11
 0
LINE
 8
PARTS
 10
  3.0000
 20
  5.3000
 30
0.0
 11
  3.3000
 21
  5.3000
 31
0.0
 0
TEXT
 8
PARTS
 10
  3.3900
 20
  5.2750
 30
0.0
 40
  0.0500
 1
12
 0
TEXT
 8
PARTS
 10
  3.1600
 20
  5.3300
 30
0.0
 40
  0.0500
 1
12
 0
LINE
 8
PARTS
 10
  3.0000
 20
  5.2000
 30
0.0
 11
  3.3000
 21
  5.2000
 31
0.0
 0
TEXT
 8
PARTS
 10
  3.3900
 20
  5.1750
 30
0.0
 40
  0.0500
 1
13
 0
TEXT
 8
PARTS
 10
  3.1600
 20
  5.2300
 30
0.0
 40
  0.0500
 1
13
 0
LINE
 8
PARTS
 10
  3.0000
 20
  5.1000
 30
0.0
 11
  3.3000
 21
  5.1000
 31
0.0
 0
TEXT
 8
PARTS
 10
  3.3900
 20
  5.0750
 30
0.0
 40
  0.0500
 1
14
 0
TEXT
 8
PARTS
 10
  3.1600
 20
  5.1300
 30
0.0
 40
  0.0500
 1
14
 0
LINE
 8
PARTS
 10
  3.0000
 20
  5.0000
 30
0.0
 11
  3.3000
 21
  5.0000
 31
0.0
 0
TEXT
 8
PARTS
 10
  3.3900
 20
  4.9750
 30
0.0
 40
  0.0500
 1
15
 0
TEXT
 8
PARTS
 10
  3.1600
 20
  5.0300
 30
0.0
 40
  0.0500
 1
15
 0
LINE
 8
PARTS
 10
  3.0000
 20
  4.9000
 30
0.0
 11
  3.3000
 21
  4.9000
 31
0.0
 0
TEXT
 8
PARTS
 10
  3.3900
 20
  4.8750
 30
0.0
 40
  0.0500
 1
16
 0
TEXT
 8
PARTS
 10
  3.1600
 20
  4.9300
 30
0.0
 40
  0.0500
 1
16
 0
LINE
 8
PARTS
 10
  3.0000
 20
  4.8000
 30
0.0
 11
  3.3000
 21
  4.8000
 31
0.0
 0
TEXT
 8
PARTS
 10
  3.3900
 20
  4.7750
 30
0.0
 40
  0.0500
 1
17
 0
TEXT
 8
PARTS
 10
  3.1600
 20
  4.8300
 30
0.0
 40
  0.0500
 1
17
 0
LINE
 8
PARTS
 10
  3.0000
 20
  4.7000
 30
0.0
 11
  3.3000
 21
  4.7000
 31
0.0
 0
TEXT
 8
PARTS
 10
  3.3900
 20
  4.6750
 30
0.0
 40
  0.0500
 1
18
 0
TEXT
 8
PARTS
 10
  3.1600
 20
  4.7300
 30
0.0
 40
  0.0500
 1
18
 0
LINE
 8
PARTS
 10
  3.0000
 20
  4.6000
 30
0.0
 11
  3.3000
 21
  4.6000
 31
0.0
 0
TEXT
 8
PARTS
 10
  3.3900
 20
  4.5750
 30
0.0
 40
  0.0500
 1
19
 0
TEXT
 8
PARTS
 10
  3.1600
 20
  4.6300
 30
0.0
 40
  0.0500
 1
19
 0
LINE
 8
PARTS
 10
  3.0000
 20
  4.5000
 30
0.0
 11
  3.3000
 21
  4.5000
 31
0.0
 0
TEXT
 8
PARTS
 10
  3.3900
 20
  4.4750
 30
0.0
 40
  0.0500
 1
20
 0
TEXT
 8
PARTS
 10
  3.1600
 20
  4.5300
 30
0.0
 40
  0.0500
 1
20
 0
LINE
 8
PARTS
 10
  3.0000
 20
  4.4000
 30
0.0
 11
  3.3000
 21
  4.4000
 31
0.0
 0
TEXT
 8
PARTS
 10
  3.3900
 20
  4.3750
 30
0.0
 40
  0.0500
 1
21
 0
TEXT
 8
PARTS
 10
  3.1600
 20
  4.4300
 30
0.0
 40
  0.0500
 1
21
 0
LINE
 8
PARTS
 10
  3.0000
 20
  4.3000
 30
0.0
 11
  3.3000
 21
  4.3000
 31
0.0
 0
TEXT
 8
PARTS
 10
  3.3900
 20
  4.2750
 30
0.0
 40
  0.0500
 1
22
 0
TEXT
 8
PARTS
 10
  3.1600
 20
  4.3300
 30
0.0
 40
  0.0500
 1
22
 0
LINE
 8
PARTS
 10
  3.0000
 20
  4.2000
 30
0.0
 11
  3.3000
 21
  4.2000
 31
0.0
 0
TEXT
 8
PARTS
 10
  3.3900
 20
  4.1750
 30
0.0
 40
  0.0500
 1
23
 0
TEXT
 8
PARTS
 10
  3.1600
 20
  4.2300
 30
0.0
 40
  0.0500
 1
23
 0
LINE
 8
PARTS
 10
  3.0000
 20
  4.1000
 30
0.0
 11
  3.3000
 21
  4.1000
 31
0.0
 0
TEXT
 8
PARTS
 10
  3.3900
 20
  4.0750
 30
0.0
 40
  0.0500
 1
24
 0
TEXT
 8
PARTS
 10
  3.1600
 20
  4.1300
 30
0.0
 40
  0.0500
 1
24
 0
LINE
 8
PARTS
 10
  3.0000
 20
  4.0000
 30
0.0
 11
  3.3000
 21
  4.0000
 31
0.0
 0
TEXT
 8
PARTS
 10
  3.3900
 20
  3.9750
 30
0.0
 40
  0.0500
 1
25
 0
TEXT
 8
PARTS
 10
  3.1600
 20
  4.0300
 30
0.0
 40
  0.0500
 1
25
 0
LINE
 8
PARTS
 10
  3.0000
 20
  3.9000
 30
0.0
 11
  3.3000
 21
  3.9000
 31
0.0
 0
TEXT
 8
PARTS
 10
  3.3900
 20
  3.8750
 30
0.0
 40
  0.0500
 1
26
 0
TEXT
 8
PARTS
 10
  3.1600
 20
  3.9300
 30
0.0
 40
  0.0500
 1
26
 0
LINE
 8
PARTS
 10
  3.0000
 20
  3.8000
 30
0.0
 11
  3.3000
 21
  3.8000
 31
0.0
 0
TEXT
 8
PARTS
 10
  3.3900
 20
  3.7750
 30
0.0
 40
  0.0500
 1
27
 0
TEXT
 8
PARTS
 10
  3.1600
 20
  3.8300
 30
0.0
 40
  0.0500
 1
27
 0
LINE
 8
PARTS
 10
  3.0000
 20
  3.7000
 30
0.0
 11
  3.3000
 21
  3.7000
 31
0.0
 0
TEXT
 8
PARTS
 10
  3.3900
 20
  3.6750
 30
0.0
 40
  0.0500
 1
28
 0
TEXT
 8
PARTS
 10
  3.1600
 20
  3.7300
 30
0.0
 40
  0.0500
 1
28
 0
LINE
 8
PARTS
 10
  3.0000
 20
  3.6000
 30
0.0
 11
  3.3000
 21
  3.6000
 31
0.0
 0
TEXT
 8
PARTS
 10
  3.3900
 20
  3.5750
 30
0.0
 40
  0.0500
 1
29
 0
TEXT
 8
PARTS
 10
  3.1600
 20
  3.6300
 30
0.0
 40
  0.0500
 1
29
 0
LINE
 8
PARTS
 10
  3.0000
 20
  3.5000
 30
0.0
 11
  3.3000
 21
  3.5000
 31
0.0
 0
TEXT
 8
PARTS
 10
  3.3900
 20
  3.4750
 30
0.0
 40
  0.0500
 1
30
 0
TEXT
 8
PARTS
 10
  3.1600
 20
  3.5300
 30
0.0
 40
  0.0500
 1
30
 0
LINE
 8
PARTS
 10
  3.0000
 20
  3.4000
 30
0.0
 11
  3.3000
 21
  3.4000
 31
0.0
 0
TEXT
 8
PARTS
 10
  3.3900
 20
  3.3750
 30
0.0
 40
  0.0500
 1
31
 0
TEXT
 8
PARTS
 10
  3.1600
 20
  3.4300
 30
0.0
 40
  0.0500
 1
31
 0
LINE
 8
PARTS
 10
  3.0000
 20
  3.3000
 30
0.0
 11
  3.3000
 21
  3.3000
 31
0.0
 0
TEXT
 8
PARTS
 10
  3.3900
 20
  3.2750
 30
0.0
 40
  0.0500
 1
32
 0
TEXT
 8
PARTS
 10
  3.1600
 20
  3.3300
 30
0.0
 40
  0.0500
 1
32
 0
LINE
 8
PARTS
 10
  3.0000
 20
  3.2000
 30
0.0
 11
  3.3000
 21
  3.2000
 31
0.0
 0
TEXT
 8
PARTS
 10
  3.3900
 20
  3.1750
 30
0.0
 40
  0.0500
 1
33
 0
TEXT
 8
PARTS
 10
  3.1600
 20
  3.2300
 30
0.0
 40
  0.0500
 1
33
 0
LINE
 8
PARTS
 10
  3.0000
 20
  3.1000
 30
0.0
 11
  3.3000
 21
  3.1000
 31
0.0
 0
TEXT
 8
PARTS
 10
  3.3900
 20
  3.0750
 30
0.0
 40
  0.0500
 1
34
 0
TEXT
 8
PARTS
 10
  3.1600
 20
  3.1300
 30
0.0
 40
  0.0500
 1
34
 0
LINE
 8
PARTS
 10
  3.0000
 20
  3.0000
 30
0.0
 11
  3.3000
 21
  3.0000
 31
0.0
 0
TEXT
 8
PARTS
 10
  3.3900
 20
  2.9750
 30
0.0
 40
  0.0500
 1
35
 0
TEXT
 8
PARTS
 10
  3.1600
 20
  3.0300
 30
0.0
 40
  0.0500
 1
35
 0
LINE
 8
PARTS
 10
  3.0000
 20
  2.9000
 30
0.0
 11
  3.3000
 21
  2.9000
 31
0.0
 0
TEXT
 8
PARTS
 10
  3.3900
 20
  2.8750
 30
0.0
 40
  0.0500
 1
36
 0
TEXT
 8
PARTS
 10
  3.1600
 20
  2.9300
 30
0.0
 40
  0.0500
 1
36
 0
LINE
 8
PARTS
 10
  3.0000
 20
  2.8000
 30
0.0
 11
  3.3000
 21
  2.8000
 31
0.0
 0
TEXT
 8
PARTS
 10
  3.3900
 20
  2.7750
 30
0.0
 40
  0.0500
 1
37
 0
TEXT
 8
PARTS
 10
  3.1600
 20
  2.8300
 30
0.0
 40
  0.0500
 1
37
 0
LINE
 8
PARTS
 10
  3.0000
 20
  2.7000
 30
0.0
 11
  3.3000
 21
  2.7000
 31
0.0
 0
TEXT
 8
PARTS
 10
  3.3900
 20
  2.6750
 30
0.0
 40
  0.0500
 1
38
 0
TEXT
 8
PARTS
 10
  3.1600
 20
  2.7300
 30
0.0
 40
  0.0500
 1
38
 0
LINE
 8
PARTS
 10
  3.0000
 20
  2.6000
 30
0.0
 11
  3.3000
 21
  2.6000
 31
0.0
 0
TEXT
 8
PARTS
 10
  3.3900
 20
  2.5750
 30
0.0
 40
  0.0500
 1
39
 0
TEXT
 8
PARTS
 10
  3.1600
 20
  2.6300
 30
0.0
 40
  0.0500
 1
39
 0
LINE
 8
PARTS
 10
  3.0000
 20
  2.5000
 30
0.0
 11
  3.3000
 21
  2.5000
 31
0.0
 0
TEXT
 8
PARTS
 10
  3.3900
 20
  2.4750
 30
0.0
 40
  0.0500
 1
40
 0
TEXT
 8
PARTS
 10
  3.1600
 20
  2.5300
 30
0.0
 40
  0.0500
 1
40
 0
LINE
 8
PARTS
 10
  3.0000
 20
  2.4000
 30
0.0
 11
  3.3000
 21
  2.4000
 31
0.0
 0
TEXT
 8
PARTS
 10
  3.3900
 20
  2.3750
 30
0.0
 40
  0.0500
 1
41
 0
TEXT
 8
PARTS
 10
  3.1600
 20
  2.4300
 30
0.0
 40
  0.0500
 1
41
 0
LINE
 8
PARTS
 10
  3.0000
 20
  2.3000
 30
0.0
 11
  3.3000
 21
  2.3000
 31
0.0
 0
TEXT
 8
PARTS
 10
  3.3900
 20
  2.2750
 30
0.0
 40
  0.0500
 1
42
 0
TEXT
 8
PARTS
 10
  3.1600
 20
  2.3300
 30
0.0
 40
  0.0500
 1
42
 0
LINE
 8
PARTS
 10
  3.0000
 20
  2.2000
 30
0.0
 11
  3.3000
 21
  2.2000
 31
0.0
 0
TEXT
 8
PARTS
 10
  3.3900
 20
  2.1750
 30
0.0
 40
  0.0500
 1
43
 0
TEXT
 8
PARTS
 10
  3.1600
 20
  2.2300
 30
0.0
 40
  0.0500
 1
43
 0
LINE
 8
PARTS
 10
  3.0000
 20
  2.1000
 30
0.0
 11
  3.3000
 21
  2.1000
 31
0.0
 0
TEXT
 8
PARTS
 10
  3.3900
 20
  2.0750
 30
0.0
 40
  0.0500
 1
44
 0
TEXT
 8
PARTS
 10
  3.1600
 20
  2.1300
 30
0.0
 40
  0.0500
 1
44
 0
LINE
 8
PARTS
 10
  3.0000
 20
  2.0000
 30
0.0
 11
  3.3000
 21
  2.0000
 31
0.0
 0
TEXT
 8
PARTS
 10
  3.3900
 20
  1.9750
 30
0.0
 40
  0.0500
 1
45
 0
TEXT
 8
PARTS
 10
  3.1600
 20
  2.0300
 30
0.0
 40
  0.0500
 1
45
 0
LINE
 8
PARTS
 10
  3.0000
 20
  1.9000
 30
0.0
 11
  3.3000
 21
  1.9000
 31
0.0
 0
TEXT
 8
PARTS
 10
  3.3900
 20
  1.8750
 30
0.0
 40
  0.0500
 1
46
 0
TEXT
 8
PARTS
 10
  3.1600
 20
  1.9300
 30
0.0
 40
  0.0500
 1
46
 0
LINE
 8
PARTS
 10
  3.0000
 20
  1.8000
 30
0.0
 11
  3.3000
 21
  1.8000
 31
0.0
 0
TEXT
 8
PARTS
 10
  3.3900
 20
  1.7750
 30
0.0
 40
  0.0500
 1
47
 0
TEXT
 8
PARTS
 10
  3.1600
 20
  1.8300
 30
0.0
 40
  0.0500
 1
47
 0
LINE
 8
PARTS
 10
  3.0000
 20
  1.7000
 30
0.0
 11
  3.3000
 21
  1.7000
 31
0.0
 0
TEXT
 8
PARTS
 10
  3.3900
 20
  1.6750
 30
0.0
 40
  0.0500
 1
48
 0
TEXT
 8
PARTS
 10
  3.1600
 20
  1.7300
 30
0.0
 40
  0.0500
 1
48
 0
LINE
 8
PARTS
 10
  3.0000
 20
  1.6000
 30
0.0
 11
  3.3000
 21
  1.6000
 31
0.0
 0
TEXT
 8
PARTS
 10
  3.3900
 20
  1.5750
 30
0.0
 40
  0.0500
 1
49
 0
TEXT
 8
PARTS
 10
  3.1600
 20
  1.6300
 30
0.0
 40
  0.0500
 1
49
 0
LINE
 8
PARTS
 10
  3.0000
 20
  1.5000
 30
0.0
 11
  3.3000
 21
  1.5000
 31
0.0
 0
TEXT
 8
PARTS
 10
  3.3900
 20
  1.4750
 30
0.0
 40
  0.0500
 1
50
 0
TEXT
 8
PARTS
 10
  3.1600
 20
  1.5300
 30
0.0
 40
  0.0500
 1
50
 0
POLYLINE
 8
PARTS
 66
1
 70
1
 10
0.0
 20
0.0
 30
0.0
 0
VERTEX
 8
PARTS
 10
  3.3000
 20
  6.5000
 30
0.0
 0
VERTEX
 8
PARTS
 10
  3.6000
 20
  6.5000
 30
0.0
 0
VERTEX
 8
PARTS
 10
  3.6000
 20
  1.4000
 30
0.0
 0
VERTEX
 8
PARTS
 10
  3.3000
 20
  1.4000
 30
0.0
 0
SEQEND
 8
PARTS
 0
TEXT
 8
PARTTEXT
 10
  7.0500
 20
  2.2086
 30
0.0
 40
  0.0514
 1
U6
 0
TEXT
 8
PARTTEXT
 10
  7.0500
 20
  0.7086
 30
0.0
 40
  0.0514
 1
SN75ALS192
 0
LINE
 8
PARTS
 10
  6.7000
 20
  2.1000
 30
0.0
 11
  7.0000
 21
  2.1000
 31
0.0
 0
TEXT
 8
PARTS
 10
  7.0900
 20
  2.0750
 30
0.0
 40
  0.0500
 1
1A
 0
TEXT
 8
PARTS
 10
  6.9000
 20
  2.1300
 30
0.0
 40
  0.0500
 1
1
 0
LINE
 8
PARTS
 10
  6.7000
 20
  1.8000
 30
0.0
 11
  7.0000
 21
  1.8000
 31
0.0
 0
TEXT
 8
PARTS
 10
  7.0900
 20
  1.7750
 30
0.0
 40
  0.0500
 1
2A
 0
TEXT
 8
PARTS
 10
  6.9000
 20
  1.8300
 30
0.0
 40
  0.0500
 1
7
 0
LINE
 8
PARTS
 10
  6.7000
 20
  1.5000
 30
0.0
 11
  7.0000
 21
  1.5000
 31
0.0
 0
TEXT
 8
PARTS
 10
  7.0900
 20
  1.4750
 30
0.0
 40
  0.0500
 1
3A
 0
TEXT
 8
PARTS
 10
  6.9000
 20
  1.5300
 30
0.0
 40
  0.0500
 1
9
 0
LINE
 8
PARTS
 10
  6.7000
 20
  1.2000
 30
0.0
 11
  7.0000
 21
  1.2000
 31
0.0
 0
TEXT
 8
PARTS
 10
  7.0900
 20
  1.1750
 30
0.0
 40
  0.0500
 1
4A
 0
TEXT
 8
PARTS
 10
  6.8600
 20
  1.2300
 30
0.0
 40
  0.0500
 1
15
 0
LINE
 8
PARTS
 10
  6.7000
 20
  1.0000
 30
0.0
 11
  7.0000
 21
  1.0000
 31
0.0
 0
TEXT
 8
PARTS
 10
  7.0900
 20
  0.9750
 30
0.0
 40
  0.0500
 1
%%oG%%o
 0
TEXT
 8
PARTS
 10
  6.8600
 20
  1.0300
 30
0.0
 40
  0.0500
 1
12
 0
LINE
 8
PARTS
 10
  6.7000
 20
  0.9000
 30
0.0
 11
  7.0000
 21
  0.9000
 31
0.0
 0
TEXT
 8
PARTS
 10
  7.0900
 20
  0.8750
 30
0.0
 40
  0.0500
 1
G
 0
TEXT
 8
PARTS
 10
  6.9000
 20
  0.9300
 30
0.0
 40
  0.0500
 1
4
 0
LINE
 8
PARTS
 10
  7.9000
 20
  2.1000
 30
0.0
 11
  7.6000
 21
  2.1000
 31
0.0
 0
TEXT
 8
PARTS
 10
  7.4300
 20
  2.0750
 30
0.0
 40
  0.0500
 1
1Y
 0
TEXT
 8
PARTS
 10
  7.6600
 20
  2.1300
 30
0.0
 40
  0.0500
 1
2
 0
CIRCLE
 8
PARTS
 10
  7.6300
 20
  2.0000
 30
0.0
 40
  0.0300
 0
LINE
 8
PARTS
 10
  7.9000
 20
  2.0000
 30
0.0
 11
  7.6600
 21
  2.0000
 31
0.0
 0
TEXT
 8
PARTS
 10
  7.4300
 20
  1.9750
 30
0.0
 40
  0.0500
 1
1Z
 0
TEXT
 8
PARTS
 10
  7.6600
 20
  2.0300
 30
0.0
 40
  0.0500
 1
3
 0
LINE
 8
PARTS
 10
  7.9000
 20
  1.8000
 30
0.0
 11
  7.6000
 21
  1.8000
 31
0.0
 0
TEXT
 8
PARTS
 10
  7.4300
 20
  1.7750
 30
0.0
 40
  0.0500
 1
2Y
 0
TEXT
 8
PARTS
 10
  7.6600
 20
  1.8300
 30
0.0
 40
  0.0500
 1
6
 0
CIRCLE
 8
PARTS
 10
  7.6300
 20
  1.7000
 30
0.0
 40
  0.0300
 0
LINE
 8
PARTS
 10
  7.9000
 20
  1.7000
 30
0.0
 11
  7.6600
 21
  1.7000
 31
0.0
 0
TEXT
 8
PARTS
 10
  7.4300
 20
  1.6750
 30
0.0
 40
  0.0500
 1
2Z
 0
TEXT
 8
PARTS
 10
  7.6600
 20
  1.7300
 30
0.0
 40
  0.0500
 1
5
 0
LINE
 8
PARTS
 10
  7.9000
 20
  1.5000
 30
0.0
 11
  7.6000
 21
  1.5000
 31
0.0
 0
TEXT
 8
PARTS
 10
  7.4300
 20
  1.4750
 30
0.0
 40
  0.0500
 1
3Y
 0
TEXT
 8
PARTS
 10
  7.6600
 20
  1.5300
 30
0.0
 40
  0.0500
 1
10
 0
CIRCLE
 8
PARTS
 10
  7.6300
 20
  1.4000
 30
0.0
 40
  0.0300
 0
LINE
 8
PARTS
 10
  7.9000
 20
  1.4000
 30
0.0
 11
  7.6600
 21
  1.4000
 31
0.0
 0
TEXT
 8
PARTS
 10
  7.4300
 20
  1.3750
 30
0.0
 40
  0.0500
 1
3Z
 0
TEXT
 8
PARTS
 10
  7.6600
 20
  1.4300
 30
0.0
 40
  0.0500
 1
11
 0
LINE
 8
PARTS
 10
  7.9000
 20
  1.2000
 30
0.0
 11
  7.6000
 21
  1.2000
 31
0.0
 0
TEXT
 8
PARTS
 10
  7.4300
 20
  1.1750
 30
0.0
 40
  0.0500
 1
4Y
 0
TEXT
 8
PARTS
 10
  7.6600
 20
  1.2300
 30
0.0
 40
  0.0500
 1
14
 0
CIRCLE
 8
PARTS
 10
  7.6300
 20
  1.1000
 30
0.0
 40
  0.0300
 0
LINE
 8
PARTS
 10
  7.9000
 20
  1.1000
 30
0.0
 11
  7.6600
 21
  1.1000
 31
0.0
 0
TEXT
 8
PARTS
 10
  7.4300
 20
  1.0750
 30
0.0
 40
  0.0500
 1
4Z
 0
TEXT
 8
PARTS
 10
  7.6600
 20
  1.1300
 30
0.0
 40
  0.0500
 1
13
 0
POLYLINE
 8
PARTS
 66
1
 70
1
 10
0.0
 20
0.0
 30
0.0
 0
VERTEX
 8
PARTS
 10
  7.0000
 20
  2.2000
 30
0.0
 0
VERTEX
 8
PARTS
 10
  7.6000
 20
  2.2000
 30
0.0
 0
VERTEX
 8
PARTS
 10
  7.6000
 20
  0.8000
 30
0.0
 0
VERTEX
 8
PARTS
 10
  7.0000
 20
  0.8000
 30
0.0
 0
SEQEND
 8
PARTS
 0
TEXT
 8
PARTTEXT
 10
  7.0500
 20
  9.0086
 30
0.0
 40
  0.0514
 1
U2
 0
TEXT
 8
PARTTEXT
 10
  7.0500
 20
  7.5086
 30
0.0
 40
  0.0514
 1
SN75ALS192
 0
LINE
 8
PARTS
 10
  6.7000
 20
  8.9000
 30
0.0
 11
  7.0000
 21
  8.9000
 31
0.0
 0
TEXT
 8
PARTS
 10
  7.0900
 20
  8.8750
 30
0.0
 40
  0.0500
 1
1A
 0
TEXT
 8
PARTS
 10
  6.9000
 20
  8.9300
 30
0.0
 40
  0.0500
 1
1
 0
LINE
 8
PARTS
 10
  6.7000
 20
  8.6000
 30
0.0
 11
  7.0000
 21
  8.6000
 31
0.0
 0
TEXT
 8
PARTS
 10
  7.0900
 20
  8.5750
 30
0.0
 40
  0.0500
 1
2A
 0
TEXT
 8
PARTS
 10
  6.9000
 20
  8.6300
 30
0.0
 40
  0.0500
 1
7
 0
LINE
 8
PARTS
 10
  6.7000
 20
  8.3000
 30
0.0
 11
  7.0000
 21
  8.3000
 31
0.0
 0
TEXT
 8
PARTS
 10
  7.0900
 20
  8.2750
 30
0.0
 40
  0.0500
 1
3A
 0
TEXT
 8
PARTS
 10
  6.9000
 20
  8.3300
 30
0.0
 40
  0.0500
 1
9
 0
LINE
 8
PARTS
 10
  6.7000
 20
  8.0000
 30
0.0
 11
  7.0000
 21
  8.0000
 31
0.0
 0
TEXT
 8
PARTS
 10
  7.0900
 20
  7.9750
 30
0.0
 40
  0.0500
 1
4A
 0
TEXT
 8
PARTS
 10
  6.8600
 20
  8.0300
 30
0.0
 40
  0.0500
 1
15
 0
LINE
 8
PARTS
 10
  6.7000
 20
  7.8000
 30
0.0
 11
  7.0000
 21
  7.8000
 31
0.0
 0
TEXT
 8
PARTS
 10
  7.0900
 20
  7.7750
 30
0.0
 40
  0.0500
 1
%%oG%%o
 0
TEXT
 8
PARTS
 10
  6.8600
 20
  7.8300
 30
0.0
 40
  0.0500
 1
12
 0
LINE
 8
PARTS
 10
  6.7000
 20
  7.7000
 30
0.0
 11
  7.0000
 21
  7.7000
 31
0.0
 0
TEXT
 8
PARTS
 10
  7.0900
 20
  7.6750
 30
0.0
 40
  0.0500
 1
G
 0
TEXT
 8
PARTS
 10
  6.9000
 20
  7.7300
 30
0.0
 40
  0.0500
 1
4
 0
LINE
 8
PARTS
 10
  7.9000
 20
  8.9000
 30
0.0
 11
  7.6000
 21
  8.9000
 31
0.0
 0
TEXT
 8
PARTS
 10
  7.4300
 20
  8.8750
 30
0.0
 40
  0.0500
 1
1Y
 0
TEXT
 8
PARTS
 10
  7.6600
 20
  8.9300
 30
0.0
 40
  0.0500
 1
2
 0
CIRCLE
 8
PARTS
 10
  7.6300
 20
  8.8000
 30
0.0
 40
  0.0300
 0
LINE
 8
PARTS
 10
  7.9000
 20
  8.8000
 30
0.0
 11
  7.6600
 21
  8.8000
 31
0.0
 0
TEXT
 8
PARTS
 10
  7.4300
 20
  8.7750
 30
0.0
 40
  0.0500
 1
1Z
 0
TEXT
 8
PARTS
 10
  7.6600
 20
  8.8300
 30
0.0
 40
  0.0500
 1
3
 0
LINE
 8
PARTS
 10
  7.9000
 20
  8.6000
 30
0.0
 11
  7.6000
 21
  8.6000
 31
0.0
 0
TEXT
 8
PARTS
 10
  7.4300
 20
  8.5750
 30
0.0
 40
  0.0500
 1
2Y
 0
TEXT
 8
PARTS
 10
  7.6600
 20
  8.6300
 30
0.0
 40
  0.0500
 1
6
 0
CIRCLE
 8
PARTS
 10
  7.6300
 20
  8.5000
 30
0.0
 40
  0.0300
 0
LINE
 8
PARTS
 10
  7.9000
 20
  8.5000
 30
0.0
 11
  7.6600
 21
  8.5000
 31
0.0
 0
TEXT
 8
PARTS
 10
  7.4300
 20
  8.4750
 30
0.0
 40
  0.0500
 1
2Z
 0
TEXT
 8
PARTS
 10
  7.6600
 20
  8.5300
 30
0.0
 40
  0.0500
 1
5
 0
LINE
 8
PARTS
 10
  7.9000
 20
  8.3000
 30
0.0
 11
  7.6000
 21
  8.3000
 31
0.0
 0
TEXT
 8
PARTS
 10
  7.4300
 20
  8.2750
 30
0.0
 40
  0.0500
 1
3Y
 0
TEXT
 8
PARTS
 10
  7.6600
 20
  8.3300
 30
0.0
 40
  0.0500
 1
10
 0
CIRCLE
 8
PARTS
 10
  7.6300
 20
  8.2000
 30
0.0
 40
  0.0300
 0
LINE
 8
PARTS
 10
  7.9000
 20
  8.2000
 30
0.0
 11
  7.6600
 21
  8.2000
 31
0.0
 0
TEXT
 8
PARTS
 10
  7.4300
 20
  8.1750
 30
0.0
 40
  0.0500
 1
3Z
 0
TEXT
 8
PARTS
 10
  7.6600
 20
  8.2300
 30
0.0
 40
  0.0500
 1
11
 0
LINE
 8
PARTS
 10
  7.9000
 20
  8.0000
 30
0.0
 11
  7.6000
 21
  8.0000
 31
0.0
 0
TEXT
 8
PARTS
 10
  7.4300
 20
  7.9750
 30
0.0
 40
  0.0500
 1
4Y
 0
TEXT
 8
PARTS
 10
  7.6600
 20
  8.0300
 30
0.0
 40
  0.0500
 1
14
 0
CIRCLE
 8
PARTS
 10
  7.6300
 20
  7.9000
 30
0.0
 40
  0.0300
 0
LINE
 8
PARTS
 10
  7.9000
 20
  7.9000
 30
0.0
 11
  7.6600
 21
  7.9000
 31
0.0
 0
TEXT
 8
PARTS
 10
  7.4300
 20
  7.8750
 30
0.0
 40
  0.0500
 1
4Z
 0
TEXT
 8
PARTS
 10
  7.6600
 20
  7.9300
 30
0.0
 40
  0.0500
 1
13
 0
POLYLINE
 8
PARTS
 66
1
 70
1
 10
0.0
 20
0.0
 30
0.0
 0
VERTEX
 8
PARTS
 10
  7.0000
 20
  9.0000
 30
0.0
 0
VERTEX
 8
PARTS
 10
  7.6000
 20
  9.0000
 30
0.0
 0
VERTEX
 8
PARTS
 10
  7.6000
 20
  7.6000
 30
0.0
 0
VERTEX
 8
PARTS
 10
  7.0000
 20
  7.6000
 30
0.0
 0
SEQEND
 8
PARTS
 0
TEXT
 8
PARTTEXT
 10
 11.3500
 20
  7.2086
 30
0.0
 40
  0.0514
 1
U8
 0
TEXT
 8
PARTTEXT
 10
 11.3500
 20
  5.6086
 30
0.0
 40
  0.0514
 1
SN75ALS193
 0
LINE
 8
PARTS
 10
 11.0000
 20
  7.1000
 30
0.0
 11
 11.3000
 21
  7.1000
 31
0.0
 0
TEXT
 8
PARTS
 10
 11.3900
 20
  7.0750
 30
0.0
 40
  0.0500
 1
1A
 0
TEXT
 8
PARTS
 10
 11.2000
 20
  7.1300
 30
0.0
 40
  0.0500
 1
2
 0
CIRCLE
 8
PARTS
 10
 11.2700
 20
  7.0000
 30
0.0
 40
  0.0300
 0
LINE
 8
PARTS
 10
 11.0000
 20
  7.0000
 30
0.0
 11
 11.2400
 21
  7.0000
 31
0.0
 0
TEXT
 8
PARTS
 10
 11.3900
 20
  6.9750
 30
0.0
 40
  0.0500
 1
1B
 0
TEXT
 8
PARTS
 10
 11.2000
 20
  7.0300
 30
0.0
 40
  0.0500
 1
1
 0
LINE
 8
PARTS
 10
 11.0000
 20
  6.8000
 30
0.0
 11
 11.3000
 21
  6.8000
 31
0.0
 0
TEXT
 8
PARTS
 10
 11.3900
 20
  6.7750
 30
0.0
 40
  0.0500
 1
2A
 0
TEXT
 8
PARTS
 10
 11.2000
 20
  6.8300
 30
0.0
 40
  0.0500
 1
6
 0
CIRCLE
 8
PARTS
 10
 11.2700
 20
  6.7000
 30
0.0
 40
  0.0300
 0
LINE
 8
PARTS
 10
 11.0000
 20
  6.7000
 30
0.0
 11
 11.2400
 21
  6.7000
 31
0.0
 0
TEXT
 8
PARTS
 10
 11.3900
 20
  6.6750
 30
0.0
 40
  0.0500
 1
2B
 0
TEXT
 8
PARTS
 10
 11.2000
 20
  6.7300
 30
0.0
 40
  0.0500
 1
7
 0
LINE
 8
PARTS
 10
 11.0000
 20
  6.5000
 30
0.0
 11
 11.3000
 21
  6.5000
 31
0.0
 0
TEXT
 8
PARTS
 10
 11.3900
 20
  6.4750
 30
0.0
 40
  0.0500
 1
3A
 0
TEXT
 8
PARTS
 10
 11.1600
 20
  6.5300
 30
0.0
 40
  0.0500
 1
10
 0
CIRCLE
 8
PARTS
 10
 11.2700
 20
  6.4000
 30
0.0
 40
  0.0300
 0
LINE
 8
PARTS
 10
 11.0000
 20
  6.4000
 30
0.0
 11
 11.2400
 21
  6.4000
 31
0.0
 0
TEXT
 8
PARTS
 10
 11.3900
 20
  6.3750
 30
0.0
 40
  0.0500
 1
3B
 0
TEXT
 8
PARTS
 10
 11.2000
 20
  6.4300
 30
0.0
 40
  0.0500
 1
9
 0
LINE
 8
PARTS
 10
 11.0000
 20
  6.2000
 30
0.0
 11
 11.3000
 21
  6.2000
 31
0.0
 0
TEXT
 8
PARTS
 10
 11.3900
 20
  6.1750
 30
0.0
 40
  0.0500
 1
4A
 0
TEXT
 8
PARTS
 10
 11.1600
 20
  6.2300
 30
0.0
 40
  0.0500
 1
14
 0
CIRCLE
 8
PARTS
 10
 11.2700
 20
  6.1000
 30
0.0
 40
  0.0300
 0
LINE
 8
PARTS
 10
 11.0000
 20
  6.1000
 30
0.0
 11
 11.2400
 21
  6.1000
 31
0.0
 0
TEXT
 8
PARTS
 10
 11.3900
 20
  6.0750
 30
0.0
 40
  0.0500
 1
4B
 0
TEXT
 8
PARTS
 10
 11.1600
 20
  6.1300
 30
0.0
 40
  0.0500
 1
15
 0
LINE
 8
PARTS
 10
 11.0000
 20
  5.9000
 30
0.0
 11
 11.3000
 21
  5.9000
 31
0.0
 0
TEXT
 8
PARTS
 10
 11.3900
 20
  5.8750
 30
0.0
 40
  0.0500
 1
%%oG%%o
 0
TEXT
 8
PARTS
 10
 11.1600
 20
  5.9300
 30
0.0
 40
  0.0500
 1
12
 0
LINE
 8
PARTS
 10
 11.0000
 20
  5.8000
 30
0.0
 11
 11.3000
 21
  5.8000
 31
0.0
 0
TEXT
 8
PARTS
 10
 11.3900
 20
  5.7750
 30
0.0
 40
  0.0500
 1
G
 0
TEXT
 8
PARTS
 10
 11.2000
 20
  5.8300
 30
0.0
 40
  0.0500
 1
4
 0
LINE
 8
PARTS
 10
 12.2000
 20
  7.1000
 30
0.0
 11
 11.9000
 21
  7.1000
 31
0.0
 0
TEXT
 8
PARTS
 10
 11.7300
 20
  7.0750
 30
0.0
 40
  0.0500
 1
1Y
 0
TEXT
 8
PARTS
 10
 11.9600
 20
  7.1300
 30
0.0
 40
  0.0500
 1
3
 0
LINE
 8
PARTS
 10
 12.2000
 20
  6.8000
 30
0.0
 11
 11.9000
 21
  6.8000
 31
0.0
 0
TEXT
 8
PARTS
 10
 11.7300
 20
  6.7750
 30
0.0
 40
  0.0500
 1
2Y
 0
TEXT
 8
PARTS
 10
 11.9600
 20
  6.8300
 30
0.0
 40
  0.0500
 1
5
 0
LINE
 8
PARTS
 10
 12.2000
 20
  6.5000
 30
0.0
 11
 11.9000
 21
  6.5000
 31
0.0
 0
TEXT
 8
PARTS
 10
 11.7300
 20
  6.4750
 30
0.0
 40
  0.0500
 1
3Y
 0
TEXT
 8
PARTS
 10
 11.9600
 20
  6.5300
 30
0.0
 40
  0.0500
 1
11
 0
LINE
 8
PARTS
 10
 12.2000
 20
  6.2000
 30
0.0
 11
 11.9000
 21
  6.2000
 31
0.0
 0
TEXT
 8
PARTS
 10
 11.7300
 20
  6.1750
 30
0.0
 40
  0.0500
 1
4Y
 0
TEXT
 8
PARTS
 10
 11.9600
 20
  6.2300
 30
0.0
 40
  0.0500
 1
13
 0
POLYLINE
 8
PARTS
 66
1
 70
1
 10
0.0
 20
0.0
 30
0.0
 0
VERTEX
 8
PARTS
 10
 11.3000
 20
  7.2000
 30
0.0
 0
VERTEX
 8
PARTS
 10
 11.9000
 20
  7.2000
 30
0.0
 0
VERTEX
 8
PARTS
 10
 11.9000
 20
  5.7000
 30
0.0
 0
VERTEX
 8
PARTS
 10
 11.3000
 20
  5.7000
 30
0.0
 0
SEQEND
 8
PARTS
 0
TEXT
 8
PARTTEXT
 10
  7.0500
 20
  7.3086
 30
0.0
 40
  0.0514
 1
U3
 0
TEXT
 8
PARTTEXT
 10
  7.0500
 20
  5.8086
 30
0.0
 40
  0.0514
 1
SN75ALS192
 0
LINE
 8
PARTS
 10
  6.7000
 20
  7.2000
 30
0.0
 11
  7.0000
 21
  7.2000
 31
0.0
 0
TEXT
 8
PARTS
 10
  7.0900
 20
  7.1750
 30
0.0
 40
  0.0500
 1
1A
 0
TEXT
 8
PARTS
 10
  6.9000
 20
  7.2300
 30
0.0
 40
  0.0500
 1
1
 0
LINE
 8
PARTS
 10
  6.7000
 20
  6.9000
 30
0.0
 11
  7.0000
 21
  6.9000
 31
0.0
 0
TEXT
 8
PARTS
 10
  7.0900
 20
  6.8750
 30
0.0
 40
  0.0500
 1
2A
 0
TEXT
 8
PARTS
 10
  6.9000
 20
  6.9300
 30
0.0
 40
  0.0500
 1
7
 0
LINE
 8
PARTS
 10
  6.7000
 20
  6.6000
 30
0.0
 11
  7.0000
 21
  6.6000
 31
0.0
 0
TEXT
 8
PARTS
 10
  7.0900
 20
  6.5750
 30
0.0
 40
  0.0500
 1
3A
 0
TEXT
 8
PARTS
 10
  6.9000
 20
  6.6300
 30
0.0
 40
  0.0500
 1
9
 0
LINE
 8
PARTS
 10
  6.7000
 20
  6.3000
 30
0.0
 11
  7.0000
 21
  6.3000
 31
0.0
 0
TEXT
 8
PARTS
 10
  7.0900
 20
  6.2750
 30
0.0
 40
  0.0500
 1
4A
 0
TEXT
 8
PARTS
 10
  6.8600
 20
  6.3300
 30
0.0
 40
  0.0500
 1
15
 0
LINE
 8
PARTS
 10
  6.7000
 20
  6.1000
 30
0.0
 11
  7.0000
 21
  6.1000
 31
0.0
 0
TEXT
 8
PARTS
 10
  7.0900
 20
  6.0750
 30
0.0
 40
  0.0500
 1
%%oG%%o
 0
TEXT
 8
PARTS
 10
  6.8600
 20
  6.1300
 30
0.0
 40
  0.0500
 1
12
 0
LINE
 8
PARTS
 10
  6.7000
 20
  6.0000
 30
0.0
 11
  7.0000
 21
  6.0000
 31
0.0
 0
TEXT
 8
PARTS
 10
  7.0900
 20
  5.9750
 30
0.0
 40
  0.0500
 1
G
 0
TEXT
 8
PARTS
 10
  6.9000
 20
  6.0300
 30
0.0
 40
  0.0500
 1
4
 0
LINE
 8
PARTS
 10
  7.9000
 20
  7.2000
 30
0.0
 11
  7.6000
 21
  7.2000
 31
0.0
 0
TEXT
 8
PARTS
 10
  7.4300
 20
  7.1750
 30
0.0
 40
  0.0500
 1
1Y
 0
TEXT
 8
PARTS
 10
  7.6600
 20
  7.2300
 30
0.0
 40
  0.0500
 1
2
 0
CIRCLE
 8
PARTS
 10
  7.6300
 20
  7.1000
 30
0.0
 40
  0.0300
 0
LINE
 8
PARTS
 10
  7.9000
 20
  7.1000
 30
0.0
 11
  7.6600
 21
  7.1000
 31
0.0
 0
TEXT
 8
PARTS
 10
  7.4300
 20
  7.0750
 30
0.0
 40
  0.0500
 1
1Z
 0
TEXT
 8
PARTS
 10
  7.6600
 20
  7.1300
 30
0.0
 40
  0.0500
 1
3
 0
LINE
 8
PARTS
 10
  7.9000
 20
  6.9000
 30
0.0
 11
  7.6000
 21
  6.9000
 31
0.0
 0
TEXT
 8
PARTS
 10
  7.4300
 20
  6.8750
 30
0.0
 40
  0.0500
 1
2Y
 0
TEXT
 8
PARTS
 10
  7.6600
 20
  6.9300
 30
0.0
 40
  0.0500
 1
6
 0
CIRCLE
 8
PARTS
 10
  7.6300
 20
  6.8000
 30
0.0
 40
  0.0300
 0
LINE
 8
PARTS
 10
  7.9000
 20
  6.8000
 30
0.0
 11
  7.6600
 21
  6.8000
 31
0.0
 0
TEXT
 8
PARTS
 10
  7.4300
 20
  6.7750
 30
0.0
 40
  0.0500
 1
2Z
 0
TEXT
 8
PARTS
 10
  7.6600
 20
  6.8300
 30
0.0
 40
  0.0500
 1
5
 0
LINE
 8
PARTS
 10
  7.9000
 20
  6.6000
 30
0.0
 11
  7.6000
 21
  6.6000
 31
0.0
 0
TEXT
 8
PARTS
 10
  7.4300
 20
  6.5750
 30
0.0
 40
  0.0500
 1
3Y
 0
TEXT
 8
PARTS
 10
  7.6600
 20
  6.6300
 30
0.0
 40
  0.0500
 1
10
 0
CIRCLE
 8
PARTS
 10
  7.6300
 20
  6.5000
 30
0.0
 40
  0.0300
 0
LINE
 8
PARTS
 10
  7.9000
 20
  6.5000
 30
0.0
 11
  7.6600
 21
  6.5000
 31
0.0
 0
TEXT
 8
PARTS
 10
  7.4300
 20
  6.4750
 30
0.0
 40
  0.0500
 1
3Z
 0
TEXT
 8
PARTS
 10
  7.6600
 20
  6.5300
 30
0.0
 40
  0.0500
 1
11
 0
LINE
 8
PARTS
 10
  7.9000
 20
  6.3000
 30
0.0
 11
  7.6000
 21
  6.3000
 31
0.0
 0
TEXT
 8
PARTS
 10
  7.4300
 20
  6.2750
 30
0.0
 40
  0.0500
 1
4Y
 0
TEXT
 8
PARTS
 10
  7.6600
 20
  6.3300
 30
0.0
 40
  0.0500
 1
14
 0
CIRCLE
 8
PARTS
 10
  7.6300
 20
  6.2000
 30
0.0
 40
  0.0300
 0
LINE
 8
PARTS
 10
  7.9000
 20
  6.2000
 30
0.0
 11
  7.6600
 21
  6.2000
 31
0.0
 0
TEXT
 8
PARTS
 10
  7.4300
 20
  6.1750
 30
0.0
 40
  0.0500
 1
4Z
 0
TEXT
 8
PARTS
 10
  7.6600
 20
  6.2300
 30
0.0
 40
  0.0500
 1
13
 0
POLYLINE
 8
PARTS
 66
1
 70
1
 10
0.0
 20
0.0
 30
0.0
 0
VERTEX
 8
PARTS
 10
  7.0000
 20
  7.3000
 30
0.0
 0
VERTEX
 8
PARTS
 10
  7.6000
 20
  7.3000
 30
0.0
 0
VERTEX
 8
PARTS
 10
  7.6000
 20
  5.9000
 30
0.0
 0
VERTEX
 8
PARTS
 10
  7.0000
 20
  5.9000
 30
0.0
 0
SEQEND
 8
PARTS
 0
LINE
 8
PARTS
 10
 10.4000
 20
  7.9000
 30
0.0
 11
 10.5000
 21
  7.9000
 31
0.0
 0
TEXT
 8
PARTS
 10
 10.4400
 20
  7.9300
 30
0.0
 40
  0.0500
 1

 0
LINE
 8
PARTS
 10
 10.9000
 20
  7.9000
 30
0.0
 11
 10.8000
 21
  7.9000
 31
0.0
 0
TEXT
 8
PARTS
 10
 10.8600
 20
  7.9300
 30
0.0
 40
  0.0500
 1

 0
POLYLINE
 8
PARTS
 66
1
 10
0.0
 20
0.0
 30
0.0
 0
VERTEX
 8
PARTS
 10
 10.5000
 20
  7.9000
 30
0.0
 0
VERTEX
 8
PARTS
 10
 10.5300
 20
  7.9300
 30
0.0
 0
SEQEND
 8
PARTS
 0
POLYLINE
 8
PARTS
 66
1
 10
0.0
 20
0.0
 30
0.0
 0
VERTEX
 8
PARTS
 10
 10.5300
 20
  7.9300
 30
0.0
 0
VERTEX
 8
PARTS
 10
 10.5900
 20
  7.8700
 30
0.0
 0
SEQEND
 8
PARTS
 0
POLYLINE
 8
PARTS
 66
1
 10
0.0
 20
0.0
 30
0.0
 0
VERTEX
 8
PARTS
 10
 10.5900
 20
  7.8700
 30
0.0
 0
VERTEX
 8
PARTS
 10
 10.6500
 20
  7.9300
 30
0.0
 0
SEQEND
 8
PARTS
 0
POLYLINE
 8
PARTS
 66
1
 10
0.0
 20
0.0
 30
0.0
 0
VERTEX
 8
PARTS
 10
 10.6500
 20
  7.9300
 30
0.0
 0
VERTEX
 8
PARTS
 10
 10.7100
 20
  7.8700
 30
0.0
 0
SEQEND
 8
PARTS
 0
POLYLINE
 8
PARTS
 66
1
 10
0.0
 20
0.0
 30
0.0
 0
VERTEX
 8
PARTS
 10
 10.7100
 20
  7.8700
 30
0.0
 0
VERTEX
 8
PARTS
 10
 10.7700
 20
  7.9300
 30
0.0
 0
SEQEND
 8
PARTS
 0
POLYLINE
 8
PARTS
 66
1
 10
0.0
 20
0.0
 30
0.0
 0
VERTEX
 8
PARTS
 10
 10.7700
 20
  7.9300
 30
0.0
 0
VERTEX
 8
PARTS
 10
 10.8000
 20
  7.9000
 30
0.0
 0
SEQEND
 8
PARTS
 0
LINE
 8
PARTS
 10
 10.4000
 20
  5.1000
 30
0.0
 11
 10.5000
 21
  5.1000
 31
0.0
 0
TEXT
 8
PARTS
 10
 10.4400
 20
  5.1300
 30
0.0
 40
  0.0500
 1

 0
LINE
 8
PARTS
 10
 10.9000
 20
  5.1000
 30
0.0
 11
 10.8000
 21
  5.1000
 31
0.0
 0
TEXT
 8
PARTS
 10
 10.8600
 20
  5.1300
 30
0.0
 40
  0.0500
 1

 0
POLYLINE
 8
PARTS
 66
1
 10
0.0
 20
0.0
 30
0.0
 0
VERTEX
 8
PARTS
 10
 10.5000
 20
  5.1000
 30
0.0
 0
VERTEX
 8
PARTS
 10
 10.5300
 20
  5.1300
 30
0.0
 0
SEQEND
 8
PARTS
 0
POLYLINE
 8
PARTS
 66
1
 10
0.0
 20
0.0
 30
0.0
 0
VERTEX
 8
PARTS
 10
 10.5300
 20
  5.1300
 30
0.0
 0
VERTEX
 8
PARTS
 10
 10.5900
 20
  5.0700
 30
0.0
 0
SEQEND
 8
PARTS
 0
POLYLINE
 8
PARTS
 66
1
 10
0.0
 20
0.0
 30
0.0
 0
VERTEX
 8
PARTS
 10
 10.5900
 20
  5.0700
 30
0.0
 0
VERTEX
 8
PARTS
 10
 10.6500
 20
  5.1300
 30
0.0
 0
SEQEND
 8
PARTS
 0
POLYLINE
 8
PARTS
 66
1
 10
0.0
 20
0.0
 30
0.0
 0
VERTEX
 8
PARTS
 10
 10.6500
 20
  5.1300
 30
0.0
 0
VERTEX
 8
PARTS
 10
 10.7100
 20
  5.0700
 30
0.0
 0
SEQEND
 8
PARTS
 0
POLYLINE
 8
PARTS
 66
1
 10
0.0
 20
0.0
 30
0.0
 0
VERTEX
 8
PARTS
 10
 10.7100
 20
  5.0700
 30
0.0
 0
VERTEX
 8
PARTS
 10
 10.7700
 20
  5.1300
 30
0.0
 0
SEQEND
 8
PARTS
 0
POLYLINE
 8
PARTS
 66
1
 10
0.0
 20
0.0
 30
0.0
 0
VERTEX
 8
PARTS
 10
 10.7700
 20
  5.1300
 30
0.0
 0
VERTEX
 8
PARTS
 10
 10.8000
 20
  5.1000
 30
0.0
 0
SEQEND
 8
PARTS
 0
LINE
 8
PARTS
 10
 10.4000
 20
  8.2000
 30
0.0
 11
 10.5000
 21
  8.2000
 31
0.0
 0
TEXT
 8
PARTS
 10
 10.4400
 20
  8.2300
 30
0.0
 40
  0.0500
 1

 0
LINE
 8
PARTS
 10
 10.9000
 20
  8.2000
 30
0.0
 11
 10.8000
 21
  8.2000
 31
0.0
 0
TEXT
 8
PARTS
 10
 10.8600
 20
  8.2300
 30
0.0
 40
  0.0500
 1

 0
POLYLINE
 8
PARTS
 66
1
 10
0.0
 20
0.0
 30
0.0
 0
VERTEX
 8
PARTS
 10
 10.5000
 20
  8.2000
 30
0.0
 0
VERTEX
 8
PARTS
 10
 10.5300
 20
  8.2300
 30
0.0
 0
SEQEND
 8
PARTS
 0
POLYLINE
 8
PARTS
 66
1
 10
0.0
 20
0.0
 30
0.0
 0
VERTEX
 8
PARTS
 10
 10.5300
 20
  8.2300
 30
0.0
 0
VERTEX
 8
PARTS
 10
 10.5900
 20
  8.1700
 30
0.0
 0
SEQEND
 8
PARTS
 0
POLYLINE
 8
PARTS
 66
1
 10
0.0
 20
0.0
 30
0.0
 0
VERTEX
 8
PARTS
 10
 10.5900
 20
  8.1700
 30
0.0
 0
VERTEX
 8
PARTS
 10
 10.6500
 20
  8.2300
 30
0.0
 0
SEQEND
 8
PARTS
 0
POLYLINE
 8
PARTS
 66
1
 10
0.0
 20
0.0
 30
0.0
 0
VERTEX
 8
PARTS
 10
 10.6500
 20
  8.2300
 30
0.0
 0
VERTEX
 8
PARTS
 10
 10.7100
 20
  8.1700
 30
0.0
 0
SEQEND
 8
PARTS
 0
POLYLINE
 8
PARTS
 66
1
 10
0.0
 20
0.0
 30
0.0
 0
VERTEX
 8
PARTS
 10
 10.7100
 20
  8.1700
 30
0.0
 0
VERTEX
 8
PARTS
 10
 10.7700
 20
  8.2300
 30
0.0
 0
SEQEND
 8
PARTS
 0
POLYLINE
 8
PARTS
 66
1
 10
0.0
 20
0.0
 30
0.0
 0
VERTEX
 8
PARTS
 10
 10.7700
 20
  8.2300
 30
0.0
 0
VERTEX
 8
PARTS
 10
 10.8000
 20
  8.2000
 30
0.0
 0
SEQEND
 8
PARTS
 0
TEXT
 8
PARTTEXT
 10
 11.3500
 20
  5.3086
 30
0.0
 40
  0.0514
 1
U9
 0
TEXT
 8
PARTTEXT
 10
 11.3500
 20
  3.7086
 30
0.0
 40
  0.0514
 1
SN75ALS193
 0
LINE
 8
PARTS
 10
 11.0000
 20
  5.2000
 30
0.0
 11
 11.3000
 21
  5.2000
 31
0.0
 0
TEXT
 8
PARTS
 10
 11.3900
 20
  5.1750
 30
0.0
 40
  0.0500
 1
1A
 0
TEXT
 8
PARTS
 10
 11.2000
 20
  5.2300
 30
0.0
 40
  0.0500
 1
2
 0
CIRCLE
 8
PARTS
 10
 11.2700
 20
  5.1000
 30
0.0
 40
  0.0300
 0
LINE
 8
PARTS
 10
 11.0000
 20
  5.1000
 30
0.0
 11
 11.2400
 21
  5.1000
 31
0.0
 0
TEXT
 8
PARTS
 10
 11.3900
 20
  5.0750
 30
0.0
 40
  0.0500
 1
1B
 0
TEXT
 8
PARTS
 10
 11.2000
 20
  5.1300
 30
0.0
 40
  0.0500
 1
1
 0
LINE
 8
PARTS
 10
 11.0000
 20
  4.9000
 30
0.0
 11
 11.3000
 21
  4.9000
 31
0.0
 0
TEXT
 8
PARTS
 10
 11.3900
 20
  4.8750
 30
0.0
 40
  0.0500
 1
2A
 0
TEXT
 8
PARTS
 10
 11.2000
 20
  4.9300
 30
0.0
 40
  0.0500
 1
6
 0
CIRCLE
 8
PARTS
 10
 11.2700
 20
  4.8000
 30
0.0
 40
  0.0300
 0
LINE
 8
PARTS
 10
 11.0000
 20
  4.8000
 30
0.0
 11
 11.2400
 21
  4.8000
 31
0.0
 0
TEXT
 8
PARTS
 10
 11.3900
 20
  4.7750
 30
0.0
 40
  0.0500
 1
2B
 0
TEXT
 8
PARTS
 10
 11.2000
 20
  4.8300
 30
0.0
 40
  0.0500
 1
7
 0
LINE
 8
PARTS
 10
 11.0000
 20
  4.6000
 30
0.0
 11
 11.3000
 21
  4.6000
 31
0.0
 0
TEXT
 8
PARTS
 10
 11.3900
 20
  4.5750
 30
0.0
 40
  0.0500
 1
3A
 0
TEXT
 8
PARTS
 10
 11.1600
 20
  4.6300
 30
0.0
 40
  0.0500
 1
10
 0
CIRCLE
 8
PARTS
 10
 11.2700
 20
  4.5000
 30
0.0
 40
  0.0300
 0
LINE
 8
PARTS
 10
 11.0000
 20
  4.5000
 30
0.0
 11
 11.2400
 21
  4.5000
 31
0.0
 0
TEXT
 8
PARTS
 10
 11.3900
 20
  4.4750
 30
0.0
 40
  0.0500
 1
3B
 0
TEXT
 8
PARTS
 10
 11.2000
 20
  4.5300
 30
0.0
 40
  0.0500
 1
9
 0
LINE
 8
PARTS
 10
 11.0000
 20
  4.3000
 30
0.0
 11
 11.3000
 21
  4.3000
 31
0.0
 0
TEXT
 8
PARTS
 10
 11.3900
 20
  4.2750
 30
0.0
 40
  0.0500
 1
4A
 0
TEXT
 8
PARTS
 10
 11.1600
 20
  4.3300
 30
0.0
 40
  0.0500
 1
14
 0
CIRCLE
 8
PARTS
 10
 11.2700
 20
  4.2000
 30
0.0
 40
  0.0300
 0
LINE
 8
PARTS
 10
 11.0000
 20
  4.2000
 30
0.0
 11
 11.2400
 21
  4.2000
 31
0.0
 0
TEXT
 8
PARTS
 10
 11.3900
 20
  4.1750
 30
0.0
 40
  0.0500
 1
4B
 0
TEXT
 8
PARTS
 10
 11.1600
 20
  4.2300
 30
0.0
 40
  0.0500
 1
15
 0
LINE
 8
PARTS
 10
 11.0000
 20
  4.0000
 30
0.0
 11
 11.3000
 21
  4.0000
 31
0.0
 0
TEXT
 8
PARTS
 10
 11.3900
 20
  3.9750
 30
0.0
 40
  0.0500
 1
%%oG%%o
 0
TEXT
 8
PARTS
 10
 11.1600
 20
  4.0300
 30
0.0
 40
  0.0500
 1
12
 0
LINE
 8
PARTS
 10
 11.0000
 20
  3.9000
 30
0.0
 11
 11.3000
 21
  3.9000
 31
0.0
 0
TEXT
 8
PARTS
 10
 11.3900
 20
  3.8750
 30
0.0
 40
  0.0500
 1
G
 0
TEXT
 8
PARTS
 10
 11.2000
 20
  3.9300
 30
0.0
 40
  0.0500
 1
4
 0
LINE
 8
PARTS
 10
 12.2000
 20
  5.2000
 30
0.0
 11
 11.9000
 21
  5.2000
 31
0.0
 0
TEXT
 8
PARTS
 10
 11.7300
 20
  5.1750
 30
0.0
 40
  0.0500
 1
1Y
 0
TEXT
 8
PARTS
 10
 11.9600
 20
  5.2300
 30
0.0
 40
  0.0500
 1
3
 0
LINE
 8
PARTS
 10
 12.2000
 20
  4.9000
 30
0.0
 11
 11.9000
 21
  4.9000
 31
0.0
 0
TEXT
 8
PARTS
 10
 11.7300
 20
  4.8750
 30
0.0
 40
  0.0500
 1
2Y
 0
TEXT
 8
PARTS
 10
 11.9600
 20
  4.9300
 30
0.0
 40
  0.0500
 1
5
 0
LINE
 8
PARTS
 10
 12.2000
 20
  4.6000
 30
0.0
 11
 11.9000
 21
  4.6000
 31
0.0
 0
TEXT
 8
PARTS
 10
 11.7300
 20
  4.5750
 30
0.0
 40
  0.0500
 1
3Y
 0
TEXT
 8
PARTS
 10
 11.9600
 20
  4.6300
 30
0.0
 40
  0.0500
 1
11
 0
LINE
 8
PARTS
 10
 12.2000
 20
  4.3000
 30
0.0
 11
 11.9000
 21
  4.3000
 31
0.0
 0
TEXT
 8
PARTS
 10
 11.7300
 20
  4.2750
 30
0.0
 40
  0.0500
 1
4Y
 0
TEXT
 8
PARTS
 10
 11.9600
 20
  4.3300
 30
0.0
 40
  0.0500
 1
13
 0
POLYLINE
 8
PARTS
 66
1
 70
1
 10
0.0
 20
0.0
 30
0.0
 0
VERTEX
 8
PARTS
 10
 11.3000
 20
  5.3000
 30
0.0
 0
VERTEX
 8
PARTS
 10
 11.9000
 20
  5.3000
 30
0.0
 0
VERTEX
 8
PARTS
 10
 11.9000
 20
  3.8000
 30
0.0
 0
VERTEX
 8
PARTS
 10
 11.3000
 20
  3.8000
 30
0.0
 0
SEQEND
 8
PARTS
 0
LINE
 8
PARTS
 10
 10.4000
 20
  6.1000
 30
0.0
 11
 10.5000
 21
  6.1000
 31
0.0
 0
TEXT
 8
PARTS
 10
 10.4400
 20
  6.1300
 30
0.0
 40
  0.0500
 1

 0
LINE
 8
PARTS
 10
 10.9000
 20
  6.1000
 30
0.0
 11
 10.8000
 21
  6.1000
 31
0.0
 0
TEXT
 8
PARTS
 10
 10.8600
 20
  6.1300
 30
0.0
 40
  0.0500
 1

 0
POLYLINE
 8
PARTS
 66
1
 10
0.0
 20
0.0
 30
0.0
 0
VERTEX
 8
PARTS
 10
 10.5000
 20
  6.1000
 30
0.0
 0
VERTEX
 8
PARTS
 10
 10.5300
 20
  6.1300
 30
0.0
 0
SEQEND
 8
PARTS
 0
POLYLINE
 8
PARTS
 66
1
 10
0.0
 20
0.0
 30
0.0
 0
VERTEX
 8
PARTS
 10
 10.5300
 20
  6.1300
 30
0.0
 0
VERTEX
 8
PARTS
 10
 10.5900
 20
  6.0700
 30
0.0
 0
SEQEND
 8
PARTS
 0
POLYLINE
 8
PARTS
 66
1
 10
0.0
 20
0.0
 30
0.0
 0
VERTEX
 8
PARTS
 10
 10.5900
 20
  6.0700
 30
0.0
 0
VERTEX
 8
PARTS
 10
 10.6500
 20
  6.1300
 30
0.0
 0
SEQEND
 8
PARTS
 0
POLYLINE
 8
PARTS
 66
1
 10
0.0
 20
0.0
 30
0.0
 0
VERTEX
 8
PARTS
 10
 10.6500
 20
  6.1300
 30
0.0
 0
VERTEX
 8
PARTS
 10
 10.7100
 20
  6.0700
 30
0.0
 0
SEQEND
 8
PARTS
 0
POLYLINE
 8
PARTS
 66
1
 10
0.0
 20
0.0
 30
0.0
 0
VERTEX
 8
PARTS
 10
 10.7100
 20
  6.0700
 30
0.0
 0
VERTEX
 8
PARTS
 10
 10.7700
 20
  6.1300
 30
0.0
 0
SEQEND
 8
PARTS
 0
POLYLINE
 8
PARTS
 66
1
 10
0.0
 20
0.0
 30
0.0
 0
VERTEX
 8
PARTS
 10
 10.7700
 20
  6.1300
 30
0.0
 0
VERTEX
 8
PARTS
 10
 10.8000
 20
  6.1000
 30
0.0
 0
SEQEND
 8
PARTS
 0
TEXT
 8
PARTTEXT
 10
  1.7500
 20
  8.8086
 30
0.0
 40
  0.0514
 1
U1
 0
TEXT
 8
PARTTEXT
 10
  1.7500
 20
  7.3086
 30
0.0
 40
  0.0514
 1
DDSPAL00_22V10
 0
LINE
 8
PARTS
 10
  1.4000
 20
  8.7000
 30
0.0
 11
  1.7000
 21
  8.7000
 31
0.0
 0
TEXT
 8
PARTS
 10
  1.7900
 20
  8.6750
 30
0.0
 40
  0.0500
 1
CLK
 0
TEXT
 8
PARTS
 10
  1.6000
 20
  8.7300
 30
0.0
 40
  0.0500
 1
1
 0
CIRCLE
 8
PARTS
 10
  1.6700
 20
  8.2000
 30
0.0
 40
  0.0300
 0
LINE
 8
PARTS
 10
  1.4000
 20
  8.2000
 30
0.0
 11
  1.6400
 21
  8.2000
 31
0.0
 0
TEXT
 8
PARTS
 10
  1.7900
 20
  8.1750
 30
0.0
 40
  0.0500
 1
RESET
 0
TEXT
 8
PARTS
 10
  1.6000
 20
  8.2300
 30
0.0
 40
  0.0500
 1
6
 0
CIRCLE
 8
PARTS
 10
  1.6700
 20
  8.4000
 30
0.0
 40
  0.0300
 0
LINE
 8
PARTS
 10
  1.4000
 20
  8.4000
 30
0.0
 11
  1.6400
 21
  8.4000
 31
0.0
 0
TEXT
 8
PARTS
 10
  1.7900
 20
  8.3750
 30
0.0
 40
  0.0500
 1
IDSEL
 0
TEXT
 8
PARTS
 10
  1.6000
 20
  8.4300
 30
0.0
 40
  0.0500
 1
4
 0
CIRCLE
 8
PARTS
 10
  1.6700
 20
  8.6000
 30
0.0
 40
  0.0300
 0
LINE
 8
PARTS
 10
  1.4000
 20
  8.6000
 30
0.0
 11
  1.6400
 21
  8.6000
 31
0.0
 0
TEXT
 8
PARTS
 10
  1.7900
 20
  8.5750
 30
0.0
 40
  0.0500
 1
IOSEL
 0
TEXT
 8
PARTS
 10
  1.6000
 20
  8.6300
 30
0.0
 40
  0.0500
 1
2
 0
CIRCLE
 8
PARTS
 10
  1.6700
 20
  8.5000
 30
0.0
 40
  0.0300
 0
LINE
 8
PARTS
 10
  1.4000
 20
  8.5000
 30
0.0
 11
  1.6400
 21
  8.5000
 31
0.0
 0
TEXT
 8
PARTS
 10
  1.7900
 20
  8.4750
 30
0.0
 40
  0.0500
 1
INTSEL
 0
TEXT
 8
PARTS
 10
  1.6000
 20
  8.5300
 30
0.0
 40
  0.0500
 1
3
 0
LINE
 8
PARTS
 10
  1.4000
 20
  8.1000
 30
0.0
 11
  1.7000
 21
  8.1000
 31
0.0
 0
TEXT
 8
PARTS
 10
  1.7900
 20
  8.0750
 30
0.0
 40
  0.0500
 1
A1
 0
TEXT
 8
PARTS
 10
  1.6000
 20
  8.1300
 30
0.0
 40
  0.0500
 1
7
 0
LINE
 8
PARTS
 10
  3.0000
 20
  8.7000
 30
0.0
 11
  2.7000
 21
  8.7000
 31
0.0
 0
TEXT
 8
PARTS
 10
  2.4900
 20
  8.6750
 30
0.0
 40
  0.0500
 1
WRT
 0
TEXT
 8
PARTS
 10
  2.7600
 20
  8.7300
 30
0.0
 40
  0.0500
 1
23
 0
CIRCLE
 8
PARTS
 10
  2.7300
 20
  8.6000
 30
0.0
 40
  0.0300
 0
LINE
 8
PARTS
 10
  3.0000
 20
  8.6000
 30
0.0
 11
  2.7600
 21
  8.6000
 31
0.0
 0
TEXT
 8
PARTS
 10
  2.5300
 20
  8.5750
 30
0.0
 40
  0.0500
 1
RD
 0
TEXT
 8
PARTS
 10
  2.7600
 20
  8.6300
 30
0.0
 40
  0.0500
 1
22
 0
LINE
 8
PARTS
 10
  3.0000
 20
  8.5000
 30
0.0
 11
  2.7000
 21
  8.5000
 31
0.0
 0
TEXT
 8
PARTS
 10
  2.5300
 20
  8.4750
 30
0.0
 40
  0.0500
 1
OE
 0
TEXT
 8
PARTS
 10
  2.7600
 20
  8.5300
 30
0.0
 40
  0.0500
 1
21
 0
LINE
 8
PARTS
 10
  3.0000
 20
  8.4000
 30
0.0
 11
  2.7000
 21
  8.4000
 31
0.0
 0
TEXT
 8
PARTS
 10
  2.5300
 20
  8.3750
 30
0.0
 40
  0.0500
 1
D0
 0
TEXT
 8
PARTS
 10
  2.7600
 20
  8.4300
 30
0.0
 40
  0.0500
 1
20
 0
CIRCLE
 8
PARTS
 10
  2.7300
 20
  8.3000
 30
0.0
 40
  0.0300
 0
LINE
 8
PARTS
 10
  3.0000
 20
  8.3000
 30
0.0
 11
  2.7600
 21
  8.3000
 31
0.0
 0
TEXT
 8
PARTS
 10
  2.4900
 20
  8.2750
 30
0.0
 40
  0.0500
 1
ACK
 0
TEXT
 8
PARTS
 10
  2.7600
 20
  8.3300
 30
0.0
 40
  0.0500
 1
19
 0
LINE
 8
PARTS
 10
  3.0000
 20
  8.2000
 30
0.0
 11
  2.7000
 21
  8.2000
 31
0.0
 0
TEXT
 8
PARTS
 10
  2.5300
 20
  8.1750
 30
0.0
 40
  0.0500
 1
NC
 0
TEXT
 8
PARTS
 10
  2.7600
 20
  8.2300
 30
0.0
 40
  0.0500
 1
18
 0
LINE
 8
PARTS
 10
  3.0000
 20
  8.1000
 30
0.0
 11
  2.7000
 21
  8.1000
 31
0.0
 0
TEXT
 8
PARTS
 10
  2.5300
 20
  8.0750
 30
0.0
 40
  0.0500
 1
NC
 0
TEXT
 8
PARTS
 10
  2.7600
 20
  8.1300
 30
0.0
 40
  0.0500
 1
17
 0
LINE
 8
PARTS
 10
  1.4000
 20
  8.3000
 30
0.0
 11
  1.7000
 21
  8.3000
 31
0.0
 0
TEXT
 8
PARTS
 10
  1.7900
 20
  8.2750
 30
0.0
 40
  0.0500
 1
RW
 0
TEXT
 8
PARTS
 10
  1.6000
 20
  8.3300
 30
0.0
 40
  0.0500
 1
5
 0
LINE
 8
PARTS
 10
  3.0000
 20
  8.0000
 30
0.0
 11
  2.7000
 21
  8.0000
 31
0.0
 0
TEXT
 8
PARTS
 10
  2.5300
 20
  7.9750
 30
0.0
 40
  0.0500
 1
NC
 0
TEXT
 8
PARTS
 10
  2.7600
 20
  8.0300
 30
0.0
 40
  0.0500
 1
16
 0
CIRCLE
 8
PARTS
 10
  2.7300
 20
  7.9000
 30
0.0
 40
  0.0300
 0
LINE
 8
PARTS
 10
  3.0000
 20
  7.9000
 30
0.0
 11
  2.7600
 21
  7.9000
 31
0.0
 0
TEXT
 8
PARTS
 10
  2.3300
 20
  7.8750
 30
0.0
 40
  0.0500
 1
INTREQ0
 0
TEXT
 8
PARTS
 10
  2.7600
 20
  7.9300
 30
0.0
 40
  0.0500
 1
15
 0
CIRCLE
 8
PARTS
 10
  2.7300
 20
  7.8000
 30
0.0
 40
  0.0300
 0
LINE
 8
PARTS
 10
  3.0000
 20
  7.8000
 30
0.0
 11
  2.7600
 21
  7.8000
 31
0.0
 0
TEXT
 8
PARTS
 10
  2.3300
 20
  7.7750
 30
0.0
 40
  0.0500
 1
INTREQ1
 0
TEXT
 8
PARTS
 10
  2.7600
 20
  7.8300
 30
0.0
 40
  0.0500
 1
14
 0
CIRCLE
 8
PARTS
 10
  1.6700
 20
  7.6000
 30
0.0
 40
  0.0300
 0
LINE
 8
PARTS
 10
  1.4000
 20
  7.6000
 30
0.0
 11
  1.6400
 21
  7.6000
 31
0.0
 0
TEXT
 8
PARTS
 10
  1.7900
 20
  7.5750
 30
0.0
 40
  0.0500
 1
INT1
 0
TEXT
 8
PARTS
 10
  1.5600
 20
  7.6300
 30
0.0
 40
  0.0500
 1
13
 0
CIRCLE
 8
PARTS
 10
  1.6700
 20
  7.7000
 30
0.0
 40
  0.0300
 0
LINE
 8
PARTS
 10
  1.4000
 20
  7.7000
 30
0.0
 11
  1.6400
 21
  7.7000
 31
0.0
 0
TEXT
 8
PARTS
 10
  1.7900
 20
  7.6750
 30
0.0
 40
  0.0500
 1
INT0
 0
TEXT
 8
PARTS
 10
  1.5600
 20
  7.7300
 30
0.0
 40
  0.0500
 1
11
 0
LINE
 8
PARTS
 10
  1.4000
 20
  8.0000
 30
0.0
 11
  1.7000
 21
  8.0000
 31
0.0
 0
TEXT
 8
PARTS
 10
  1.7900
 20
  7.9750
 30
0.0
 40
  0.0500
 1
NC
 0
TEXT
 8
PARTS
 10
  1.6000
 20
  8.0300
 30
0.0
 40
  0.0500
 1
8
 0
LINE
 8
PARTS
 10
  1.4000
 20
  7.9000
 30
0.0
 11
  1.7000
 21
  7.9000
 31
0.0
 0
TEXT
 8
PARTS
 10
  1.7900
 20
  7.8750
 30
0.0
 40
  0.0500
 1
NC
 0
TEXT
 8
PARTS
 10
  1.6000
 20
  7.9300
 30
0.0
 40
  0.0500
 1
9
 0
LINE
 8
PARTS
 10
  1.4000
 20
  7.8000
 30
0.0
 11
  1.7000
 21
  7.8000
 31
0.0
 0
TEXT
 8
PARTS
 10
  1.7900
 20
  7.7750
 30
0.0
 40
  0.0500
 1
NC
 0
TEXT
 8
PARTS
 10
  1.5600
 20
  7.8300
 30
0.0
 40
  0.0500
 1
10
 0
POLYLINE
 8
PARTS
 66
1
 70
1
 10
0.0
 20
0.0
 30
0.0
 0
VERTEX
 8
PARTS
 10
  1.7000
 20
  8.8000
 30
0.0
 0
VERTEX
 8
PARTS
 10
  2.7000
 20
  8.8000
 30
0.0
 0
VERTEX
 8
PARTS
 10
  2.7000
 20
  7.4000
 30
0.0
 0
VERTEX
 8
PARTS
 10
  1.7000
 20
  7.4000
 30
0.0
 0
SEQEND
 8
PARTS
 0
TEXT
 8
PARTTEXT
 10
  7.0500
 20
  3.9086
 30
0.0
 40
  0.0514
 1
U5
 0
TEXT
 8
PARTTEXT
 10
  7.0500
 20
  2.4086
 30
0.0
 40
  0.0514
 1
SN75ALS192
 0
LINE
 8
PARTS
 10
  6.7000
 20
  3.8000
 30
0.0
 11
  7.0000
 21
  3.8000
 31
0.0
 0
TEXT
 8
PARTS
 10
  7.0900
 20
  3.7750
 30
0.0
 40
  0.0500
 1
1A
 0
TEXT
 8
PARTS
 10
  6.9000
 20
  3.8300
 30
0.0
 40
  0.0500
 1
1
 0
LINE
 8
PARTS
 10
  6.7000
 20
  3.5000
 30
0.0
 11
  7.0000
 21
  3.5000
 31
0.0
 0
TEXT
 8
PARTS
 10
  7.0900
 20
  3.4750
 30
0.0
 40
  0.0500
 1
2A
 0
TEXT
 8
PARTS
 10
  6.9000
 20
  3.5300
 30
0.0
 40
  0.0500
 1
7
 0
LINE
 8
PARTS
 10
  6.7000
 20
  3.2000
 30
0.0
 11
  7.0000
 21
  3.2000
 31
0.0
 0
TEXT
 8
PARTS
 10
  7.0900
 20
  3.1750
 30
0.0
 40
  0.0500
 1
3A
 0
TEXT
 8
PARTS
 10
  6.9000
 20
  3.2300
 30
0.0
 40
  0.0500
 1
9
 0
LINE
 8
PARTS
 10
  6.7000
 20
  2.9000
 30
0.0
 11
  7.0000
 21
  2.9000
 31
0.0
 0
TEXT
 8
PARTS
 10
  7.0900
 20
  2.8750
 30
0.0
 40
  0.0500
 1
4A
 0
TEXT
 8
PARTS
 10
  6.8600
 20
  2.9300
 30
0.0
 40
  0.0500
 1
15
 0
LINE
 8
PARTS
 10
  6.7000
 20
  2.7000
 30
0.0
 11
  7.0000
 21
  2.7000
 31
0.0
 0
TEXT
 8
PARTS
 10
  7.0900
 20
  2.6750
 30
0.0
 40
  0.0500
 1
%%oG%%o
 0
TEXT
 8
PARTS
 10
  6.8600
 20
  2.7300
 30
0.0
 40
  0.0500
 1
12
 0
LINE
 8
PARTS
 10
  6.7000
 20
  2.6000
 30
0.0
 11
  7.0000
 21
  2.6000
 31
0.0
 0
TEXT
 8
PARTS
 10
  7.0900
 20
  2.5750
 30
0.0
 40
  0.0500
 1
G
 0
TEXT
 8
PARTS
 10
  6.9000
 20
  2.6300
 30
0.0
 40
  0.0500
 1
4
 0
LINE
 8
PARTS
 10
  7.9000
 20
  3.8000
 30
0.0
 11
  7.6000
 21
  3.8000
 31
0.0
 0
TEXT
 8
PARTS
 10
  7.4300
 20
  3.7750
 30
0.0
 40
  0.0500
 1
1Y
 0
TEXT
 8
PARTS
 10
  7.6600
 20
  3.8300
 30
0.0
 40
  0.0500
 1
2
 0
CIRCLE
 8
PARTS
 10
  7.6300
 20
  3.7000
 30
0.0
 40
  0.0300
 0
LINE
 8
PARTS
 10
  7.9000
 20
  3.7000
 30
0.0
 11
  7.6600
 21
  3.7000
 31
0.0
 0
TEXT
 8
PARTS
 10
  7.4300
 20
  3.6750
 30
0.0
 40
  0.0500
 1
1Z
 0
TEXT
 8
PARTS
 10
  7.6600
 20
  3.7300
 30
0.0
 40
  0.0500
 1
3
 0
LINE
 8
PARTS
 10
  7.9000
 20
  3.5000
 30
0.0
 11
  7.6000
 21
  3.5000
 31
0.0
 0
TEXT
 8
PARTS
 10
  7.4300
 20
  3.4750
 30
0.0
 40
  0.0500
 1
2Y
 0
TEXT
 8
PARTS
 10
  7.6600
 20
  3.5300
 30
0.0
 40
  0.0500
 1
6
 0
CIRCLE
 8
PARTS
 10
  7.6300
 20
  3.4000
 30
0.0
 40
  0.0300
 0
LINE
 8
PARTS
 10
  7.9000
 20
  3.4000
 30
0.0
 11
  7.6600
 21
  3.4000
 31
0.0
 0
TEXT
 8
PARTS
 10
  7.4300
 20
  3.3750
 30
0.0
 40
  0.0500
 1
2Z
 0
TEXT
 8
PARTS
 10
  7.6600
 20
  3.4300
 30
0.0
 40
  0.0500
 1
5
 0
LINE
 8
PARTS
 10
  7.9000
 20
  3.2000
 30
0.0
 11
  7.6000
 21
  3.2000
 31
0.0
 0
TEXT
 8
PARTS
 10
  7.4300
 20
  3.1750
 30
0.0
 40
  0.0500
 1
3Y
 0
TEXT
 8
PARTS
 10
  7.6600
 20
  3.2300
 30
0.0
 40
  0.0500
 1
10
 0
CIRCLE
 8
PARTS
 10
  7.6300
 20
  3.1000
 30
0.0
 40
  0.0300
 0
LINE
 8
PARTS
 10
  7.9000
 20
  3.1000
 30
0.0
 11
  7.6600
 21
  3.1000
 31
0.0
 0
TEXT
 8
PARTS
 10
  7.4300
 20
  3.0750
 30
0.0
 40
  0.0500
 1
3Z
 0
TEXT
 8
PARTS
 10
  7.6600
 20
  3.1300
 30
0.0
 40
  0.0500
 1
11
 0
LINE
 8
PARTS
 10
  7.9000
 20
  2.9000
 30
0.0
 11
  7.6000
 21
  2.9000
 31
0.0
 0
TEXT
 8
PARTS
 10
  7.4300
 20
  2.8750
 30
0.0
 40
  0.0500
 1
4Y
 0
TEXT
 8
PARTS
 10
  7.6600
 20
  2.9300
 30
0.0
 40
  0.0500
 1
14
 0
CIRCLE
 8
PARTS
 10
  7.6300
 20
  2.8000
 30
0.0
 40
  0.0300
 0
LINE
 8
PARTS
 10
  7.9000
 20
  2.8000
 30
0.0
 11
  7.6600
 21
  2.8000
 31
0.0
 0
TEXT
 8
PARTS
 10
  7.4300
 20
  2.7750
 30
0.0
 40
  0.0500
 1
4Z
 0
TEXT
 8
PARTS
 10
  7.6600
 20
  2.8300
 30
0.0
 40
  0.0500
 1
13
 0
POLYLINE
 8
PARTS
 66
1
 70
1
 10
0.0
 20
0.0
 30
0.0
 0
VERTEX
 8
PARTS
 10
  7.0000
 20
  3.9000
 30
0.0
 0
VERTEX
 8
PARTS
 10
  7.6000
 20
  3.9000
 30
0.0
 0
VERTEX
 8
PARTS
 10
  7.6000
 20
  2.5000
 30
0.0
 0
VERTEX
 8
PARTS
 10
  7.0000
 20
  2.5000
 30
0.0
 0
SEQEND
 8
PARTS
 0
TEXT
 8
PARTTEXT
 10
  7.0500
 20
  5.6086
 30
0.0
 40
  0.0514
 1
U4
 0
TEXT
 8
PARTTEXT
 10
  7.0500
 20
  4.1086
 30
0.0
 40
  0.0514
 1
SN75ALS192
 0
LINE
 8
PARTS
 10
  6.7000
 20
  5.5000
 30
0.0
 11
  7.0000
 21
  5.5000
 31
0.0
 0
TEXT
 8
PARTS
 10
  7.0900
 20
  5.4750
 30
0.0
 40
  0.0500
 1
1A
 0
TEXT
 8
PARTS
 10
  6.9000
 20
  5.5300
 30
0.0
 40
  0.0500
 1
1
 0
LINE
 8
PARTS
 10
  6.7000
 20
  5.2000
 30
0.0
 11
  7.0000
 21
  5.2000
 31
0.0
 0
TEXT
 8
PARTS
 10
  7.0900
 20
  5.1750
 30
0.0
 40
  0.0500
 1
2A
 0
TEXT
 8
PARTS
 10
  6.9000
 20
  5.2300
 30
0.0
 40
  0.0500
 1
7
 0
LINE
 8
PARTS
 10
  6.7000
 20
  4.9000
 30
0.0
 11
  7.0000
 21
  4.9000
 31
0.0
 0
TEXT
 8
PARTS
 10
  7.0900
 20
  4.8750
 30
0.0
 40
  0.0500
 1
3A
 0
TEXT
 8
PARTS
 10
  6.9000
 20
  4.9300
 30
0.0
 40
  0.0500
 1
9
 0
LINE
 8
PARTS
 10
  6.7000
 20
  4.6000
 30
0.0
 11
  7.0000
 21
  4.6000
 31
0.0
 0
TEXT
 8
PARTS
 10
  7.0900
 20
  4.5750
 30
0.0
 40
  0.0500
 1
4A
 0
TEXT
 8
PARTS
 10
  6.8600
 20
  4.6300
 30
0.0
 40
  0.0500
 1
15
 0
LINE
 8
PARTS
 10
  6.7000
 20
  4.4000
 30
0.0
 11
  7.0000
 21
  4.4000
 31
0.0
 0
TEXT
 8
PARTS
 10
  7.0900
 20
  4.3750
 30
0.0
 40
  0.0500
 1
%%oG%%o
 0
TEXT
 8
PARTS
 10
  6.8600
 20
  4.4300
 30
0.0
 40
  0.0500
 1
12
 0
LINE
 8
PARTS
 10
  6.7000
 20
  4.3000
 30
0.0
 11
  7.0000
 21
  4.3000
 31
0.0
 0
TEXT
 8
PARTS
 10
  7.0900
 20
  4.2750
 30
0.0
 40
  0.0500
 1
G
 0
TEXT
 8
PARTS
 10
  6.9000
 20
  4.3300
 30
0.0
 40
  0.0500
 1
4
 0
LINE
 8
PARTS
 10
  7.9000
 20
  5.5000
 30
0.0
 11
  7.6000
 21
  5.5000
 31
0.0
 0
TEXT
 8
PARTS
 10
  7.4300
 20
  5.4750
 30
0.0
 40
  0.0500
 1
1Y
 0
TEXT
 8
PARTS
 10
  7.6600
 20
  5.5300
 30
0.0
 40
  0.0500
 1
2
 0
CIRCLE
 8
PARTS
 10
  7.6300
 20
  5.4000
 30
0.0
 40
  0.0300
 0
LINE
 8
PARTS
 10
  7.9000
 20
  5.4000
 30
0.0
 11
  7.6600
 21
  5.4000
 31
0.0
 0
TEXT
 8
PARTS
 10
  7.4300
 20
  5.3750
 30
0.0
 40
  0.0500
 1
1Z
 0
TEXT
 8
PARTS
 10
  7.6600
 20
  5.4300
 30
0.0
 40
  0.0500
 1
3
 0
LINE
 8
PARTS
 10
  7.9000
 20
  5.2000
 30
0.0
 11
  7.6000
 21
  5.2000
 31
0.0
 0
TEXT
 8
PARTS
 10
  7.4300
 20
  5.1750
 30
0.0
 40
  0.0500
 1
2Y
 0
TEXT
 8
PARTS
 10
  7.6600
 20
  5.2300
 30
0.0
 40
  0.0500
 1
6
 0
CIRCLE
 8
PARTS
 10
  7.6300
 20
  5.1000
 30
0.0
 40
  0.0300
 0
LINE
 8
PARTS
 10
  7.9000
 20
  5.1000
 30
0.0
 11
  7.6600
 21
  5.1000
 31
0.0
 0
TEXT
 8
PARTS
 10
  7.4300
 20
  5.0750
 30
0.0
 40
  0.0500
 1
2Z
 0
TEXT
 8
PARTS
 10
  7.6600
 20
  5.1300
 30
0.0
 40
  0.0500
 1
5
 0
LINE
 8
PARTS
 10
  7.9000
 20
  4.9000
 30
0.0
 11
  7.6000
 21
  4.9000
 31
0.0
 0
TEXT
 8
PARTS
 10
  7.4300
 20
  4.8750
 30
0.0
 40
  0.0500
 1
3Y
 0
TEXT
 8
PARTS
 10
  7.6600
 20
  4.9300
 30
0.0
 40
  0.0500
 1
10
 0
CIRCLE
 8
PARTS
 10
  7.6300
 20
  4.8000
 30
0.0
 40
  0.0300
 0
LINE
 8
PARTS
 10
  7.9000
 20
  4.8000
 30
0.0
 11
  7.6600
 21
  4.8000
 31
0.0
 0
TEXT
 8
PARTS
 10
  7.4300
 20
  4.7750
 30
0.0
 40
  0.0500
 1
3Z
 0
TEXT
 8
PARTS
 10
  7.6600
 20
  4.8300
 30
0.0
 40
  0.0500
 1
11
 0
LINE
 8
PARTS
 10
  7.9000
 20
  4.6000
 30
0.0
 11
  7.6000
 21
  4.6000
 31
0.0
 0
TEXT
 8
PARTS
 10
  7.4300
 20
  4.5750
 30
0.0
 40
  0.0500
 1
4Y
 0
TEXT
 8
PARTS
 10
  7.6600
 20
  4.6300
 30
0.0
 40
  0.0500
 1
14
 0
CIRCLE
 8
PARTS
 10
  7.6300
 20
  4.5000
 30
0.0
 40
  0.0300
 0
LINE
 8
PARTS
 10
  7.9000
 20
  4.5000
 30
0.0
 11
  7.6600
 21
  4.5000
 31
0.0
 0
TEXT
 8
PARTS
 10
  7.4300
 20
  4.4750
 30
0.0
 40
  0.0500
 1
4Z
 0
TEXT
 8
PARTS
 10
  7.6600
 20
  4.5300
 30
0.0
 40
  0.0500
 1
13
 0
POLYLINE
 8
PARTS
 66
1
 70
1
 10
0.0
 20
0.0
 30
0.0
 0
VERTEX
 8
PARTS
 10
  7.0000
 20
  5.6000
 30
0.0
 0
VERTEX
 8
PARTS
 10
  7.6000
 20
  5.6000
 30
0.0
 0
VERTEX
 8
PARTS
 10
  7.6000
 20
  4.2000
 30
0.0
 0
VERTEX
 8
PARTS
 10
  7.0000
 20
  4.2000
 30
0.0
 0
SEQEND
 8
PARTS
 0
LINE
 8
PARTS
 10
 10.4000
 20
  4.8000
 30
0.0
 11
 10.5000
 21
  4.8000
 31
0.0
 0
TEXT
 8
PARTS
 10
 10.4400
 20
  4.8300
 30
0.0
 40
  0.0500
 1

 0
LINE
 8
PARTS
 10
 10.9000
 20
  4.8000
 30
0.0
 11
 10.8000
 21
  4.8000
 31
0.0
 0
TEXT
 8
PARTS
 10
 10.8600
 20
  4.8300
 30
0.0
 40
  0.0500
 1

 0
POLYLINE
 8
PARTS
 66
1
 10
0.0
 20
0.0
 30
0.0
 0
VERTEX
 8
PARTS
 10
 10.5000
 20
  4.8000
 30
0.0
 0
VERTEX
 8
PARTS
 10
 10.5300
 20
  4.8300
 30
0.0
 0
SEQEND
 8
PARTS
 0
POLYLINE
 8
PARTS
 66
1
 10
0.0
 20
0.0
 30
0.0
 0
VERTEX
 8
PARTS
 10
 10.5300
 20
  4.8300
 30
0.0
 0
VERTEX
 8
PARTS
 10
 10.5900
 20
  4.7700
 30
0.0
 0
SEQEND
 8
PARTS
 0
POLYLINE
 8
PARTS
 66
1
 10
0.0
 20
0.0
 30
0.0
 0
VERTEX
 8
PARTS
 10
 10.5900
 20
  4.7700
 30
0.0
 0
VERTEX
 8
PARTS
 10
 10.6500
 20
  4.8300
 30
0.0
 0
SEQEND
 8
PARTS
 0
POLYLINE
 8
PARTS
 66
1
 10
0.0
 20
0.0
 30
0.0
 0
VERTEX
 8
PARTS
 10
 10.6500
 20
  4.8300
 30
0.0
 0
VERTEX
 8
PARTS
 10
 10.7100
 20
  4.7700
 30
0.0
 0
SEQEND
 8
PARTS
 0
POLYLINE
 8
PARTS
 66
1
 10
0.0
 20
0.0
 30
0.0
 0
VERTEX
 8
PARTS
 10
 10.7100
 20
  4.7700
 30
0.0
 0
VERTEX
 8
PARTS
 10
 10.7700
 20
  4.8300
 30
0.0
 0
SEQEND
 8
PARTS
 0
POLYLINE
 8
PARTS
 66
1
 10
0.0
 20
0.0
 30
0.0
 0
VERTEX
 8
PARTS
 10
 10.7700
 20
  4.8300
 30
0.0
 0
VERTEX
 8
PARTS
 10
 10.8000
 20
  4.8000
 30
0.0
 0
SEQEND
 8
PARTS
 0
LINE
 8
PARTS
 10
 10.4000
 20
  4.2000
 30
0.0
 11
 10.5000
 21
  4.2000
 31
0.0
 0
TEXT
 8
PARTS
 10
 10.4400
 20
  4.2300
 30
0.0
 40
  0.0500
 1

 0
LINE
 8
PARTS
 10
 10.9000
 20
  4.2000
 30
0.0
 11
 10.8000
 21
  4.2000
 31
0.0
 0
TEXT
 8
PARTS
 10
 10.8600
 20
  4.2300
 30
0.0
 40
  0.0500
 1

 0
POLYLINE
 8
PARTS
 66
1
 10
0.0
 20
0.0
 30
0.0
 0
VERTEX
 8
PARTS
 10
 10.5000
 20
  4.2000
 30
0.0
 0
VERTEX
 8
PARTS
 10
 10.5300
 20
  4.2300
 30
0.0
 0
SEQEND
 8
PARTS
 0
POLYLINE
 8
PARTS
 66
1
 10
0.0
 20
0.0
 30
0.0
 0
VERTEX
 8
PARTS
 10
 10.5300
 20
  4.2300
 30
0.0
 0
VERTEX
 8
PARTS
 10
 10.5900
 20
  4.1700
 30
0.0
 0
SEQEND
 8
PARTS
 0
POLYLINE
 8
PARTS
 66
1
 10
0.0
 20
0.0
 30
0.0
 0
VERTEX
 8
PARTS
 10
 10.5900
 20
  4.1700
 30
0.0
 0
VERTEX
 8
PARTS
 10
 10.6500
 20
  4.2300
 30
0.0
 0
SEQEND
 8
PARTS
 0
POLYLINE
 8
PARTS
 66
1
 10
0.0
 20
0.0
 30
0.0
 0
VERTEX
 8
PARTS
 10
 10.6500
 20
  4.2300
 30
0.0
 0
VERTEX
 8
PARTS
 10
 10.7100
 20
  4.1700
 30
0.0
 0
SEQEND
 8
PARTS
 0
POLYLINE
 8
PARTS
 66
1
 10
0.0
 20
0.0
 30
0.0
 0
VERTEX
 8
PARTS
 10
 10.7100
 20
  4.1700
 30
0.0
 0
VERTEX
 8
PARTS
 10
 10.7700
 20
  4.2300
 30
0.0
 0
SEQEND
 8
PARTS
 0
POLYLINE
 8
PARTS
 66
1
 10
0.0
 20
0.0
 30
0.0
 0
VERTEX
 8
PARTS
 10
 10.7700
 20
  4.2300
 30
0.0
 0
VERTEX
 8
PARTS
 10
 10.8000
 20
  4.2000
 30
0.0
 0
SEQEND
 8
PARTS
 0
LINE
 8
PARTS
 10
 10.4000
 20
  4.5000
 30
0.0
 11
 10.5000
 21
  4.5000
 31
0.0
 0
TEXT
 8
PARTS
 10
 10.4400
 20
  4.5300
 30
0.0
 40
  0.0500
 1

 0
LINE
 8
PARTS
 10
 10.9000
 20
  4.5000
 30
0.0
 11
 10.8000
 21
  4.5000
 31
0.0
 0
TEXT
 8
PARTS
 10
 10.8600
 20
  4.5300
 30
0.0
 40
  0.0500
 1

 0
POLYLINE
 8
PARTS
 66
1
 10
0.0
 20
0.0
 30
0.0
 0
VERTEX
 8
PARTS
 10
 10.5000
 20
  4.5000
 30
0.0
 0
VERTEX
 8
PARTS
 10
 10.5300
 20
  4.5300
 30
0.0
 0
SEQEND
 8
PARTS
 0
POLYLINE
 8
PARTS
 66
1
 10
0.0
 20
0.0
 30
0.0
 0
VERTEX
 8
PARTS
 10
 10.5300
 20
  4.5300
 30
0.0
 0
VERTEX
 8
PARTS
 10
 10.5900
 20
  4.4700
 30
0.0
 0
SEQEND
 8
PARTS
 0
POLYLINE
 8
PARTS
 66
1
 10
0.0
 20
0.0
 30
0.0
 0
VERTEX
 8
PARTS
 10
 10.5900
 20
  4.4700
 30
0.0
 0
VERTEX
 8
PARTS
 10
 10.6500
 20
  4.5300
 30
0.0
 0
SEQEND
 8
PARTS
 0
POLYLINE
 8
PARTS
 66
1
 10
0.0
 20
0.0
 30
0.0
 0
VERTEX
 8
PARTS
 10
 10.6500
 20
  4.5300
 30
0.0
 0
VERTEX
 8
PARTS
 10
 10.7100
 20
  4.4700
 30
0.0
 0
SEQEND
 8
PARTS
 0
POLYLINE
 8
PARTS
 66
1
 10
0.0
 20
0.0
 30
0.0
 0
VERTEX
 8
PARTS
 10
 10.7100
 20
  4.4700
 30
0.0
 0
VERTEX
 8
PARTS
 10
 10.7700
 20
  4.5300
 30
0.0
 0
SEQEND
 8
PARTS
 0
POLYLINE
 8
PARTS
 66
1
 10
0.0
 20
0.0
 30
0.0
 0
VERTEX
 8
PARTS
 10
 10.7700
 20
  4.5300
 30
0.0
 0
VERTEX
 8
PARTS
 10
 10.8000
 20
  4.5000
 30
0.0
 0
SEQEND
 8
PARTS
 0
TEXT
 8
PARTTEXT
 10
 11.3500
 20
  9.0086
 30
0.0
 40
  0.0514
 1
U7
 0
TEXT
 8
PARTTEXT
 10
 11.3500
 20
  7.4086
 30
0.0
 40
  0.0514
 1
SN75ALS193
 0
LINE
 8
PARTS
 10
 11.0000
 20
  8.9000
 30
0.0
 11
 11.3000
 21
  8.9000
 31
0.0
 0
TEXT
 8
PARTS
 10
 11.3900
 20
  8.8750
 30
0.0
 40
  0.0500
 1
1A
 0
TEXT
 8
PARTS
 10
 11.2000
 20
  8.9300
 30
0.0
 40
  0.0500
 1
2
 0
CIRCLE
 8
PARTS
 10
 11.2700
 20
  8.8000
 30
0.0
 40
  0.0300
 0
LINE
 8
PARTS
 10
 11.0000
 20
  8.8000
 30
0.0
 11
 11.2400
 21
  8.8000
 31
0.0
 0
TEXT
 8
PARTS
 10
 11.3900
 20
  8.7750
 30
0.0
 40
  0.0500
 1
1B
 0
TEXT
 8
PARTS
 10
 11.2000
 20
  8.8300
 30
0.0
 40
  0.0500
 1
1
 0
LINE
 8
PARTS
 10
 11.0000
 20
  8.6000
 30
0.0
 11
 11.3000
 21
  8.6000
 31
0.0
 0
TEXT
 8
PARTS
 10
 11.3900
 20
  8.5750
 30
0.0
 40
  0.0500
 1
2A
 0
TEXT
 8
PARTS
 10
 11.2000
 20
  8.6300
 30
0.0
 40
  0.0500
 1
6
 0
CIRCLE
 8
PARTS
 10
 11.2700
 20
  8.5000
 30
0.0
 40
  0.0300
 0
LINE
 8
PARTS
 10
 11.0000
 20
  8.5000
 30
0.0
 11
 11.2400
 21
  8.5000
 31
0.0
 0
TEXT
 8
PARTS
 10
 11.3900
 20
  8.4750
 30
0.0
 40
  0.0500
 1
2B
 0
TEXT
 8
PARTS
 10
 11.2000
 20
  8.5300
 30
0.0
 40
  0.0500
 1
7
 0
LINE
 8
PARTS
 10
 11.0000
 20
  8.3000
 30
0.0
 11
 11.3000
 21
  8.3000
 31
0.0
 0
TEXT
 8
PARTS
 10
 11.3900
 20
  8.2750
 30
0.0
 40
  0.0500
 1
3A
 0
TEXT
 8
PARTS
 10
 11.1600
 20
  8.3300
 30
0.0
 40
  0.0500
 1
10
 0
CIRCLE
 8
PARTS
 10
 11.2700
 20
  8.2000
 30
0.0
 40
  0.0300
 0
LINE
 8
PARTS
 10
 11.0000
 20
  8.2000
 30
0.0
 11
 11.2400
 21
  8.2000
 31
0.0
 0
TEXT
 8
PARTS
 10
 11.3900
 20
  8.1750
 30
0.0
 40
  0.0500
 1
3B
 0
TEXT
 8
PARTS
 10
 11.2000
 20
  8.2300
 30
0.0
 40
  0.0500
 1
9
 0
LINE
 8
PARTS
 10
 11.0000
 20
  8.0000
 30
0.0
 11
 11.3000
 21
  8.0000
 31
0.0
 0
TEXT
 8
PARTS
 10
 11.3900
 20
  7.9750
 30
0.0
 40
  0.0500
 1
4A
 0
TEXT
 8
PARTS
 10
 11.1600
 20
  8.0300
 30
0.0
 40
  0.0500
 1
14
 0
CIRCLE
 8
PARTS
 10
 11.2700
 20
  7.9000
 30
0.0
 40
  0.0300
 0
LINE
 8
PARTS
 10
 11.0000
 20
  7.9000
 30
0.0
 11
 11.2400
 21
  7.9000
 31
0.0
 0
TEXT
 8
PARTS
 10
 11.3900
 20
  7.8750
 30
0.0
 40
  0.0500
 1
4B
 0
TEXT
 8
PARTS
 10
 11.1600
 20
  7.9300
 30
0.0
 40
  0.0500
 1
15
 0
LINE
 8
PARTS
 10
 11.0000
 20
  7.7000
 30
0.0
 11
 11.3000
 21
  7.7000
 31
0.0
 0
TEXT
 8
PARTS
 10
 11.3900
 20
  7.6750
 30
0.0
 40
  0.0500
 1
%%oG%%o
 0
TEXT
 8
PARTS
 10
 11.1600
 20
  7.7300
 30
0.0
 40
  0.0500
 1
12
 0
LINE
 8
PARTS
 10
 11.0000
 20
  7.6000
 30
0.0
 11
 11.3000
 21
  7.6000
 31
0.0
 0
TEXT
 8
PARTS
 10
 11.3900
 20
  7.5750
 30
0.0
 40
  0.0500
 1
G
 0
TEXT
 8
PARTS
 10
 11.2000
 20
  7.6300
 30
0.0
 40
  0.0500
 1
4
 0
LINE
 8
PARTS
 10
 12.2000
 20
  8.9000
 30
0.0
 11
 11.9000
 21
  8.9000
 31
0.0
 0
TEXT
 8
PARTS
 10
 11.7300
 20
  8.8750
 30
0.0
 40
  0.0500
 1
1Y
 0
TEXT
 8
PARTS
 10
 11.9600
 20
  8.9300
 30
0.0
 40
  0.0500
 1
3
 0
LINE
 8
PARTS
 10
 12.2000
 20
  8.6000
 30
0.0
 11
 11.9000
 21
  8.6000
 31
0.0
 0
TEXT
 8
PARTS
 10
 11.7300
 20
  8.5750
 30
0.0
 40
  0.0500
 1
2Y
 0
TEXT
 8
PARTS
 10
 11.9600
 20
  8.6300
 30
0.0
 40
  0.0500
 1
5
 0
LINE
 8
PARTS
 10
 12.2000
 20
  8.3000
 30
0.0
 11
 11.9000
 21
  8.3000
 31
0.0
 0
TEXT
 8
PARTS
 10
 11.7300
 20
  8.2750
 30
0.0
 40
  0.0500
 1
3Y
 0
TEXT
 8
PARTS
 10
 11.9600
 20
  8.3300
 30
0.0
 40
  0.0500
 1
11
 0
LINE
 8
PARTS
 10
 12.2000
 20
  8.0000
 30
0.0
 11
 11.9000
 21
  8.0000
 31
0.0
 0
TEXT
 8
PARTS
 10
 11.7300
 20
  7.9750
 30
0.0
 40
  0.0500
 1
4Y
 0
TEXT
 8
PARTS
 10
 11.9600
 20
  8.0300
 30
0.0
 40
  0.0500
 1
13
 0
POLYLINE
 8
PARTS
 66
1
 70
1
 10
0.0
 20
0.0
 30
0.0
 0
VERTEX
 8
PARTS
 10
 11.3000
 20
  9.0000
 30
0.0
 0
VERTEX
 8
PARTS
 10
 11.9000
 20
  9.0000
 30
0.0
 0
VERTEX
 8
PARTS
 10
 11.9000
 20
  7.5000
 30
0.0
 0
VERTEX
 8
PARTS
 10
 11.3000
 20
  7.5000
 30
0.0
 0
SEQEND
 8
PARTS
 0
POLYLINE
 8
WIRE
 66
1
 10
0.0
 20
0.0
 30
0.0
 0
VERTEX
 8
WIRE
 10
  6.3000
 20
  8.9000
 30
0.0
 0
VERTEX
 8
WIRE
 10
  6.7000
 20
  8.9000
 30
0.0
 0
SEQEND
 8
WIRE
 0
TEXT
 8
WIRETEXT
 10
  6.4000
 20
  8.9300
 30
0.0
 40
  0.0514
 1
D0
 0
POLYLINE
 8
WIRE
 66
1
 10
0.0
 20
0.0
 30
0.0
 0
VERTEX
 8
WIRE
 10
  7.9000
 20
  8.9000
 30
0.0
 0
VERTEX
 8
WIRE
 10
  8.4000
 20
  8.9000
 30
0.0
 0
SEQEND
 8
WIRE
 0
TEXT
 8
WIRETEXT
 10
  8.0000
 20
  8.9300
 30
0.0
 40
  0.0514
 1
IO1
 0
POLYLINE
 8
WIRE
 66
1
 10
0.0
 20
0.0
 30
0.0
 0
VERTEX
 8
WIRE
 10
  7.9000
 20
  8.8000
 30
0.0
 0
VERTEX
 8
WIRE
 10
  8.4000
 20
  8.8000
 30
0.0
 0
SEQEND
 8
WIRE
 0
TEXT
 8
WIRETEXT
 10
  8.0000
 20
  8.8300
 30
0.0
 40
  0.0514
 1
IO2
 0
POLYLINE
 8
WIRE
 66
1
 10
0.0
 20
0.0
 30
0.0
 0
VERTEX
 8
WIRE
 10
  0.8000
 20
  8.7000
 30
0.0
 0
VERTEX
 8
WIRE
 10
  1.4000
 20
  8.7000
 30
0.0
 0
SEQEND
 8
WIRE
 0
TEXT
 8
WIRETEXT
 10
  1.1000
 20
  8.7300
 30
0.0
 40
  0.0514
 1
CLK
 0
POLYLINE
 8
WIRE
 66
1
 10
0.0
 20
0.0
 30
0.0
 0
VERTEX
 8
WIRE
 10
  3.0000
 20
  8.7000
 30
0.0
 0
VERTEX
 8
WIRE
 10
  3.6000
 20
  8.7000
 30
0.0
 0
SEQEND
 8
WIRE
 0
TEXT
 8
WIRETEXT
 10
  3.0000
 20
  8.7300
 30
0.0
 40
  0.0514
 1
STROBE
 0
POLYLINE
 8
WIRE
 66
1
 10
0.0
 20
0.0
 30
0.0
 0
VERTEX
 8
WIRE
 10
  0.8000
 20
  8.6000
 30
0.0
 0
VERTEX
 8
WIRE
 10
  1.4000
 20
  8.6000
 30
0.0
 0
SEQEND
 8
WIRE
 0
TEXT
 8
WIRETEXT
 10
  0.9000
 20
  8.6300
 30
0.0
 40
  0.0514
 1
IOSel*
 0
POLYLINE
 8
WIRE
 66
1
 10
0.0
 20
0.0
 30
0.0
 0
VERTEX
 8
WIRE
 10
  3.0000
 20
  8.6000
 30
0.0
 0
VERTEX
 8
WIRE
 10
  3.6000
 20
  8.6000
 30
0.0
 0
SEQEND
 8
WIRE
 0
TEXT
 8
WIRETEXT
 10
  3.0000
 20
  8.6300
 30
0.0
 40
  0.0514
 1
RDStat*
 0
POLYLINE
 8
WIRE
 66
1
 10
0.0
 20
0.0
 30
0.0
 0
VERTEX
 8
WIRE
 10
  6.3000
 20
  8.6000
 30
0.0
 0
VERTEX
 8
WIRE
 10
  6.7000
 20
  8.6000
 30
0.0
 0
SEQEND
 8
WIRE
 0
TEXT
 8
WIRETEXT
 10
  6.4000
 20
  8.6300
 30
0.0
 40
  0.0514
 1
D1
 0
POLYLINE
 8
WIRE
 66
1
 10
0.0
 20
0.0
 30
0.0
 0
VERTEX
 8
WIRE
 10
  7.9000
 20
  8.6000
 30
0.0
 0
VERTEX
 8
WIRE
 10
  8.4000
 20
  8.6000
 30
0.0
 0
SEQEND
 8
WIRE
 0
TEXT
 8
WIRETEXT
 10
  8.0000
 20
  8.6300
 30
0.0
 40
  0.0514
 1
IO3
 0
POLYLINE
 8
WIRE
 66
1
 10
0.0
 20
0.0
 30
0.0
 0
VERTEX
 8
WIRE
 10
  0.8000
 20
  8.5000
 30
0.0
 0
VERTEX
 8
WIRE
 10
  1.4000
 20
  8.5000
 30
0.0
 0
SEQEND
 8
WIRE
 0
TEXT
 8
WIRETEXT
 10
  0.8000
 20
  8.5300
 30
0.0
 40
  0.0514
 1
IntSel*
 0
POLYLINE
 8
WIRE
 66
1
 10
0.0
 20
0.0
 30
0.0
 0
VERTEX
 8
WIRE
 10
  7.9000
 20
  8.5000
 30
0.0
 0
VERTEX
 8
WIRE
 10
  8.4000
 20
  8.5000
 30
0.0
 0
SEQEND
 8
WIRE
 0
TEXT
 8
WIRETEXT
 10
  8.0000
 20
  8.5300
 30
0.0
 40
  0.0514
 1
IO4
 0
POLYLINE
 8
WIRE
 66
1
 10
0.0
 20
0.0
 30
0.0
 0
VERTEX
 8
WIRE
 10
  0.8000
 20
  8.4000
 30
0.0
 0
VERTEX
 8
WIRE
 10
  1.4000
 20
  8.4000
 30
0.0
 0
SEQEND
 8
WIRE
 0
TEXT
 8
WIRETEXT
 10
  0.9000
 20
  8.4300
 30
0.0
 40
  0.0514
 1
IDSel*
 0
POLYLINE
 8
WIRE
 66
1
 10
0.0
 20
0.0
 30
0.0
 0
VERTEX
 8
WIRE
 10
  3.0000
 20
  8.4000
 30
0.0
 0
VERTEX
 8
WIRE
 10
  3.6000
 20
  8.4000
 30
0.0
 0
SEQEND
 8
WIRE
 0
TEXT
 8
WIRETEXT
 10
  3.0000
 20
  8.4300
 30
0.0
 40
  0.0514
 1
D0
 0
POLYLINE
 8
WIRE
 66
1
 10
0.0
 20
0.0
 30
0.0
 0
VERTEX
 8
WIRE
 10
  0.8000
 20
  8.3000
 30
0.0
 0
VERTEX
 8
WIRE
 10
  1.4000
 20
  8.3000
 30
0.0
 0
SEQEND
 8
WIRE
 0
TEXT
 8
WIRETEXT
 10
  1.2000
 20
  8.3300
 30
0.0
 40
  0.0514
 1
RW
 0
POLYLINE
 8
WIRE
 66
1
 10
0.0
 20
0.0
 30
0.0
 0
VERTEX
 8
WIRE
 10
  3.0000
 20
  8.3000
 30
0.0
 0
VERTEX
 8
WIRE
 10
  3.6000
 20
  8.3000
 30
0.0
 0
SEQEND
 8
WIRE
 0
TEXT
 8
WIRETEXT
 10
  3.0000
 20
  8.3300
 30
0.0
 40
  0.0514
 1
Ack*
 0
POLYLINE
 8
WIRE
 66
1
 10
0.0
 20
0.0
 30
0.0
 0
VERTEX
 8
WIRE
 10
  6.3000
 20
  8.3000
 30
0.0
 0
VERTEX
 8
WIRE
 10
  6.7000
 20
  8.3000
 30
0.0
 0
SEQEND
 8
WIRE
 0
TEXT
 8
WIRETEXT
 10
  6.4000
 20
  8.3300
 30
0.0
 40
  0.0514
 1
D2
 0
POLYLINE
 8
WIRE
 66
1
 10
0.0
 20
0.0
 30
0.0
 0
VERTEX
 8
WIRE
 10
  7.9000
 20
  8.3000
 30
0.0
 0
VERTEX
 8
WIRE
 10
  8.4000
 20
  8.3000
 30
0.0
 0
SEQEND
 8
WIRE
 0
TEXT
 8
WIRETEXT
 10
  8.0000
 20
  8.3300
 30
0.0
 40
  0.0514
 1
IO5
 0
POLYLINE
 8
WIRE
 66
1
 10
0.0
 20
0.0
 30
0.0
 0
VERTEX
 8
WIRE
 10
  9.8000
 20
  8.3000
 30
0.0
 0
VERTEX
 8
WIRE
 10
 11.0000
 20
  8.3000
 30
0.0
 0
SEQEND
 8
WIRE
 0
TEXT
 8
WIRETEXT
 10
  9.9000
 20
  8.3300
 30
0.0
 40
  0.0514
 1
IO35
 0
POLYLINE
 8
WIRE
 66
1
 10
0.0
 20
0.0
 30
0.0
 0
VERTEX
 8
WIRE
 10
 12.2000
 20
  8.3000
 30
0.0
 0
VERTEX
 8
WIRE
 10
 12.9000
 20
  8.3000
 30
0.0
 0
SEQEND
 8
WIRE
 0
TEXT
 8
WIRETEXT
 10
 12.2000
 20
  8.3300
 30
0.0
 40
  0.0514
 1
INT0*
 0
POLYLINE
 8
WIRE
 66
1
 10
0.0
 20
0.0
 30
0.0
 0
VERTEX
 8
WIRE
 10
  0.8000
 20
  8.2000
 30
0.0
 0
VERTEX
 8
WIRE
 10
  1.4000
 20
  8.2000
 30
0.0
 0
SEQEND
 8
WIRE
 0
TEXT
 8
WIRETEXT
 10
  0.9000
 20
  8.2300
 30
0.0
 40
  0.0514
 1
Reset*
 0
POLYLINE
 8
WIRE
 66
1
 10
0.0
 20
0.0
 30
0.0
 0
VERTEX
 8
WIRE
 10
  7.9000
 20
  8.2000
 30
0.0
 0
VERTEX
 8
WIRE
 10
  8.4000
 20
  8.2000
 30
0.0
 0
SEQEND
 8
WIRE
 0
TEXT
 8
WIRETEXT
 10
  8.0000
 20
  8.2300
 30
0.0
 40
  0.0514
 1
IO6
 0
POLYLINE
 8
WIRE
 66
1
 10
0.0
 20
0.0
 30
0.0
 0
VERTEX
 8
WIRE
 10
  9.8000
 20
  8.2000
 30
0.0
 0
VERTEX
 8
WIRE
 10
 10.3000
 20
  8.2000
 30
0.0
 0
SEQEND
 8
WIRE
 0
TEXT
 8
WIRETEXT
 10
  9.9000
 20
  8.2300
 30
0.0
 40
  0.0514
 1
IO36
 0
POLYLINE
 8
WIRE
 66
1
 10
0.0
 20
0.0
 30
0.0
 0
VERTEX
 8
WIRE
 10
 10.9000
 20
  8.2000
 30
0.0
 0
VERTEX
 8
WIRE
 10
 11.0000
 20
  8.2000
 30
0.0
 0
SEQEND
 8
WIRE
 0
POLYLINE
 8
WIRE
 66
1
 10
0.0
 20
0.0
 30
0.0
 0
VERTEX
 8
WIRE
 10
  0.8000
 20
  8.1000
 30
0.0
 0
VERTEX
 8
WIRE
 10
  1.4000
 20
  8.1000
 30
0.0
 0
SEQEND
 8
WIRE
 0
TEXT
 8
WIRETEXT
 10
  1.2000
 20
  8.1300
 30
0.0
 40
  0.0514
 1
A1
 0
POLYLINE
 8
WIRE
 66
1
 10
0.0
 20
0.0
 30
0.0
 0
VERTEX
 8
WIRE
 10
 10.3000
 20
  8.1000
 30
0.0
 0
VERTEX
 8
WIRE
 10
 10.9000
 20
  8.1000
 30
0.0
 0
SEQEND
 8
WIRE
 0
POLYLINE
 8
WIRE
 66
1
 10
0.0
 20
0.0
 30
0.0
 0
VERTEX
 8
WIRE
 10
  0.8000
 20
  8.0000
 30
0.0
 0
VERTEX
 8
WIRE
 10
  1.4000
 20
  8.0000
 30
0.0
 0
SEQEND
 8
WIRE
 0
TEXT
 8
WIRETEXT
 10
  1.1000
 20
  8.0300
 30
0.0
 40
  0.0514
 1
GND
 0
POLYLINE
 8
WIRE
 66
1
 10
0.0
 20
0.0
 30
0.0
 0
VERTEX
 8
WIRE
 10
  6.3000
 20
  8.0000
 30
0.0
 0
VERTEX
 8
WIRE
 10
  6.7000
 20
  8.0000
 30
0.0
 0
SEQEND
 8
WIRE
 0
TEXT
 8
WIRETEXT
 10
  6.4000
 20
  8.0300
 30
0.0
 40
  0.0514
 1
D3
 0
POLYLINE
 8
WIRE
 66
1
 10
0.0
 20
0.0
 30
0.0
 0
VERTEX
 8
WIRE
 10
  7.9000
 20
  8.0000
 30
0.0
 0
VERTEX
 8
WIRE
 10
  8.4000
 20
  8.0000
 30
0.0
 0
SEQEND
 8
WIRE
 0
TEXT
 8
WIRETEXT
 10
  8.0000
 20
  8.0300
 30
0.0
 40
  0.0514
 1
IO7
 0
POLYLINE
 8
WIRE
 66
1
 10
0.0
 20
0.0
 30
0.0
 0
VERTEX
 8
WIRE
 10
  9.8000
 20
  8.0000
 30
0.0
 0
VERTEX
 8
WIRE
 10
 11.0000
 20
  8.0000
 30
0.0
 0
SEQEND
 8
WIRE
 0
TEXT
 8
WIRETEXT
 10
  9.9000
 20
  8.0300
 30
0.0
 40
  0.0514
 1
IO37
 0
POLYLINE
 8
WIRE
 66
1
 10
0.0
 20
0.0
 30
0.0
 0
VERTEX
 8
WIRE
 10
 12.2000
 20
  8.0000
 30
0.0
 0
VERTEX
 8
WIRE
 10
 12.9000
 20
  8.0000
 30
0.0
 0
SEQEND
 8
WIRE
 0
TEXT
 8
WIRETEXT
 10
 12.2000
 20
  8.0300
 30
0.0
 40
  0.0514
 1
INT1*
 0
POLYLINE
 8
WIRE
 66
1
 10
0.0
 20
0.0
 30
0.0
 0
VERTEX
 8
WIRE
 10
  0.8000
 20
  7.9000
 30
0.0
 0
VERTEX
 8
WIRE
 10
  1.4000
 20
  7.9000
 30
0.0
 0
SEQEND
 8
WIRE
 0
TEXT
 8
WIRETEXT
 10
  1.1000
 20
  7.9300
 30
0.0
 40
  0.0514
 1
GND
 0
POLYLINE
 8
WIRE
 66
1
 10
0.0
 20
0.0
 30
0.0
 0
VERTEX
 8
WIRE
 10
  3.0000
 20
  7.9000
 30
0.0
 0
VERTEX
 8
WIRE
 10
  3.7000
 20
  7.9000
 30
0.0
 0
SEQEND
 8
WIRE
 0
TEXT
 8
WIRETEXT
 10
  3.0000
 20
  7.9300
 30
0.0
 40
  0.0514
 1
IntReq0*
 0
POLYLINE
 8
WIRE
 66
1
 10
0.0
 20
0.0
 30
0.0
 0
VERTEX
 8
WIRE
 10
  7.9000
 20
  7.9000
 30
0.0
 0
VERTEX
 8
WIRE
 10
  8.4000
 20
  7.9000
 30
0.0
 0
SEQEND
 8
WIRE
 0
TEXT
 8
WIRETEXT
 10
  8.0000
 20
  7.9300
 30
0.0
 40
  0.0514
 1
IO8
 0
POLYLINE
 8
WIRE
 66
1
 10
0.0
 20
0.0
 30
0.0
 0
VERTEX
 8
WIRE
 10
  9.8000
 20
  7.9000
 30
0.0
 0
VERTEX
 8
WIRE
 10
 10.3000
 20
  7.9000
 30
0.0
 0
SEQEND
 8
WIRE
 0
TEXT
 8
WIRETEXT
 10
  9.9000
 20
  7.9300
 30
0.0
 40
  0.0514
 1
IO38
 0
POLYLINE
 8
WIRE
 66
1
 10
0.0
 20
0.0
 30
0.0
 0
VERTEX
 8
WIRE
 10
 10.9000
 20
  7.9000
 30
0.0
 0
VERTEX
 8
WIRE
 10
 11.0000
 20
  7.9000
 30
0.0
 0
SEQEND
 8
WIRE
 0
POLYLINE
 8
WIRE
 66
1
 10
0.0
 20
0.0
 30
0.0
 0
VERTEX
 8
WIRE
 10
  0.8000
 20
  7.8000
 30
0.0
 0
VERTEX
 8
WIRE
 10
  1.4000
 20
  7.8000
 30
0.0
 0
SEQEND
 8
WIRE
 0
TEXT
 8
WIRETEXT
 10
  1.1000
 20
  7.8300
 30
0.0
 40
  0.0514
 1
GND
 0
POLYLINE
 8
WIRE
 66
1
 10
0.0
 20
0.0
 30
0.0
 0
VERTEX
 8
WIRE
 10
  3.0000
 20
  7.8000
 30
0.0
 0
VERTEX
 8
WIRE
 10
  3.7000
 20
  7.8000
 30
0.0
 0
SEQEND
 8
WIRE
 0
TEXT
 8
WIRETEXT
 10
  3.0000
 20
  7.8300
 30
0.0
 40
  0.0514
 1
IntReq1*
 0
POLYLINE
 8
WIRE
 66
1
 10
0.0
 20
0.0
 30
0.0
 0
VERTEX
 8
WIRE
 10
 10.3000
 20
  7.8000
 30
0.0
 0
VERTEX
 8
WIRE
 10
 10.9000
 20
  7.8000
 30
0.0
 0
SEQEND
 8
WIRE
 0
POLYLINE
 8
WIRE
 66
1
 10
0.0
 20
0.0
 30
0.0
 0
VERTEX
 8
WIRE
 10
  0.8000
 20
  7.7000
 30
0.0
 0
VERTEX
 8
WIRE
 10
  1.4000
 20
  7.7000
 30
0.0
 0
SEQEND
 8
WIRE
 0
TEXT
 8
WIRETEXT
 10
  1.0000
 20
  7.7300
 30
0.0
 40
  0.0514
 1
INT0*
 0
POLYLINE
 8
WIRE
 66
1
 10
0.0
 20
0.0
 30
0.0
 0
VERTEX
 8
WIRE
 10
  0.8000
 20
  7.6000
 30
0.0
 0
VERTEX
 8
WIRE
 10
  1.4000
 20
  7.6000
 30
0.0
 0
SEQEND
 8
WIRE
 0
TEXT
 8
WIRETEXT
 10
  1.0000
 20
  7.6300
 30
0.0
 40
  0.0514
 1
INT1*
 0
POLYLINE
 8
WIRE
 66
1
 10
0.0
 20
0.0
 30
0.0
 0
VERTEX
 8
WIRE
 10
  6.3000
 20
  7.2000
 30
0.0
 0
VERTEX
 8
WIRE
 10
  6.7000
 20
  7.2000
 30
0.0
 0
SEQEND
 8
WIRE
 0
TEXT
 8
WIRETEXT
 10
  6.4000
 20
  7.2300
 30
0.0
 40
  0.0514
 1
D4
 0
POLYLINE
 8
WIRE
 66
1
 10
0.0
 20
0.0
 30
0.0
 0
VERTEX
 8
WIRE
 10
  7.9000
 20
  7.2000
 30
0.0
 0
VERTEX
 8
WIRE
 10
  8.4000
 20
  7.2000
 30
0.0
 0
SEQEND
 8
WIRE
 0
TEXT
 8
WIRETEXT
 10
  8.0000
 20
  7.2300
 30
0.0
 40
  0.0514
 1
IO9
 0
POLYLINE
 8
WIRE
 66
1
 10
0.0
 20
0.0
 30
0.0
 0
VERTEX
 8
WIRE
 10
  7.9000
 20
  7.1000
 30
0.0
 0
VERTEX
 8
WIRE
 10
  8.4000
 20
  7.1000
 30
0.0
 0
SEQEND
 8
WIRE
 0
TEXT
 8
WIRETEXT
 10
  8.0000
 20
  7.1300
 30
0.0
 40
  0.0514
 1
IO10
 0
POLYLINE
 8
WIRE
 66
1
 10
0.0
 20
0.0
 30
0.0
 0
VERTEX
 8
WIRE
 10
  6.3000
 20
  6.9000
 30
0.0
 0
VERTEX
 8
WIRE
 10
  6.7000
 20
  6.9000
 30
0.0
 0
SEQEND
 8
WIRE
 0
TEXT
 8
WIRETEXT
 10
  6.4000
 20
  6.9300
 30
0.0
 40
  0.0514
 1
D5
 0
POLYLINE
 8
WIRE
 66
1
 10
0.0
 20
0.0
 30
0.0
 0
VERTEX
 8
WIRE
 10
  7.9000
 20
  6.9000
 30
0.0
 0
VERTEX
 8
WIRE
 10
  8.4000
 20
  6.9000
 30
0.0
 0
SEQEND
 8
WIRE
 0
TEXT
 8
WIRETEXT
 10
  8.0000
 20
  6.9300
 30
0.0
 40
  0.0514
 1
IO11
 0
POLYLINE
 8
WIRE
 66
1
 10
0.0
 20
0.0
 30
0.0
 0
VERTEX
 8
WIRE
 10
  7.9000
 20
  6.8000
 30
0.0
 0
VERTEX
 8
WIRE
 10
  8.4000
 20
  6.8000
 30
0.0
 0
SEQEND
 8
WIRE
 0
TEXT
 8
WIRETEXT
 10
  8.0000
 20
  6.8300
 30
0.0
 40
  0.0514
 1
IO12
 0
POLYLINE
 8
WIRE
 66
1
 10
0.0
 20
0.0
 30
0.0
 0
VERTEX
 8
WIRE
 10
  6.3000
 20
  6.6000
 30
0.0
 0
VERTEX
 8
WIRE
 10
  6.7000
 20
  6.6000
 30
0.0
 0
SEQEND
 8
WIRE
 0
TEXT
 8
WIRETEXT
 10
  6.4000
 20
  6.6300
 30
0.0
 40
  0.0514
 1
D6
 0
POLYLINE
 8
WIRE
 66
1
 10
0.0
 20
0.0
 30
0.0
 0
VERTEX
 8
WIRE
 10
  7.9000
 20
  6.6000
 30
0.0
 0
VERTEX
 8
WIRE
 10
  8.4000
 20
  6.6000
 30
0.0
 0
SEQEND
 8
WIRE
 0
TEXT
 8
WIRETEXT
 10
  8.0000
 20
  6.6300
 30
0.0
 40
  0.0514
 1
IO13
 0
POLYLINE
 8
WIRE
 66
1
 10
0.0
 20
0.0
 30
0.0
 0
VERTEX
 8
WIRE
 10
  7.9000
 20
  6.5000
 30
0.0
 0
VERTEX
 8
WIRE
 10
  8.4000
 20
  6.5000
 30
0.0
 0
SEQEND
 8
WIRE
 0
TEXT
 8
WIRETEXT
 10
  8.0000
 20
  6.5300
 30
0.0
 40
  0.0514
 1
IO14
 0
POLYLINE
 8
WIRE
 66
1
 10
0.0
 20
0.0
 30
0.0
 0
VERTEX
 8
WIRE
 10
  9.8000
 20
  6.5000
 30
0.0
 0
VERTEX
 8
WIRE
 10
 11.0000
 20
  6.5000
 30
0.0
 0
SEQEND
 8
WIRE
 0
TEXT
 8
WIRETEXT
 10
  9.9000
 20
  6.5300
 30
0.0
 40
  0.0514
 1
IO39
 0
POLYLINE
 8
WIRE
 66
1
 10
0.0
 20
0.0
 30
0.0
 0
VERTEX
 8
WIRE
 10
 12.2000
 20
  6.5000
 30
0.0
 0
VERTEX
 8
WIRE
 10
 12.6000
 20
  6.5000
 30
0.0
 0
SEQEND
 8
WIRE
 0
TEXT
 8
WIRETEXT
 10
 12.3000
 20
  6.5300
 30
0.0
 40
  0.0514
 1
D10
 0
POLYLINE
 8
WIRE
 66
1
 10
0.0
 20
0.0
 30
0.0
 0
VERTEX
 8
WIRE
 10
  1.0000
 20
  6.4000
 30
0.0
 0
VERTEX
 8
WIRE
 10
  1.6000
 20
  6.4000
 30
0.0
 0
SEQEND
 8
WIRE
 0
TEXT
 8
WIRETEXT
 10
  1.3000
 20
  6.4300
 30
0.0
 40
  0.0514
 1
GND
 0
POLYLINE
 8
WIRE
 66
1
 10
0.0
 20
0.0
 30
0.0
 0
VERTEX
 8
WIRE
 10
  2.6000
 20
  6.4000
 30
0.0
 0
VERTEX
 8
WIRE
 10
  3.0000
 20
  6.4000
 30
0.0
 0
SEQEND
 8
WIRE
 0
TEXT
 8
WIRETEXT
 10
  2.6000
 20
  6.4300
 30
0.0
 40
  0.0514
 1
IO1
 0
POLYLINE
 8
WIRE
 66
1
 10
0.0
 20
0.0
 30
0.0
 0
VERTEX
 8
WIRE
 10
  9.8000
 20
  6.4000
 30
0.0
 0
VERTEX
 8
WIRE
 10
 11.0000
 20
  6.4000
 30
0.0
 0
SEQEND
 8
WIRE
 0
TEXT
 8
WIRETEXT
 10
  9.9000
 20
  6.4300
 30
0.0
 40
  0.0514
 1
IO40
 0
POLYLINE
 8
WIRE
 66
1
 10
0.0
 20
0.0
 30
0.0
 0
VERTEX
 8
WIRE
 10
  1.0000
 20
  6.3000
 30
0.0
 0
VERTEX
 8
WIRE
 10
  1.6000
 20
  6.3000
 30
0.0
 0
SEQEND
 8
WIRE
 0
TEXT
 8
WIRETEXT
 10
  1.3000
 20
  6.3300
 30
0.0
 40
  0.0514
 1
Clk
 0
POLYLINE
 8
WIRE
 66
1
 10
0.0
 20
0.0
 30
0.0
 0
VERTEX
 8
WIRE
 10
  2.6000
 20
  6.3000
 30
0.0
 0
VERTEX
 8
WIRE
 10
  3.0000
 20
  6.3000
 30
0.0
 0
SEQEND
 8
WIRE
 0
TEXT
 8
WIRETEXT
 10
  2.6000
 20
  6.3300
 30
0.0
 40
  0.0514
 1
IO2
 0
POLYLINE
 8
WIRE
 66
1
 10
0.0
 20
0.0
 30
0.0
 0
VERTEX
 8
WIRE
 10
  6.3000
 20
  6.3000
 30
0.0
 0
VERTEX
 8
WIRE
 10
  6.7000
 20
  6.3000
 30
0.0
 0
SEQEND
 8
WIRE
 0
TEXT
 8
WIRETEXT
 10
  6.4000
 20
  6.3300
 30
0.0
 40
  0.0514
 1
D7
 0
POLYLINE
 8
WIRE
 66
1
 10
0.0
 20
0.0
 30
0.0
 0
VERTEX
 8
WIRE
 10
  7.9000
 20
  6.3000
 30
0.0
 0
VERTEX
 8
WIRE
 10
  8.4000
 20
  6.3000
 30
0.0
 0
SEQEND
 8
WIRE
 0
TEXT
 8
WIRETEXT
 10
  8.0000
 20
  6.3300
 30
0.0
 40
  0.0514
 1
IO15
 0
POLYLINE
 8
WIRE
 66
1
 10
0.0
 20
0.0
 30
0.0
 0
VERTEX
 8
WIRE
 10
  1.0000
 20
  6.2000
 30
0.0
 0
VERTEX
 8
WIRE
 10
  1.6000
 20
  6.2000
 30
0.0
 0
SEQEND
 8
WIRE
 0
TEXT
 8
WIRETEXT
 10
  1.1000
 20
  6.2300
 30
0.0
 40
  0.0514
 1
Reset*
 0
POLYLINE
 8
WIRE
 66
1
 10
0.0
 20
0.0
 30
0.0
 0
VERTEX
 8
WIRE
 10
  2.6000
 20
  6.2000
 30
0.0
 0
VERTEX
 8
WIRE
 10
  3.0000
 20
  6.2000
 30
0.0
 0
SEQEND
 8
WIRE
 0
TEXT
 8
WIRETEXT
 10
  2.6000
 20
  6.2300
 30
0.0
 40
  0.0514
 1
IO3
 0
POLYLINE
 8
WIRE
 66
1
 10
0.0
 20
0.0
 30
0.0
 0
VERTEX
 8
WIRE
 10
  7.9000
 20
  6.2000
 30
0.0
 0
VERTEX
 8
WIRE
 10
  8.4000
 20
  6.2000
 30
0.0
 0
SEQEND
 8
WIRE
 0
TEXT
 8
WIRETEXT
 10
  8.0000
 20
  6.2300
 30
0.0
 40
  0.0514
 1
IO16
 0
POLYLINE
 8
WIRE
 66
1
 10
0.0
 20
0.0
 30
0.0
 0
VERTEX
 8
WIRE
 10
  9.8000
 20
  6.2000
 30
0.0
 0
VERTEX
 8
WIRE
 10
 11.0000
 20
  6.2000
 30
0.0
 0
SEQEND
 8
WIRE
 0
TEXT
 8
WIRETEXT
 10
  9.9000
 20
  6.2300
 30
0.0
 40
  0.0514
 1
IO41
 0
POLYLINE
 8
WIRE
 66
1
 10
0.0
 20
0.0
 30
0.0
 0
VERTEX
 8
WIRE
 10
 12.2000
 20
  6.2000
 30
0.0
 0
VERTEX
 8
WIRE
 10
 12.6000
 20
  6.2000
 30
0.0
 0
SEQEND
 8
WIRE
 0
TEXT
 8
WIRETEXT
 10
 12.3000
 20
  6.2300
 30
0.0
 40
  0.0514
 1
D11
 0
POLYLINE
 8
WIRE
 66
1
 10
0.0
 20
0.0
 30
0.0
 0
VERTEX
 8
WIRE
 10
  1.0000
 20
  6.1000
 30
0.0
 0
VERTEX
 8
WIRE
 10
  1.6000
 20
  6.1000
 30
0.0
 0
SEQEND
 8
WIRE
 0
TEXT
 8
WIRETEXT
 10
  1.3000
 20
  6.1300
 30
0.0
 40
  0.0514
 1
D0
 0
POLYLINE
 8
WIRE
 66
1
 10
0.0
 20
0.0
 30
0.0
 0
VERTEX
 8
WIRE
 10
  2.6000
 20
  6.1000
 30
0.0
 0
VERTEX
 8
WIRE
 10
  3.0000
 20
  6.1000
 30
0.0
 0
SEQEND
 8
WIRE
 0
TEXT
 8
WIRETEXT
 10
  2.6000
 20
  6.1300
 30
0.0
 40
  0.0514
 1
IO4
 0
POLYLINE
 8
WIRE
 66
1
 10
0.0
 20
0.0
 30
0.0
 0
VERTEX
 8
WIRE
 10
  9.8000
 20
  6.1000
 30
0.0
 0
VERTEX
 8
WIRE
 10
 10.3000
 20
  6.1000
 30
0.0
 0
SEQEND
 8
WIRE
 0
TEXT
 8
WIRETEXT
 10
  9.9000
 20
  6.1300
 30
0.0
 40
  0.0514
 1
IO42
 0
POLYLINE
 8
WIRE
 66
1
 10
0.0
 20
0.0
 30
0.0
 0
VERTEX
 8
WIRE
 10
 10.9000
 20
  6.1000
 30
0.0
 0
VERTEX
 8
WIRE
 10
 11.0000
 20
  6.1000
 30
0.0
 0
SEQEND
 8
WIRE
 0
POLYLINE
 8
WIRE
 66
1
 10
0.0
 20
0.0
 30
0.0
 0
VERTEX
 8
WIRE
 10
  1.0000
 20
  6.0000
 30
0.0
 0
VERTEX
 8
WIRE
 10
  1.6000
 20
  6.0000
 30
0.0
 0
SEQEND
 8
WIRE
 0
TEXT
 8
WIRETEXT
 10
  1.3000
 20
  6.0300
 30
0.0
 40
  0.0514
 1
D1
 0
POLYLINE
 8
WIRE
 66
1
 10
0.0
 20
0.0
 30
0.0
 0
VERTEX
 8
WIRE
 10
  2.6000
 20
  6.0000
 30
0.0
 0
VERTEX
 8
WIRE
 10
  3.0000
 20
  6.0000
 30
0.0
 0
SEQEND
 8
WIRE
 0
TEXT
 8
WIRETEXT
 10
  2.6000
 20
  6.0300
 30
0.0
 40
  0.0514
 1
IO5
 0
POLYLINE
 8
WIRE
 66
1
 10
0.0
 20
0.0
 30
0.0
 0
VERTEX
 8
WIRE
 10
 10.3000
 20
  6.0000
 30
0.0
 0
VERTEX
 8
WIRE
 10
 10.9000
 20
  6.0000
 30
0.0
 0
SEQEND
 8
WIRE
 0
POLYLINE
 8
WIRE
 66
1
 10
0.0
 20
0.0
 30
0.0
 0
VERTEX
 8
WIRE
 10
  1.0000
 20
  5.9000
 30
0.0
 0
VERTEX
 8
WIRE
 10
  1.6000
 20
  5.9000
 30
0.0
 0
SEQEND
 8
WIRE
 0
TEXT
 8
WIRETEXT
 10
  1.3000
 20
  5.9300
 30
0.0
 40
  0.0514
 1
D2
 0
POLYLINE
 8
WIRE
 66
1
 10
0.0
 20
0.0
 30
0.0
 0
VERTEX
 8
WIRE
 10
  2.6000
 20
  5.9000
 30
0.0
 0
VERTEX
 8
WIRE
 10
  3.0000
 20
  5.9000
 30
0.0
 0
SEQEND
 8
WIRE
 0
TEXT
 8
WIRETEXT
 10
  2.6000
 20
  5.9300
 30
0.0
 40
  0.0514
 1
IO6
 0
POLYLINE
 8
WIRE
 66
1
 10
0.0
 20
0.0
 30
0.0
 0
VERTEX
 8
WIRE
 10
 10.9000
 20
  5.9000
 30
0.0
 0
VERTEX
 8
WIRE
 10
 11.0000
 20
  5.9000
 30
0.0
 0
SEQEND
 8
WIRE
 0
POLYLINE
 8
WIRE
 66
1
 10
0.0
 20
0.0
 30
0.0
 0
VERTEX
 8
WIRE
 10
  1.0000
 20
  5.8000
 30
0.0
 0
VERTEX
 8
WIRE
 10
  1.6000
 20
  5.8000
 30
0.0
 0
SEQEND
 8
WIRE
 0
TEXT
 8
WIRETEXT
 10
  1.3000
 20
  5.8300
 30
0.0
 40
  0.0514
 1
D3
 0
POLYLINE
 8
WIRE
 66
1
 10
0.0
 20
0.0
 30
0.0
 0
VERTEX
 8
WIRE
 10
  2.6000
 20
  5.8000
 30
0.0
 0
VERTEX
 8
WIRE
 10
  3.0000
 20
  5.8000
 30
0.0
 0
SEQEND
 8
WIRE
 0
TEXT
 8
WIRETEXT
 10
  2.6000
 20
  5.8300
 30
0.0
 40
  0.0514
 1
IO7
 0
POLYLINE
 8
WIRE
 66
1
 10
0.0
 20
0.0
 30
0.0
 0
VERTEX
 8
WIRE
 10
 10.2000
 20
  5.8000
 30
0.0
 0
VERTEX
 8
WIRE
 10
 10.9000
 20
  5.8000
 30
0.0
 0
SEQEND
 8
WIRE
 0
TEXT
 8
WIRETEXT
 10
 10.2000
 20
  5.8300
 30
0.0
 40
  0.0514
 1
RDStat*
 0
POLYLINE
 8
WIRE
 66
1
 10
0.0
 20
0.0
 30
0.0
 0
VERTEX
 8
WIRE
 10
  1.0000
 20
  5.7000
 30
0.0
 0
VERTEX
 8
WIRE
 10
  1.6000
 20
  5.7000
 30
0.0
 0
SEQEND
 8
WIRE
 0
TEXT
 8
WIRETEXT
 10
  1.3000
 20
  5.7300
 30
0.0
 40
  0.0514
 1
D4
 0
POLYLINE
 8
WIRE
 66
1
 10
0.0
 20
0.0
 30
0.0
 0
VERTEX
 8
WIRE
 10
  2.6000
 20
  5.7000
 30
0.0
 0
VERTEX
 8
WIRE
 10
  3.0000
 20
  5.7000
 30
0.0
 0
SEQEND
 8
WIRE
 0
TEXT
 8
WIRETEXT
 10
  2.6000
 20
  5.7300
 30
0.0
 40
  0.0514
 1
IO8
 0
POLYLINE
 8
WIRE
 66
1
 10
0.0
 20
0.0
 30
0.0
 0
VERTEX
 8
WIRE
 10
  1.0000
 20
  5.6000
 30
0.0
 0
VERTEX
 8
WIRE
 10
  1.6000
 20
  5.6000
 30
0.0
 0
SEQEND
 8
WIRE
 0
TEXT
 8
WIRETEXT
 10
  1.3000
 20
  5.6300
 30
0.0
 40
  0.0514
 1
D5
 0
POLYLINE
 8
WIRE
 66
1
 10
0.0
 20
0.0
 30
0.0
 0
VERTEX
 8
WIRE
 10
  2.6000
 20
  5.6000
 30
0.0
 0
VERTEX
 8
WIRE
 10
  3.0000
 20
  5.6000
 30
0.0
 0
SEQEND
 8
WIRE
 0
TEXT
 8
WIRETEXT
 10
  2.6000
 20
  5.6300
 30
0.0
 40
  0.0514
 1
IO9
 0
POLYLINE
 8
WIRE
 66
1
 10
0.0
 20
0.0
 30
0.0
 0
VERTEX
 8
WIRE
 10
  1.0000
 20
  5.5000
 30
0.0
 0
VERTEX
 8
WIRE
 10
  1.6000
 20
  5.5000
 30
0.0
 0
SEQEND
 8
WIRE
 0
TEXT
 8
WIRETEXT
 10
  1.3000
 20
  5.5300
 30
0.0
 40
  0.0514
 1
D6
 0
POLYLINE
 8
WIRE
 66
1
 10
0.0
 20
0.0
 30
0.0
 0
VERTEX
 8
WIRE
 10
  2.6000
 20
  5.5000
 30
0.0
 0
VERTEX
 8
WIRE
 10
  3.0000
 20
  5.5000
 30
0.0
 0
SEQEND
 8
WIRE
 0
TEXT
 8
WIRETEXT
 10
  2.6000
 20
  5.5300
 30
0.0
 40
  0.0514
 1
IO10
 0
POLYLINE
 8
WIRE
 66
1
 10
0.0
 20
0.0
 30
0.0
 0
VERTEX
 8
WIRE
 10
  6.3000
 20
  5.5000
 30
0.0
 0
VERTEX
 8
WIRE
 10
  6.7000
 20
  5.5000
 30
0.0
 0
SEQEND
 8
WIRE
 0
TEXT
 8
WIRETEXT
 10
  6.4000
 20
  5.5300
 30
0.0
 40
  0.0514
 1
D8
 0
POLYLINE
 8
WIRE
 66
1
 10
0.0
 20
0.0
 30
0.0
 0
VERTEX
 8
WIRE
 10
  7.9000
 20
  5.5000
 30
0.0
 0
VERTEX
 8
WIRE
 10
  8.4000
 20
  5.5000
 30
0.0
 0
SEQEND
 8
WIRE
 0
TEXT
 8
WIRETEXT
 10
  8.0000
 20
  5.5300
 30
0.0
 40
  0.0514
 1
IO17
 0
POLYLINE
 8
WIRE
 66
1
 10
0.0
 20
0.0
 30
0.0
 0
VERTEX
 8
WIRE
 10
  1.0000
 20
  5.4000
 30
0.0
 0
VERTEX
 8
WIRE
 10
  1.6000
 20
  5.4000
 30
0.0
 0
SEQEND
 8
WIRE
 0
TEXT
 8
WIRETEXT
 10
  1.3000
 20
  5.4300
 30
0.0
 40
  0.0514
 1
D7
 0
POLYLINE
 8
WIRE
 66
1
 10
0.0
 20
0.0
 30
0.0
 0
VERTEX
 8
WIRE
 10
  2.6000
 20
  5.4000
 30
0.0
 0
VERTEX
 8
WIRE
 10
  3.0000
 20
  5.4000
 30
0.0
 0
SEQEND
 8
WIRE
 0
TEXT
 8
WIRETEXT
 10
  2.6000
 20
  5.4300
 30
0.0
 40
  0.0514
 1
IO11
 0
POLYLINE
 8
WIRE
 66
1
 10
0.0
 20
0.0
 30
0.0
 0
VERTEX
 8
WIRE
 10
  7.9000
 20
  5.4000
 30
0.0
 0
VERTEX
 8
WIRE
 10
  8.4000
 20
  5.4000
 30
0.0
 0
SEQEND
 8
WIRE
 0
TEXT
 8
WIRETEXT
 10
  8.0000
 20
  5.4300
 30
0.0
 40
  0.0514
 1
IO18
 0
POLYLINE
 8
WIRE
 66
1
 10
0.0
 20
0.0
 30
0.0
 0
VERTEX
 8
WIRE
 10
  1.0000
 20
  5.3000
 30
0.0
 0
VERTEX
 8
WIRE
 10
  1.6000
 20
  5.3000
 30
0.0
 0
SEQEND
 8
WIRE
 0
TEXT
 8
WIRETEXT
 10
  1.3000
 20
  5.3300
 30
0.0
 40
  0.0514
 1
D8
 0
POLYLINE
 8
WIRE
 66
1
 10
0.0
 20
0.0
 30
0.0
 0
VERTEX
 8
WIRE
 10
  2.6000
 20
  5.3000
 30
0.0
 0
VERTEX
 8
WIRE
 10
  3.0000
 20
  5.3000
 30
0.0
 0
SEQEND
 8
WIRE
 0
TEXT
 8
WIRETEXT
 10
  2.6000
 20
  5.3300
 30
0.0
 40
  0.0514
 1
IO12
 0
POLYLINE
 8
WIRE
 66
1
 10
0.0
 20
0.0
 30
0.0
 0
VERTEX
 8
WIRE
 10
  1.0000
 20
  5.2000
 30
0.0
 0
VERTEX
 8
WIRE
 10
  1.6000
 20
  5.2000
 30
0.0
 0
SEQEND
 8
WIRE
 0
TEXT
 8
WIRETEXT
 10
  1.3000
 20
  5.2300
 30
0.0
 40
  0.0514
 1
D9
 0
POLYLINE
 8
WIRE
 66
1
 10
0.0
 20
0.0
 30
0.0
 0
VERTEX
 8
WIRE
 10
  2.6000
 20
  5.2000
 30
0.0
 0
VERTEX
 8
WIRE
 10
  3.0000
 20
  5.2000
 30
0.0
 0
SEQEND
 8
WIRE
 0
TEXT
 8
WIRETEXT
 10
  2.6000
 20
  5.2300
 30
0.0
 40
  0.0514
 1
IO13
 0
POLYLINE
 8
WIRE
 66
1
 10
0.0
 20
0.0
 30
0.0
 0
VERTEX
 8
WIRE
 10
  6.3000
 20
  5.2000
 30
0.0
 0
VERTEX
 8
WIRE
 10
  6.7000
 20
  5.2000
 30
0.0
 0
SEQEND
 8
WIRE
 0
TEXT
 8
WIRETEXT
 10
  6.4000
 20
  5.2300
 30
0.0
 40
  0.0514
 1
D9
 0
POLYLINE
 8
WIRE
 66
1
 10
0.0
 20
0.0
 30
0.0
 0
VERTEX
 8
WIRE
 10
  7.9000
 20
  5.2000
 30
0.0
 0
VERTEX
 8
WIRE
 10
  8.4000
 20
  5.2000
 30
0.0
 0
SEQEND
 8
WIRE
 0
TEXT
 8
WIRETEXT
 10
  8.0000
 20
  5.2300
 30
0.0
 40
  0.0514
 1
IO19
 0
POLYLINE
 8
WIRE
 66
1
 10
0.0
 20
0.0
 30
0.0
 0
VERTEX
 8
WIRE
 10
  9.8000
 20
  5.2000
 30
0.0
 0
VERTEX
 8
WIRE
 10
 11.0000
 20
  5.2000
 30
0.0
 0
SEQEND
 8
WIRE
 0
TEXT
 8
WIRETEXT
 10
  9.9000
 20
  5.2300
 30
0.0
 40
  0.0514
 1
IO43
 0
POLYLINE
 8
WIRE
 66
1
 10
0.0
 20
0.0
 30
0.0
 0
VERTEX
 8
WIRE
 10
 12.2000
 20
  5.2000
 30
0.0
 0
VERTEX
 8
WIRE
 10
 12.6000
 20
  5.2000
 30
0.0
 0
SEQEND
 8
WIRE
 0
TEXT
 8
WIRETEXT
 10
 12.3000
 20
  5.2300
 30
0.0
 40
  0.0514
 1
D12
 0
POLYLINE
 8
WIRE
 66
1
 10
0.0
 20
0.0
 30
0.0
 0
VERTEX
 8
WIRE
 10
  1.0000
 20
  5.1000
 30
0.0
 0
VERTEX
 8
WIRE
 10
  1.6000
 20
  5.1000
 30
0.0
 0
SEQEND
 8
WIRE
 0
TEXT
 8
WIRETEXT
 10
  1.3000
 20
  5.1300
 30
0.0
 40
  0.0514
 1
D10
 0
POLYLINE
 8
WIRE
 66
1
 10
0.0
 20
0.0
 30
0.0
 0
VERTEX
 8
WIRE
 10
  2.6000
 20
  5.1000
 30
0.0
 0
VERTEX
 8
WIRE
 10
  3.0000
 20
  5.1000
 30
0.0
 0
SEQEND
 8
WIRE
 0
TEXT
 8
WIRETEXT
 10
  2.6000
 20
  5.1300
 30
0.0
 40
  0.0514
 1
IO14
 0
POLYLINE
 8
WIRE
 66
1
 10
0.0
 20
0.0
 30
0.0
 0
VERTEX
 8
WIRE
 10
  7.9000
 20
  5.1000
 30
0.0
 0
VERTEX
 8
WIRE
 10
  8.4000
 20
  5.1000
 30
0.0
 0
SEQEND
 8
WIRE
 0
TEXT
 8
WIRETEXT
 10
  8.0000
 20
  5.1300
 30
0.0
 40
  0.0514
 1
IO20
 0
POLYLINE
 8
WIRE
 66
1
 10
0.0
 20
0.0
 30
0.0
 0
VERTEX
 8
WIRE
 10
  9.8000
 20
  5.1000
 30
0.0
 0
VERTEX
 8
WIRE
 10
 10.3000
 20
  5.1000
 30
0.0
 0
SEQEND
 8
WIRE
 0
TEXT
 8
WIRETEXT
 10
  9.9000
 20
  5.1300
 30
0.0
 40
  0.0514
 1
IO44
 0
POLYLINE
 8
WIRE
 66
1
 10
0.0
 20
0.0
 30
0.0
 0
VERTEX
 8
WIRE
 10
 10.9000
 20
  5.1000
 30
0.0
 0
VERTEX
 8
WIRE
 10
 11.0000
 20
  5.1000
 30
0.0
 0
SEQEND
 8
WIRE
 0
POLYLINE
 8
WIRE
 66
1
 10
0.0
 20
0.0
 30
0.0
 0
VERTEX
 8
WIRE
 10
  1.0000
 20
  5.0000
 30
0.0
 0
VERTEX
 8
WIRE
 10
  1.6000
 20
  5.0000
 30
0.0
 0
SEQEND
 8
WIRE
 0
TEXT
 8
WIRETEXT
 10
  1.3000
 20
  5.0300
 30
0.0
 40
  0.0514
 1
D11
 0
POLYLINE
 8
WIRE
 66
1
 10
0.0
 20
0.0
 30
0.0
 0
VERTEX
 8
WIRE
 10
  2.6000
 20
  5.0000
 30
0.0
 0
VERTEX
 8
WIRE
 10
  3.0000
 20
  5.0000
 30
0.0
 0
SEQEND
 8
WIRE
 0
TEXT
 8
WIRETEXT
 10
  2.6000
 20
  5.0300
 30
0.0
 40
  0.0514
 1
IO15
 0
POLYLINE
 8
WIRE
 66
1
 10
0.0
 20
0.0
 30
0.0
 0
VERTEX
 8
WIRE
 10
 10.3000
 20
  5.0000
 30
0.0
 0
VERTEX
 8
WIRE
 10
 10.9000
 20
  5.0000
 30
0.0
 0
SEQEND
 8
WIRE
 0
POLYLINE
 8
WIRE
 66
1
 10
0.0
 20
0.0
 30
0.0
 0
VERTEX
 8
WIRE
 10
  1.0000
 20
  4.9000
 30
0.0
 0
VERTEX
 8
WIRE
 10
  1.6000
 20
  4.9000
 30
0.0
 0
SEQEND
 8
WIRE
 0
TEXT
 8
WIRETEXT
 10
  1.3000
 20
  4.9300
 30
0.0
 40
  0.0514
 1
D12
 0
POLYLINE
 8
WIRE
 66
1
 10
0.0
 20
0.0
 30
0.0
 0
VERTEX
 8
WIRE
 10
  2.6000
 20
  4.9000
 30
0.0
 0
VERTEX
 8
WIRE
 10
  3.0000
 20
  4.9000
 30
0.0
 0
SEQEND
 8
WIRE
 0
TEXT
 8
WIRETEXT
 10
  2.6000
 20
  4.9300
 30
0.0
 40
  0.0514
 1
IO16
 0
POLYLINE
 8
WIRE
 66
1
 10
0.0
 20
0.0
 30
0.0
 0
VERTEX
 8
WIRE
 10
  6.3000
 20
  4.9000
 30
0.0
 0
VERTEX
 8
WIRE
 10
  6.7000
 20
  4.9000
 30
0.0
 0
SEQEND
 8
WIRE
 0
TEXT
 8
WIRETEXT
 10
  6.4000
 20
  4.9300
 30
0.0
 40
  0.0514
 1
D10
 0
POLYLINE
 8
WIRE
 66
1
 10
0.0
 20
0.0
 30
0.0
 0
VERTEX
 8
WIRE
 10
  7.9000
 20
  4.9000
 30
0.0
 0
VERTEX
 8
WIRE
 10
  8.4000
 20
  4.9000
 30
0.0
 0
SEQEND
 8
WIRE
 0
TEXT
 8
WIRETEXT
 10
  8.0000
 20
  4.9300
 30
0.0
 40
  0.0514
 1
IO21
 0
POLYLINE
 8
WIRE
 66
1
 10
0.0
 20
0.0
 30
0.0
 0
VERTEX
 8
WIRE
 10
  9.8000
 20
  4.9000
 30
0.0
 0
VERTEX
 8
WIRE
 10
 11.0000
 20
  4.9000
 30
0.0
 0
SEQEND
 8
WIRE
 0
TEXT
 8
WIRETEXT
 10
  9.9000
 20
  4.9300
 30
0.0
 40
  0.0514
 1
IO45
 0
POLYLINE
 8
WIRE
 66
1
 10
0.0
 20
0.0
 30
0.0
 0
VERTEX
 8
WIRE
 10
 12.2000
 20
  4.9000
 30
0.0
 0
VERTEX
 8
WIRE
 10
 12.6000
 20
  4.9000
 30
0.0
 0
SEQEND
 8
WIRE
 0
TEXT
 8
WIRETEXT
 10
 12.3000
 20
  4.9300
 30
0.0
 40
  0.0514
 1
D13
 0
POLYLINE
 8
WIRE
 66
1
 10
0.0
 20
0.0
 30
0.0
 0
VERTEX
 8
WIRE
 10
  1.0000
 20
  4.8000
 30
0.0
 0
VERTEX
 8
WIRE
 10
  1.6000
 20
  4.8000
 30
0.0
 0
SEQEND
 8
WIRE
 0
TEXT
 8
WIRETEXT
 10
  1.3000
 20
  4.8300
 30
0.0
 40
  0.0514
 1
D13
 0
POLYLINE
 8
WIRE
 66
1
 10
0.0
 20
0.0
 30
0.0
 0
VERTEX
 8
WIRE
 10
  2.6000
 20
  4.8000
 30
0.0
 0
VERTEX
 8
WIRE
 10
  3.0000
 20
  4.8000
 30
0.0
 0
SEQEND
 8
WIRE
 0
TEXT
 8
WIRETEXT
 10
  2.6000
 20
  4.8300
 30
0.0
 40
  0.0514
 1
IO17
 0
POLYLINE
 8
WIRE
 66
1
 10
0.0
 20
0.0
 30
0.0
 0
VERTEX
 8
WIRE
 10
  7.9000
 20
  4.8000
 30
0.0
 0
VERTEX
 8
WIRE
 10
  8.4000
 20
  4.8000
 30
0.0
 0
SEQEND
 8
WIRE
 0
TEXT
 8
WIRETEXT
 10
  8.0000
 20
  4.8300
 30
0.0
 40
  0.0514
 1
IO22
 0
POLYLINE
 8
WIRE
 66
1
 10
0.0
 20
0.0
 30
0.0
 0
VERTEX
 8
WIRE
 10
  9.8000
 20
  4.8000
 30
0.0
 0
VERTEX
 8
WIRE
 10
 10.3000
 20
  4.8000
 30
0.0
 0
SEQEND
 8
WIRE
 0
TEXT
 8
WIRETEXT
 10
  9.9000
 20
  4.8300
 30
0.0
 40
  0.0514
 1
IO46
 0
POLYLINE
 8
WIRE
 66
1
 10
0.0
 20
0.0
 30
0.0
 0
VERTEX
 8
WIRE
 10
 10.9000
 20
  4.8000
 30
0.0
 0
VERTEX
 8
WIRE
 10
 11.0000
 20
  4.8000
 30
0.0
 0
SEQEND
 8
WIRE
 0
POLYLINE
 8
WIRE
 66
1
 10
0.0
 20
0.0
 30
0.0
 0
VERTEX
 8
WIRE
 10
  1.0000
 20
  4.7000
 30
0.0
 0
VERTEX
 8
WIRE
 10
  1.6000
 20
  4.7000
 30
0.0
 0
SEQEND
 8
WIRE
 0
TEXT
 8
WIRETEXT
 10
  1.3000
 20
  4.7300
 30
0.0
 40
  0.0514
 1
D14
 0
POLYLINE
 8
WIRE
 66
1
 10
0.0
 20
0.0
 30
0.0
 0
VERTEX
 8
WIRE
 10
  2.6000
 20
  4.7000
 30
0.0
 0
VERTEX
 8
WIRE
 10
  3.0000
 20
  4.7000
 30
0.0
 0
SEQEND
 8
WIRE
 0
TEXT
 8
WIRETEXT
 10
  2.6000
 20
  4.7300
 30
0.0
 40
  0.0514
 1
IO18
 0
POLYLINE
 8
WIRE
 66
1
 10
0.0
 20
0.0
 30
0.0
 0
VERTEX
 8
WIRE
 10
 10.3000
 20
  4.7000
 30
0.0
 0
VERTEX
 8
WIRE
 10
 10.9000
 20
  4.7000
 30
0.0
 0
SEQEND
 8
WIRE
 0
POLYLINE
 8
WIRE
 66
1
 10
0.0
 20
0.0
 30
0.0
 0
VERTEX
 8
WIRE
 10
  1.0000
 20
  4.6000
 30
0.0
 0
VERTEX
 8
WIRE
 10
  1.6000
 20
  4.6000
 30
0.0
 0
SEQEND
 8
WIRE
 0
TEXT
 8
WIRETEXT
 10
  1.3000
 20
  4.6300
 30
0.0
 40
  0.0514
 1
D15
 0
POLYLINE
 8
WIRE
 66
1
 10
0.0
 20
0.0
 30
0.0
 0
VERTEX
 8
WIRE
 10
  2.6000
 20
  4.6000
 30
0.0
 0
VERTEX
 8
WIRE
 10
  3.0000
 20
  4.6000
 30
0.0
 0
SEQEND
 8
WIRE
 0
TEXT
 8
WIRETEXT
 10
  2.6000
 20
  4.6300
 30
0.0
 40
  0.0514
 1
IO19
 0
POLYLINE
 8
WIRE
 66
1
 10
0.0
 20
0.0
 30
0.0
 0
VERTEX
 8
WIRE
 10
  6.3000
 20
  4.6000
 30
0.0
 0
VERTEX
 8
WIRE
 10
  6.7000
 20
  4.6000
 30
0.0
 0
SEQEND
 8
WIRE
 0
TEXT
 8
WIRETEXT
 10
  6.4000
 20
  4.6300
 30
0.0
 40
  0.0514
 1
D11
 0
POLYLINE
 8
WIRE
 66
1
 10
0.0
 20
0.0
 30
0.0
 0
VERTEX
 8
WIRE
 10
  7.9000
 20
  4.6000
 30
0.0
 0
VERTEX
 8
WIRE
 10
  8.4000
 20
  4.6000
 30
0.0
 0
SEQEND
 8
WIRE
 0
TEXT
 8
WIRETEXT
 10
  8.0000
 20
  4.6300
 30
0.0
 40
  0.0514
 1
IO23
 0
POLYLINE
 8
WIRE
 66
1
 10
0.0
 20
0.0
 30
0.0
 0
VERTEX
 8
WIRE
 10
  9.8000
 20
  4.6000
 30
0.0
 0
VERTEX
 8
WIRE
 10
 11.0000
 20
  4.6000
 30
0.0
 0
SEQEND
 8
WIRE
 0
TEXT
 8
WIRETEXT
 10
  9.9000
 20
  4.6300
 30
0.0
 40
  0.0514
 1
IO47
 0
POLYLINE
 8
WIRE
 66
1
 10
0.0
 20
0.0
 30
0.0
 0
VERTEX
 8
WIRE
 10
 12.2000
 20
  4.6000
 30
0.0
 0
VERTEX
 8
WIRE
 10
 12.6000
 20
  4.6000
 30
0.0
 0
SEQEND
 8
WIRE
 0
TEXT
 8
WIRETEXT
 10
 12.3000
 20
  4.6300
 30
0.0
 40
  0.0514
 1
D14
 0
POLYLINE
 8
WIRE
 66
1
 10
0.0
 20
0.0
 30
0.0
 0
VERTEX
 8
WIRE
 10
  1.0000
 20
  4.5000
 30
0.0
 0
VERTEX
 8
WIRE
 10
  1.6000
 20
  4.5000
 30
0.0
 0
SEQEND
 8
WIRE
 0
POLYLINE
 8
WIRE
 66
1
 10
0.0
 20
0.0
 30
0.0
 0
VERTEX
 8
WIRE
 10
  2.6000
 20
  4.5000
 30
0.0
 0
VERTEX
 8
WIRE
 10
  3.0000
 20
  4.5000
 30
0.0
 0
SEQEND
 8
WIRE
 0
TEXT
 8
WIRETEXT
 10
  2.6000
 20
  4.5300
 30
0.0
 40
  0.0514
 1
IO20
 0
POLYLINE
 8
WIRE
 66
1
 10
0.0
 20
0.0
 30
0.0
 0
VERTEX
 8
WIRE
 10
  7.9000
 20
  4.5000
 30
0.0
 0
VERTEX
 8
WIRE
 10
  8.4000
 20
  4.5000
 30
0.0
 0
SEQEND
 8
WIRE
 0
TEXT
 8
WIRETEXT
 10
  8.0000
 20
  4.5300
 30
0.0
 40
  0.0514
 1
IO24
 0
POLYLINE
 8
WIRE
 66
1
 10
0.0
 20
0.0
 30
0.0
 0
VERTEX
 8
WIRE
 10
  9.8000
 20
  4.5000
 30
0.0
 0
VERTEX
 8
WIRE
 10
 10.3000
 20
  4.5000
 30
0.0
 0
SEQEND
 8
WIRE
 0
TEXT
 8
WIRETEXT
 10
  9.9000
 20
  4.5300
 30
0.0
 40
  0.0514
 1
IO48
 0
POLYLINE
 8
WIRE
 66
1
 10
0.0
 20
0.0
 30
0.0
 0
VERTEX
 8
WIRE
 10
 10.9000
 20
  4.5000
 30
0.0
 0
VERTEX
 8
WIRE
 10
 11.0000
 20
  4.5000
 30
0.0
 0
SEQEND
 8
WIRE
 0
POLYLINE
 8
WIRE
 66
1
 10
0.0
 20
0.0
 30
0.0
 0
VERTEX
 8
WIRE
 10
  1.0000
 20
  4.4000
 30
0.0
 0
VERTEX
 8
WIRE
 10
  1.6000
 20
  4.4000
 30
0.0
 0
SEQEND
 8
WIRE
 0
POLYLINE
 8
WIRE
 66
1
 10
0.0
 20
0.0
 30
0.0
 0
VERTEX
 8
WIRE
 10
  2.6000
 20
  4.4000
 30
0.0
 0
VERTEX
 8
WIRE
 10
  3.0000
 20
  4.4000
 30
0.0
 0
SEQEND
 8
WIRE
 0
TEXT
 8
WIRETEXT
 10
  2.6000
 20
  4.4300
 30
0.0
 40
  0.0514
 1
IO21
 0
POLYLINE
 8
WIRE
 66
1
 10
0.0
 20
0.0
 30
0.0
 0
VERTEX
 8
WIRE
 10
 10.3000
 20
  4.4000
 30
0.0
 0
VERTEX
 8
WIRE
 10
 10.9000
 20
  4.4000
 30
0.0
 0
SEQEND
 8
WIRE
 0
POLYLINE
 8
WIRE
 66
1
 10
0.0
 20
0.0
 30
0.0
 0
VERTEX
 8
WIRE
 10
  1.0000
 20
  4.3000
 30
0.0
 0
VERTEX
 8
WIRE
 10
  1.6000
 20
  4.3000
 30
0.0
 0
SEQEND
 8
WIRE
 0
POLYLINE
 8
WIRE
 66
1
 10
0.0
 20
0.0
 30
0.0
 0
VERTEX
 8
WIRE
 10
  2.6000
 20
  4.3000
 30
0.0
 0
VERTEX
 8
WIRE
 10
  3.0000
 20
  4.3000
 30
0.0
 0
SEQEND
 8
WIRE
 0
TEXT
 8
WIRETEXT
 10
  2.6000
 20
  4.3300
 30
0.0
 40
  0.0514
 1
IO22
 0
POLYLINE
 8
WIRE
 66
1
 10
0.0
 20
0.0
 30
0.0
 0
VERTEX
 8
WIRE
 10
  9.8000
 20
  4.3000
 30
0.0
 0
VERTEX
 8
WIRE
 10
 11.0000
 20
  4.3000
 30
0.0
 0
SEQEND
 8
WIRE
 0
TEXT
 8
WIRETEXT
 10
  9.9000
 20
  4.3300
 30
0.0
 40
  0.0514
 1
IO49
 0
POLYLINE
 8
WIRE
 66
1
 10
0.0
 20
0.0
 30
0.0
 0
VERTEX
 8
WIRE
 10
 12.2000
 20
  4.3000
 30
0.0
 0
VERTEX
 8
WIRE
 10
 12.6000
 20
  4.3000
 30
0.0
 0
SEQEND
 8
WIRE
 0
TEXT
 8
WIRETEXT
 10
 12.3000
 20
  4.3300
 30
0.0
 40
  0.0514
 1
D15
 0
POLYLINE
 8
WIRE
 66
1
 10
0.0
 20
0.0
 30
0.0
 0
VERTEX
 8
WIRE
 10
  1.0000
 20
  4.2000
 30
0.0
 0
VERTEX
 8
WIRE
 10
  1.6000
 20
  4.2000
 30
0.0
 0
SEQEND
 8
WIRE
 0
POLYLINE
 8
WIRE
 66
1
 10
0.0
 20
0.0
 30
0.0
 0
VERTEX
 8
WIRE
 10
  2.6000
 20
  4.2000
 30
0.0
 0
VERTEX
 8
WIRE
 10
  3.0000
 20
  4.2000
 30
0.0
 0
SEQEND
 8
WIRE
 0
TEXT
 8
WIRETEXT
 10
  2.6000
 20
  4.2300
 30
0.0
 40
  0.0514
 1
IO23
 0
POLYLINE
 8
WIRE
 66
1
 10
0.0
 20
0.0
 30
0.0
 0
VERTEX
 8
WIRE
 10
  9.8000
 20
  4.2000
 30
0.0
 0
VERTEX
 8
WIRE
 10
 10.3000
 20
  4.2000
 30
0.0
 0
SEQEND
 8
WIRE
 0
TEXT
 8
WIRETEXT
 10
  9.9000
 20
  4.2300
 30
0.0
 40
  0.0514
 1
IO50
 0
POLYLINE
 8
WIRE
 66
1
 10
0.0
 20
0.0
 30
0.0
 0
VERTEX
 8
WIRE
 10
 10.9000
 20
  4.2000
 30
0.0
 0
VERTEX
 8
WIRE
 10
 11.0000
 20
  4.2000
 30
0.0
 0
SEQEND
 8
WIRE
 0
POLYLINE
 8
WIRE
 66
1
 10
0.0
 20
0.0
 30
0.0
 0
VERTEX
 8
WIRE
 10
  1.0000
 20
  4.1000
 30
0.0
 0
VERTEX
 8
WIRE
 10
  1.6000
 20
  4.1000
 30
0.0
 0
SEQEND
 8
WIRE
 0
TEXT
 8
WIRETEXT
 10
  1.3000
 20
  4.1300
 30
0.0
 40
  0.0514
 1
VCC
 0
POLYLINE
 8
WIRE
 66
1
 10
0.0
 20
0.0
 30
0.0
 0
VERTEX
 8
WIRE
 10
  2.6000
 20
  4.1000
 30
0.0
 0
VERTEX
 8
WIRE
 10
  3.0000
 20
  4.1000
 30
0.0
 0
SEQEND
 8
WIRE
 0
TEXT
 8
WIRETEXT
 10
  2.6000
 20
  4.1300
 30
0.0
 40
  0.0514
 1
IO24
 0
POLYLINE
 8
WIRE
 66
1
 10
0.0
 20
0.0
 30
0.0
 0
VERTEX
 8
WIRE
 10
 10.3000
 20
  4.1000
 30
0.0
 0
VERTEX
 8
WIRE
 10
 10.9000
 20
  4.1000
 30
0.0
 0
SEQEND
 8
WIRE
 0
POLYLINE
 8
WIRE
 66
1
 10
0.0
 20
0.0
 30
0.0
 0
VERTEX
 8
WIRE
 10
  1.0000
 20
  4.0000
 30
0.0
 0
VERTEX
 8
WIRE
 10
  1.6000
 20
  4.0000
 30
0.0
 0
SEQEND
 8
WIRE
 0
TEXT
 8
WIRETEXT
 10
  1.3000
 20
  4.0300
 30
0.0
 40
  0.0514
 1
GND
 0
POLYLINE
 8
WIRE
 66
1
 10
0.0
 20
0.0
 30
0.0
 0
VERTEX
 8
WIRE
 10
  2.6000
 20
  4.0000
 30
0.0
 0
VERTEX
 8
WIRE
 10
  3.0000
 20
  4.0000
 30
0.0
 0
SEQEND
 8
WIRE
 0
TEXT
 8
WIRETEXT
 10
  2.6000
 20
  4.0300
 30
0.0
 40
  0.0514
 1
IO25
 0
POLYLINE
 8
WIRE
 66
1
 10
0.0
 20
0.0
 30
0.0
 0
VERTEX
 8
WIRE
 10
 10.9000
 20
  4.0000
 30
0.0
 0
VERTEX
 8
WIRE
 10
 11.0000
 20
  4.0000
 30
0.0
 0
SEQEND
 8
WIRE
 0
POLYLINE
 8
WIRE
 66
1
 10
0.0
 20
0.0
 30
0.0
 0
VERTEX
 8
WIRE
 10
  1.0000
 20
  3.9000
 30
0.0
 0
VERTEX
 8
WIRE
 10
  1.6000
 20
  3.9000
 30
0.0
 0
SEQEND
 8
WIRE
 0
TEXT
 8
WIRETEXT
 10
  1.3000
 20
  3.9300
 30
0.0
 40
  0.0514
 1
GND
 0
POLYLINE
 8
WIRE
 66
1
 10
0.0
 20
0.0
 30
0.0
 0
VERTEX
 8
WIRE
 10
  2.6000
 20
  3.9000
 30
0.0
 0
VERTEX
 8
WIRE
 10
  3.0000
 20
  3.9000
 30
0.0
 0
SEQEND
 8
WIRE
 0
TEXT
 8
WIRETEXT
 10
  2.6000
 20
  3.9300
 30
0.0
 40
  0.0514
 1
IO26
 0
POLYLINE
 8
WIRE
 66
1
 10
0.0
 20
0.0
 30
0.0
 0
VERTEX
 8
WIRE
 10
 10.2000
 20
  3.9000
 30
0.0
 0
VERTEX
 8
WIRE
 10
 10.9000
 20
  3.9000
 30
0.0
 0
SEQEND
 8
WIRE
 0
TEXT
 8
WIRETEXT
 10
 10.2000
 20
  3.9300
 30
0.0
 40
  0.0514
 1
RDStat*
 0
POLYLINE
 8
WIRE
 66
1
 10
0.0
 20
0.0
 30
0.0
 0
VERTEX
 8
WIRE
 10
  1.0000
 20
  3.8000
 30
0.0
 0
VERTEX
 8
WIRE
 10
  1.6000
 20
  3.8000
 30
0.0
 0
SEQEND
 8
WIRE
 0
TEXT
 8
WIRETEXT
 10
  1.3000
 20
  3.8300
 30
0.0
 40
  0.0514
 1
VCC
 0
POLYLINE
 8
WIRE
 66
1
 10
0.0
 20
0.0
 30
0.0
 0
VERTEX
 8
WIRE
 10
  2.6000
 20
  3.8000
 30
0.0
 0
VERTEX
 8
WIRE
 10
  3.0000
 20
  3.8000
 30
0.0
 0
SEQEND
 8
WIRE
 0
TEXT
 8
WIRETEXT
 10
  2.6000
 20
  3.8300
 30
0.0
 40
  0.0514
 1
IO27
 0
POLYLINE
 8
WIRE
 66
1
 10
0.0
 20
0.0
 30
0.0
 0
VERTEX
 8
WIRE
 10
  6.3000
 20
  3.8000
 30
0.0
 0
VERTEX
 8
WIRE
 10
  6.7000
 20
  3.8000
 30
0.0
 0
SEQEND
 8
WIRE
 0
TEXT
 8
WIRETEXT
 10
  6.4000
 20
  3.8300
 30
0.0
 40
  0.0514
 1
D12
 0
POLYLINE
 8
WIRE
 66
1
 10
0.0
 20
0.0
 30
0.0
 0
VERTEX
 8
WIRE
 10
  7.9000
 20
  3.8000
 30
0.0
 0
VERTEX
 8
WIRE
 10
  8.4000
 20
  3.8000
 30
0.0
 0
SEQEND
 8
WIRE
 0
TEXT
 8
WIRETEXT
 10
  8.0000
 20
  3.8300
 30
0.0
 40
  0.0514
 1
IO25
 0
POLYLINE
 8
WIRE
 66
1
 10
0.0
 20
0.0
 30
0.0
 0
VERTEX
 8
WIRE
 10
  1.0000
 20
  3.7000
 30
0.0
 0
VERTEX
 8
WIRE
 10
  1.6000
 20
  3.7000
 30
0.0
 0
SEQEND
 8
WIRE
 0
TEXT
 8
WIRETEXT
 10
  1.3000
 20
  3.7300
 30
0.0
 40
  0.0514
 1
RW
 0
POLYLINE
 8
WIRE
 66
1
 10
0.0
 20
0.0
 30
0.0
 0
VERTEX
 8
WIRE
 10
  2.6000
 20
  3.7000
 30
0.0
 0
VERTEX
 8
WIRE
 10
  3.0000
 20
  3.7000
 30
0.0
 0
SEQEND
 8
WIRE
 0
TEXT
 8
WIRETEXT
 10
  2.6000
 20
  3.7300
 30
0.0
 40
  0.0514
 1
IO28
 0
POLYLINE
 8
WIRE
 66
1
 10
0.0
 20
0.0
 30
0.0
 0
VERTEX
 8
WIRE
 10
  7.9000
 20
  3.7000
 30
0.0
 0
VERTEX
 8
WIRE
 10
  8.4000
 20
  3.7000
 30
0.0
 0
SEQEND
 8
WIRE
 0
TEXT
 8
WIRETEXT
 10
  8.0000
 20
  3.7300
 30
0.0
 40
  0.0514
 1
IO26
 0
POLYLINE
 8
WIRE
 66
1
 10
0.0
 20
0.0
 30
0.0
 0
VERTEX
 8
WIRE
 10
  1.0000
 20
  3.6000
 30
0.0
 0
VERTEX
 8
WIRE
 10
  1.6000
 20
  3.6000
 30
0.0
 0
SEQEND
 8
WIRE
 0
TEXT
 8
WIRETEXT
 10
  1.1000
 20
  3.6300
 30
0.0
 40
  0.0514
 1
IDSel*
 0
POLYLINE
 8
WIRE
 66
1
 10
0.0
 20
0.0
 30
0.0
 0
VERTEX
 8
WIRE
 10
  2.6000
 20
  3.6000
 30
0.0
 0
VERTEX
 8
WIRE
 10
  3.0000
 20
  3.6000
 30
0.0
 0
SEQEND
 8
WIRE
 0
TEXT
 8
WIRETEXT
 10
  2.6000
 20
  3.6300
 30
0.0
 40
  0.0514
 1
IO29
 0
POLYLINE
 8
WIRE
 66
1
 10
0.0
 20
0.0
 30
0.0
 0
VERTEX
 8
WIRE
 10
  1.0000
 20
  3.5000
 30
0.0
 0
VERTEX
 8
WIRE
 10
  1.6000
 20
  3.5000
 30
0.0
 0
SEQEND
 8
WIRE
 0
POLYLINE
 8
WIRE
 66
1
 10
0.0
 20
0.0
 30
0.0
 0
VERTEX
 8
WIRE
 10
  2.6000
 20
  3.5000
 30
0.0
 0
VERTEX
 8
WIRE
 10
  3.0000
 20
  3.5000
 30
0.0
 0
SEQEND
 8
WIRE
 0
TEXT
 8
WIRETEXT
 10
  2.6000
 20
  3.5300
 30
0.0
 40
  0.0514
 1
IO30
 0
POLYLINE
 8
WIRE
 66
1
 10
0.0
 20
0.0
 30
0.0
 0
VERTEX
 8
WIRE
 10
  6.3000
 20
  3.5000
 30
0.0
 0
VERTEX
 8
WIRE
 10
  6.7000
 20
  3.5000
 30
0.0
 0
SEQEND
 8
WIRE
 0
TEXT
 8
WIRETEXT
 10
  6.4000
 20
  3.5300
 30
0.0
 40
  0.0514
 1
D13
 0
POLYLINE
 8
WIRE
 66
1
 10
0.0
 20
0.0
 30
0.0
 0
VERTEX
 8
WIRE
 10
  7.9000
 20
  3.5000
 30
0.0
 0
VERTEX
 8
WIRE
 10
  8.4000
 20
  3.5000
 30
0.0
 0
SEQEND
 8
WIRE
 0
TEXT
 8
WIRETEXT
 10
  8.0000
 20
  3.5300
 30
0.0
 40
  0.0514
 1
IO27
 0
POLYLINE
 8
WIRE
 66
1
 10
0.0
 20
0.0
 30
0.0
 0
VERTEX
 8
WIRE
 10
  1.0000
 20
  3.4000
 30
0.0
 0
VERTEX
 8
WIRE
 10
  1.6000
 20
  3.4000
 30
0.0
 0
SEQEND
 8
WIRE
 0
POLYLINE
 8
WIRE
 66
1
 10
0.0
 20
0.0
 30
0.0
 0
VERTEX
 8
WIRE
 10
  2.6000
 20
  3.4000
 30
0.0
 0
VERTEX
 8
WIRE
 10
  3.0000
 20
  3.4000
 30
0.0
 0
SEQEND
 8
WIRE
 0
TEXT
 8
WIRETEXT
 10
  2.6000
 20
  3.4300
 30
0.0
 40
  0.0514
 1
IO31
 0
POLYLINE
 8
WIRE
 66
1
 10
0.0
 20
0.0
 30
0.0
 0
VERTEX
 8
WIRE
 10
  7.9000
 20
  3.4000
 30
0.0
 0
VERTEX
 8
WIRE
 10
  8.4000
 20
  3.4000
 30
0.0
 0
SEQEND
 8
WIRE
 0
TEXT
 8
WIRETEXT
 10
  8.0000
 20
  3.4300
 30
0.0
 40
  0.0514
 1
IO28
 0
POLYLINE
 8
WIRE
 66
1
 10
0.0
 20
0.0
 30
0.0
 0
VERTEX
 8
WIRE
 10
  1.0000
 20
  3.3000
 30
0.0
 0
VERTEX
 8
WIRE
 10
  1.6000
 20
  3.3000
 30
0.0
 0
SEQEND
 8
WIRE
 0
POLYLINE
 8
WIRE
 66
1
 10
0.0
 20
0.0
 30
0.0
 0
VERTEX
 8
WIRE
 10
  2.6000
 20
  3.3000
 30
0.0
 0
VERTEX
 8
WIRE
 10
  3.0000
 20
  3.3000
 30
0.0
 0
SEQEND
 8
WIRE
 0
TEXT
 8
WIRETEXT
 10
  2.6000
 20
  3.3300
 30
0.0
 40
  0.0514
 1
IO32
 0
POLYLINE
 8
WIRE
 66
1
 10
0.0
 20
0.0
 30
0.0
 0
VERTEX
 8
WIRE
 10
  1.0000
 20
  3.2000
 30
0.0
 0
VERTEX
 8
WIRE
 10
  1.6000
 20
  3.2000
 30
0.0
 0
SEQEND
 8
WIRE
 0
TEXT
 8
WIRETEXT
 10
  1.0000
 20
  3.2300
 30
0.0
 40
  0.0514
 1
IntSel*
 0
POLYLINE
 8
WIRE
 66
1
 10
0.0
 20
0.0
 30
0.0
 0
VERTEX
 8
WIRE
 10
  2.6000
 20
  3.2000
 30
0.0
 0
VERTEX
 8
WIRE
 10
  3.0000
 20
  3.2000
 30
0.0
 0
SEQEND
 8
WIRE
 0
TEXT
 8
WIRETEXT
 10
  2.6000
 20
  3.2300
 30
0.0
 40
  0.0514
 1
IO33
 0
POLYLINE
 8
WIRE
 66
1
 10
0.0
 20
0.0
 30
0.0
 0
VERTEX
 8
WIRE
 10
  6.3000
 20
  3.2000
 30
0.0
 0
VERTEX
 8
WIRE
 10
  6.7000
 20
  3.2000
 30
0.0
 0
SEQEND
 8
WIRE
 0
TEXT
 8
WIRETEXT
 10
  6.4000
 20
  3.2300
 30
0.0
 40
  0.0514
 1
D14
 0
POLYLINE
 8
WIRE
 66
1
 10
0.0
 20
0.0
 30
0.0
 0
VERTEX
 8
WIRE
 10
  7.9000
 20
  3.2000
 30
0.0
 0
VERTEX
 8
WIRE
 10
  8.4000
 20
  3.2000
 30
0.0
 0
SEQEND
 8
WIRE
 0
TEXT
 8
WIRETEXT
 10
  8.0000
 20
  3.2300
 30
0.0
 40
  0.0514
 1
IO29
 0
POLYLINE
 8
WIRE
 66
1
 10
0.0
 20
0.0
 30
0.0
 0
VERTEX
 8
WIRE
 10
  1.0000
 20
  3.1000
 30
0.0
 0
VERTEX
 8
WIRE
 10
  1.6000
 20
  3.1000
 30
0.0
 0
SEQEND
 8
WIRE
 0
POLYLINE
 8
WIRE
 66
1
 10
0.0
 20
0.0
 30
0.0
 0
VERTEX
 8
WIRE
 10
  2.6000
 20
  3.1000
 30
0.0
 0
VERTEX
 8
WIRE
 10
  3.0000
 20
  3.1000
 30
0.0
 0
SEQEND
 8
WIRE
 0
TEXT
 8
WIRETEXT
 10
  2.6000
 20
  3.1300
 30
0.0
 40
  0.0514
 1
IO34
 0
POLYLINE
 8
WIRE
 66
1
 10
0.0
 20
0.0
 30
0.0
 0
VERTEX
 8
WIRE
 10
  7.9000
 20
  3.1000
 30
0.0
 0
VERTEX
 8
WIRE
 10
  8.4000
 20
  3.1000
 30
0.0
 0
SEQEND
 8
WIRE
 0
TEXT
 8
WIRETEXT
 10
  8.0000
 20
  3.1300
 30
0.0
 40
  0.0514
 1
IO30
 0
POLYLINE
 8
WIRE
 66
1
 10
0.0
 20
0.0
 30
0.0
 0
VERTEX
 8
WIRE
 10
  1.0000
 20
  3.0000
 30
0.0
 0
VERTEX
 8
WIRE
 10
  1.6000
 20
  3.0000
 30
0.0
 0
SEQEND
 8
WIRE
 0
TEXT
 8
WIRETEXT
 10
  1.1000
 20
  3.0300
 30
0.0
 40
  0.0514
 1
IOSel*
 0
POLYLINE
 8
WIRE
 66
1
 10
0.0
 20
0.0
 30
0.0
 0
VERTEX
 8
WIRE
 10
  2.6000
 20
  3.0000
 30
0.0
 0
VERTEX
 8
WIRE
 10
  3.0000
 20
  3.0000
 30
0.0
 0
SEQEND
 8
WIRE
 0
TEXT
 8
WIRETEXT
 10
  2.6000
 20
  3.0300
 30
0.0
 40
  0.0514
 1
IO35
 0
POLYLINE
 8
WIRE
 66
1
 10
0.0
 20
0.0
 30
0.0
 0
VERTEX
 8
WIRE
 10
  1.0000
 20
  2.9000
 30
0.0
 0
VERTEX
 8
WIRE
 10
  1.6000
 20
  2.9000
 30
0.0
 0
SEQEND
 8
WIRE
 0
POLYLINE
 8
WIRE
 66
1
 10
0.0
 20
0.0
 30
0.0
 0
VERTEX
 8
WIRE
 10
  2.6000
 20
  2.9000
 30
0.0
 0
VERTEX
 8
WIRE
 10
  3.0000
 20
  2.9000
 30
0.0
 0
SEQEND
 8
WIRE
 0
TEXT
 8
WIRETEXT
 10
  2.6000
 20
  2.9300
 30
0.0
 40
  0.0514
 1
IO36
 0
POLYLINE
 8
WIRE
 66
1
 10
0.0
 20
0.0
 30
0.0
 0
VERTEX
 8
WIRE
 10
  6.3000
 20
  2.9000
 30
0.0
 0
VERTEX
 8
WIRE
 10
  6.7000
 20
  2.9000
 30
0.0
 0
SEQEND
 8
WIRE
 0
TEXT
 8
WIRETEXT
 10
  6.4000
 20
  2.9300
 30
0.0
 40
  0.0514
 1
D15
 0
POLYLINE
 8
WIRE
 66
1
 10
0.0
 20
0.0
 30
0.0
 0
VERTEX
 8
WIRE
 10
  7.9000
 20
  2.9000
 30
0.0
 0
VERTEX
 8
WIRE
 10
  8.4000
 20
  2.9000
 30
0.0
 0
SEQEND
 8
WIRE
 0
TEXT
 8
WIRETEXT
 10
  8.0000
 20
  2.9300
 30
0.0
 40
  0.0514
 1
IO31
 0
POLYLINE
 8
WIRE
 66
1
 10
0.0
 20
0.0
 30
0.0
 0
VERTEX
 8
WIRE
 10
  1.0000
 20
  2.8000
 30
0.0
 0
VERTEX
 8
WIRE
 10
  1.6000
 20
  2.8000
 30
0.0
 0
SEQEND
 8
WIRE
 0
TEXT
 8
WIRETEXT
 10
  1.4000
 20
  2.8300
 30
0.0
 40
  0.0514
 1
A1
 0
POLYLINE
 8
WIRE
 66
1
 10
0.0
 20
0.0
 30
0.0
 0
VERTEX
 8
WIRE
 10
  2.6000
 20
  2.8000
 30
0.0
 0
VERTEX
 8
WIRE
 10
  3.0000
 20
  2.8000
 30
0.0
 0
SEQEND
 8
WIRE
 0
TEXT
 8
WIRETEXT
 10
  2.6000
 20
  2.8300
 30
0.0
 40
  0.0514
 1
IO37
 0
POLYLINE
 8
WIRE
 66
1
 10
0.0
 20
0.0
 30
0.0
 0
VERTEX
 8
WIRE
 10
  7.9000
 20
  2.8000
 30
0.0
 0
VERTEX
 8
WIRE
 10
  8.4000
 20
  2.8000
 30
0.0
 0
SEQEND
 8
WIRE
 0
TEXT
 8
WIRETEXT
 10
  8.0000
 20
  2.8300
 30
0.0
 40
  0.0514
 1
IO32
 0
POLYLINE
 8
WIRE
 66
1
 10
0.0
 20
0.0
 30
0.0
 0
VERTEX
 8
WIRE
 10
  1.0000
 20
  2.7000
 30
0.0
 0
VERTEX
 8
WIRE
 10
  1.6000
 20
  2.7000
 30
0.0
 0
SEQEND
 8
WIRE
 0
POLYLINE
 8
WIRE
 66
1
 10
0.0
 20
0.0
 30
0.0
 0
VERTEX
 8
WIRE
 10
  2.6000
 20
  2.7000
 30
0.0
 0
VERTEX
 8
WIRE
 10
  3.0000
 20
  2.7000
 30
0.0
 0
SEQEND
 8
WIRE
 0
TEXT
 8
WIRETEXT
 10
  2.6000
 20
  2.7300
 30
0.0
 40
  0.0514
 1
IO38
 0
POLYLINE
 8
WIRE
 66
1
 10
0.0
 20
0.0
 30
0.0
 0
VERTEX
 8
WIRE
 10
  1.0000
 20
  2.6000
 30
0.0
 0
VERTEX
 8
WIRE
 10
  1.6000
 20
  2.6000
 30
0.0
 0
SEQEND
 8
WIRE
 0
POLYLINE
 8
WIRE
 66
1
 10
0.0
 20
0.0
 30
0.0
 0
VERTEX
 8
WIRE
 10
  2.6000
 20
  2.6000
 30
0.0
 0
VERTEX
 8
WIRE
 10
  3.0000
 20
  2.6000
 30
0.0
 0
SEQEND
 8
WIRE
 0
TEXT
 8
WIRETEXT
 10
  2.6000
 20
  2.6300
 30
0.0
 40
  0.0514
 1
IO39
 0
POLYLINE
 8
WIRE
 66
1
 10
0.0
 20
0.0
 30
0.0
 0
VERTEX
 8
WIRE
 10
  1.0000
 20
  2.5000
 30
0.0
 0
VERTEX
 8
WIRE
 10
  1.6000
 20
  2.5000
 30
0.0
 0
SEQEND
 8
WIRE
 0
POLYLINE
 8
WIRE
 66
1
 10
0.0
 20
0.0
 30
0.0
 0
VERTEX
 8
WIRE
 10
  2.6000
 20
  2.5000
 30
0.0
 0
VERTEX
 8
WIRE
 10
  3.0000
 20
  2.5000
 30
0.0
 0
SEQEND
 8
WIRE
 0
TEXT
 8
WIRETEXT
 10
  2.6000
 20
  2.5300
 30
0.0
 40
  0.0514
 1
IO40
 0
POLYLINE
 8
WIRE
 66
1
 10
0.0
 20
0.0
 30
0.0
 0
VERTEX
 8
WIRE
 10
  1.0000
 20
  2.4000
 30
0.0
 0
VERTEX
 8
WIRE
 10
  1.6000
 20
  2.4000
 30
0.0
 0
SEQEND
 8
WIRE
 0
POLYLINE
 8
WIRE
 66
1
 10
0.0
 20
0.0
 30
0.0
 0
VERTEX
 8
WIRE
 10
  2.6000
 20
  2.4000
 30
0.0
 0
VERTEX
 8
WIRE
 10
  3.0000
 20
  2.4000
 30
0.0
 0
SEQEND
 8
WIRE
 0
TEXT
 8
WIRETEXT
 10
  2.6000
 20
  2.4300
 30
0.0
 40
  0.0514
 1
IO41
 0
POLYLINE
 8
WIRE
 66
1
 10
0.0
 20
0.0
 30
0.0
 0
VERTEX
 8
WIRE
 10
  1.0000
 20
  2.3000
 30
0.0
 0
VERTEX
 8
WIRE
 10
  1.6000
 20
  2.3000
 30
0.0
 0
SEQEND
 8
WIRE
 0
TEXT
 8
WIRETEXT
 10
  1.0000
 20
  2.3300
 30
0.0
 40
  0.0514
 1
IntReq0*
 0
POLYLINE
 8
WIRE
 66
1
 10
0.0
 20
0.0
 30
0.0
 0
VERTEX
 8
WIRE
 10
  2.6000
 20
  2.3000
 30
0.0
 0
VERTEX
 8
WIRE
 10
  3.0000
 20
  2.3000
 30
0.0
 0
SEQEND
 8
WIRE
 0
TEXT
 8
WIRETEXT
 10
  2.6000
 20
  2.3300
 30
0.0
 40
  0.0514
 1
IO42
 0
POLYLINE
 8
WIRE
 66
1
 10
0.0
 20
0.0
 30
0.0
 0
VERTEX
 8
WIRE
 10
  1.0000
 20
  2.2000
 30
0.0
 0
VERTEX
 8
WIRE
 10
  1.6000
 20
  2.2000
 30
0.0
 0
SEQEND
 8
WIRE
 0
POLYLINE
 8
WIRE
 66
1
 10
0.0
 20
0.0
 30
0.0
 0
VERTEX
 8
WIRE
 10
  2.6000
 20
  2.2000
 30
0.0
 0
VERTEX
 8
WIRE
 10
  3.0000
 20
  2.2000
 30
0.0
 0
SEQEND
 8
WIRE
 0
TEXT
 8
WIRETEXT
 10
  2.6000
 20
  2.2300
 30
0.0
 40
  0.0514
 1
IO43
 0
POLYLINE
 8
WIRE
 66
1
 10
0.0
 20
0.0
 30
0.0
 0
VERTEX
 8
WIRE
 10
  1.0000
 20
  2.1000
 30
0.0
 0
VERTEX
 8
WIRE
 10
  1.6000
 20
  2.1000
 30
0.0
 0
SEQEND
 8
WIRE
 0
TEXT
 8
WIRETEXT
 10
  1.0000
 20
  2.1300
 30
0.0
 40
  0.0514
 1
IntReq1*
 0
POLYLINE
 8
WIRE
 66
1
 10
0.0
 20
0.0
 30
0.0
 0
VERTEX
 8
WIRE
 10
  2.6000
 20
  2.1000
 30
0.0
 0
VERTEX
 8
WIRE
 10
  3.0000
 20
  2.1000
 30
0.0
 0
SEQEND
 8
WIRE
 0
TEXT
 8
WIRETEXT
 10
  2.6000
 20
  2.1300
 30
0.0
 40
  0.0514
 1
IO44
 0
POLYLINE
 8
WIRE
 66
1
 10
0.0
 20
0.0
 30
0.0
 0
VERTEX
 8
WIRE
 10
  6.1000
 20
  2.1000
 30
0.0
 0
VERTEX
 8
WIRE
 10
  6.7000
 20
  2.1000
 30
0.0
 0
SEQEND
 8
WIRE
 0
TEXT
 8
WIRETEXT
 10
  6.1000
 20
  2.1300
 30
0.0
 40
  0.0514
 1
STROBE
 0
POLYLINE
 8
WIRE
 66
1
 10
0.0
 20
0.0
 30
0.0
 0
VERTEX
 8
WIRE
 10
  7.9000
 20
  2.1000
 30
0.0
 0
VERTEX
 8
WIRE
 10
  8.4000
 20
  2.1000
 30
0.0
 0
SEQEND
 8
WIRE
 0
TEXT
 8
WIRETEXT
 10
  8.0000
 20
  2.1300
 30
0.0
 40
  0.0514
 1
IO33
 0
POLYLINE
 8
WIRE
 66
1
 10
0.0
 20
0.0
 30
0.0
 0
VERTEX
 8
WIRE
 10
  1.0000
 20
  2.0000
 30
0.0
 0
VERTEX
 8
WIRE
 10
  1.6000
 20
  2.0000
 30
0.0
 0
SEQEND
 8
WIRE
 0
POLYLINE
 8
WIRE
 66
1
 10
0.0
 20
0.0
 30
0.0
 0
VERTEX
 8
WIRE
 10
  2.6000
 20
  2.0000
 30
0.0
 0
VERTEX
 8
WIRE
 10
  3.0000
 20
  2.0000
 30
0.0
 0
SEQEND
 8
WIRE
 0
TEXT
 8
WIRETEXT
 10
  2.6000
 20
  2.0300
 30
0.0
 40
  0.0514
 1
IO45
 0
POLYLINE
 8
WIRE
 66
1
 10
0.0
 20
0.0
 30
0.0
 0
VERTEX
 8
WIRE
 10
  7.9000
 20
  2.0000
 30
0.0
 0
VERTEX
 8
WIRE
 10
  8.4000
 20
  2.0000
 30
0.0
 0
SEQEND
 8
WIRE
 0
TEXT
 8
WIRETEXT
 10
  8.0000
 20
  2.0300
 30
0.0
 40
  0.0514
 1
IO34
 0
POLYLINE
 8
WIRE
 66
1
 10
0.0
 20
0.0
 30
0.0
 0
VERTEX
 8
WIRE
 10
  1.0000
 20
  1.9000
 30
0.0
 0
VERTEX
 8
WIRE
 10
  1.6000
 20
  1.9000
 30
0.0
 0
SEQEND
 8
WIRE
 0
POLYLINE
 8
WIRE
 66
1
 10
0.0
 20
0.0
 30
0.0
 0
VERTEX
 8
WIRE
 10
  2.6000
 20
  1.9000
 30
0.0
 0
VERTEX
 8
WIRE
 10
  3.0000
 20
  1.9000
 30
0.0
 0
SEQEND
 8
WIRE
 0
TEXT
 8
WIRETEXT
 10
  2.6000
 20
  1.9300
 30
0.0
 40
  0.0514
 1
IO46
 0
POLYLINE
 8
WIRE
 66
1
 10
0.0
 20
0.0
 30
0.0
 0
VERTEX
 8
WIRE
 10
  1.0000
 20
  1.8000
 30
0.0
 0
VERTEX
 8
WIRE
 10
  1.6000
 20
  1.8000
 30
0.0
 0
SEQEND
 8
WIRE
 0
POLYLINE
 8
WIRE
 66
1
 10
0.0
 20
0.0
 30
0.0
 0
VERTEX
 8
WIRE
 10
  2.6000
 20
  1.8000
 30
0.0
 0
VERTEX
 8
WIRE
 10
  3.0000
 20
  1.8000
 30
0.0
 0
SEQEND
 8
WIRE
 0
TEXT
 8
WIRETEXT
 10
  2.6000
 20
  1.8300
 30
0.0
 40
  0.0514
 1
IO47
 0
POLYLINE
 8
WIRE
 66
1
 10
0.0
 20
0.0
 30
0.0
 0
VERTEX
 8
WIRE
 10
  1.0000
 20
  1.7000
 30
0.0
 0
VERTEX
 8
WIRE
 10
  1.6000
 20
  1.7000
 30
0.0
 0
SEQEND
 8
WIRE
 0
TEXT
 8
WIRETEXT
 10
  1.2000
 20
  1.7300
 30
0.0
 40
  0.0514
 1
Ack*
 0
POLYLINE
 8
WIRE
 66
1
 10
0.0
 20
0.0
 30
0.0
 0
VERTEX
 8
WIRE
 10
  2.6000
 20
  1.7000
 30
0.0
 0
VERTEX
 8
WIRE
 10
  3.0000
 20
  1.7000
 30
0.0
 0
SEQEND
 8
WIRE
 0
TEXT
 8
WIRETEXT
 10
  2.6000
 20
  1.7300
 30
0.0
 40
  0.0514
 1
IO48
 0
POLYLINE
 8
WIRE
 66
1
 10
0.0
 20
0.0
 30
0.0
 0
VERTEX
 8
WIRE
 10
  1.0000
 20
  1.6000
 30
0.0
 0
VERTEX
 8
WIRE
 10
  1.6000
 20
  1.6000
 30
0.0
 0
SEQEND
 8
WIRE
 0
POLYLINE
 8
WIRE
 66
1
 10
0.0
 20
0.0
 30
0.0
 0
VERTEX
 8
WIRE
 10
  2.6000
 20
  1.6000
 30
0.0
 0
VERTEX
 8
WIRE
 10
  3.0000
 20
  1.6000
 30
0.0
 0
SEQEND
 8
WIRE
 0
TEXT
 8
WIRETEXT
 10
  2.6000
 20
  1.6300
 30
0.0
 40
  0.0514
 1
IO49
 0
POLYLINE
 8
WIRE
 66
1
 10
0.0
 20
0.0
 30
0.0
 0
VERTEX
 8
WIRE
 10
  1.0000
 20
  1.5000
 30
0.0
 0
VERTEX
 8
WIRE
 10
  1.6000
 20
  1.5000
 30
0.0
 0
SEQEND
 8
WIRE
 0
TEXT
 8
WIRETEXT
 10
  1.3000
 20
  1.5300
 30
0.0
 40
  0.0514
 1
GND
 0
POLYLINE
 8
WIRE
 66
1
 10
0.0
 20
0.0
 30
0.0
 0
VERTEX
 8
WIRE
 10
  2.6000
 20
  1.5000
 30
0.0
 0
VERTEX
 8
WIRE
 10
  3.0000
 20
  1.5000
 30
0.0
 0
SEQEND
 8
WIRE
 0
TEXT
 8
WIRETEXT
 10
  2.6000
 20
  1.5300
 30
0.0
 40
  0.0514
 1
IO50
 0
POLYLINE
 8
WIRE
 66
1
 10
0.0
 20
0.0
 30
0.0
 0
VERTEX
 8
WIRE
 10
  6.7000
 20
  7.8000
 30
0.0
 0
VERTEX
 8
WIRE
 10
  6.7000
 20
  7.7000
 30
0.0
 0
SEQEND
 8
WIRE
 0
POLYLINE
 8
WIRE
 66
1
 70
1
 10
0.0
 20
0.0
 30
0.0
 40
  0.0200
 41
  0.0200
 0
VERTEX
 8
WIRE
 10
  6.6900
 20
  7.7000
 30
0.0
 42
1.0
 0
VERTEX
 8
WIRE
 10
  6.7100
 20
  7.7000
 30
0.0
 42
1.0
 0
SEQEND
 8
WIRE
 0
POLYLINE
 8
WIRE
 66
1
 10
0.0
 20
0.0
 30
0.0
 0
VERTEX
 8
WIRE
 10
  6.7000
 20
  6.1000
 30
0.0
 0
VERTEX
 8
WIRE
 10
  6.7000
 20
  6.0000
 30
0.0
 0
SEQEND
 8
WIRE
 0
POLYLINE
 8
WIRE
 66
1
 70
1
 10
0.0
 20
0.0
 30
0.0
 40
  0.0200
 41
  0.0200
 0
VERTEX
 8
WIRE
 10
  6.6900
 20
  6.0000
 30
0.0
 42
1.0
 0
VERTEX
 8
WIRE
 10
  6.7100
 20
  6.0000
 30
0.0
 42
1.0
 0
SEQEND
 8
WIRE
 0
POLYLINE
 8
WIRE
 66
1
 10
0.0
 20
0.0
 30
0.0
 0
VERTEX
 8
WIRE
 10
  6.7000
 20
  4.4000
 30
0.0
 0
VERTEX
 8
WIRE
 10
  6.7000
 20
  4.3000
 30
0.0
 0
SEQEND
 8
WIRE
 0
POLYLINE
 8
WIRE
 66
1
 70
1
 10
0.0
 20
0.0
 30
0.0
 40
  0.0200
 41
  0.0200
 0
VERTEX
 8
WIRE
 10
  6.6900
 20
  4.3000
 30
0.0
 42
1.0
 0
VERTEX
 8
WIRE
 10
  6.7100
 20
  4.3000
 30
0.0
 42
1.0
 0
SEQEND
 8
WIRE
 0
POLYLINE
 8
WIRE
 66
1
 10
0.0
 20
0.0
 30
0.0
 0
VERTEX
 8
WIRE
 10
  6.7000
 20
  2.7000
 30
0.0
 0
VERTEX
 8
WIRE
 10
  6.7000
 20
  2.6000
 30
0.0
 0
SEQEND
 8
WIRE
 0
POLYLINE
 8
WIRE
 66
1
 70
1
 10
0.0
 20
0.0
 30
0.0
 40
  0.0200
 41
  0.0200
 0
VERTEX
 8
WIRE
 10
  6.6900
 20
  2.6000
 30
0.0
 42
1.0
 0
VERTEX
 8
WIRE
 10
  6.7100
 20
  2.6000
 30
0.0
 42
1.0
 0
SEQEND
 8
WIRE
 0
POLYLINE
 8
WIRE
 66
1
 10
0.0
 20
0.0
 30
0.0
 0
VERTEX
 8
WIRE
 10
  6.7000
 20
  1.8000
 30
0.0
 0
VERTEX
 8
WIRE
 10
  6.7000
 20
  1.5000
 30
0.0
 0
SEQEND
 8
WIRE
 0
POLYLINE
 8
WIRE
 66
1
 70
1
 10
0.0
 20
0.0
 30
0.0
 40
  0.0200
 41
  0.0200
 0
VERTEX
 8
WIRE
 10
  6.6900
 20
  1.5000
 30
0.0
 42
1.0
 0
VERTEX
 8
WIRE
 10
  6.7100
 20
  1.5000
 30
0.0
 42
1.0
 0
SEQEND
 8
WIRE
 0
POLYLINE
 8
WIRE
 66
1
 10
0.0
 20
0.0
 30
0.0
 0
VERTEX
 8
WIRE
 10
 10.3000
 20
  8.2000
 30
0.0
 0
VERTEX
 8
WIRE
 10
 10.3000
 20
  8.1000
 30
0.0
 0
SEQEND
 8
WIRE
 0
POLYLINE
 8
WIRE
 66
1
 10
0.0
 20
0.0
 30
0.0
 0
VERTEX
 8
WIRE
 10
 10.3000
 20
  7.9000
 30
0.0
 0
VERTEX
 8
WIRE
 10
 10.3000
 20
  7.8000
 30
0.0
 0
SEQEND
 8
WIRE
 0
POLYLINE
 8
WIRE
 66
1
 10
0.0
 20
0.0
 30
0.0
 0
VERTEX
 8
WIRE
 10
 10.3000
 20
  6.1000
 30
0.0
 0
VERTEX
 8
WIRE
 10
 10.3000
 20
  6.0000
 30
0.0
 0
SEQEND
 8
WIRE
 0
POLYLINE
 8
WIRE
 66
1
 10
0.0
 20
0.0
 30
0.0
 0
VERTEX
 8
WIRE
 10
 10.3000
 20
  5.1000
 30
0.0
 0
VERTEX
 8
WIRE
 10
 10.3000
 20
  5.0000
 30
0.0
 0
SEQEND
 8
WIRE
 0
POLYLINE
 8
WIRE
 66
1
 10
0.0
 20
0.0
 30
0.0
 0
VERTEX
 8
WIRE
 10
 10.3000
 20
  4.8000
 30
0.0
 0
VERTEX
 8
WIRE
 10
 10.3000
 20
  4.7000
 30
0.0
 0
SEQEND
 8
WIRE
 0
POLYLINE
 8
WIRE
 66
1
 10
0.0
 20
0.0
 30
0.0
 0
VERTEX
 8
WIRE
 10
 10.3000
 20
  4.5000
 30
0.0
 0
VERTEX
 8
WIRE
 10
 10.3000
 20
  4.4000
 30
0.0
 0
SEQEND
 8
WIRE
 0
POLYLINE
 8
WIRE
 66
1
 10
0.0
 20
0.0
 30
0.0
 0
VERTEX
 8
WIRE
 10
 10.3000
 20
  4.2000
 30
0.0
 0
VERTEX
 8
WIRE
 10
 10.3000
 20
  4.1000
 30
0.0
 0
SEQEND
 8
WIRE
 0
POLYLINE
 8
WIRE
 66
1
 10
0.0
 20
0.0
 30
0.0
 0
VERTEX
 8
WIRE
 10
 10.4000
 20
  8.3000
 30
0.0
 0
VERTEX
 8
WIRE
 10
 10.4000
 20
  8.2000
 30
0.0
 0
SEQEND
 8
WIRE
 0
POLYLINE
 8
WIRE
 66
1
 10
0.0
 20
0.0
 30
0.0
 0
VERTEX
 8
WIRE
 10
 10.4000
 20
  8.0000
 30
0.0
 0
VERTEX
 8
WIRE
 10
 10.4000
 20
  7.9000
 30
0.0
 0
SEQEND
 8
WIRE
 0
POLYLINE
 8
WIRE
 66
1
 10
0.0
 20
0.0
 30
0.0
 0
VERTEX
 8
WIRE
 10
 10.4000
 20
  6.2000
 30
0.0
 0
VERTEX
 8
WIRE
 10
 10.4000
 20
  6.1000
 30
0.0
 0
SEQEND
 8
WIRE
 0
POLYLINE
 8
WIRE
 66
1
 10
0.0
 20
0.0
 30
0.0
 0
VERTEX
 8
WIRE
 10
 10.4000
 20
  5.2000
 30
0.0
 0
VERTEX
 8
WIRE
 10
 10.4000
 20
  5.1000
 30
0.0
 0
SEQEND
 8
WIRE
 0
POLYLINE
 8
WIRE
 66
1
 10
0.0
 20
0.0
 30
0.0
 0
VERTEX
 8
WIRE
 10
 10.4000
 20
  4.9000
 30
0.0
 0
VERTEX
 8
WIRE
 10
 10.4000
 20
  4.8000
 30
0.0
 0
SEQEND
 8
WIRE
 0
POLYLINE
 8
WIRE
 66
1
 10
0.0
 20
0.0
 30
0.0
 0
VERTEX
 8
WIRE
 10
 10.4000
 20
  4.6000
 30
0.0
 0
VERTEX
 8
WIRE
 10
 10.4000
 20
  4.5000
 30
0.0
 0
SEQEND
 8
WIRE
 0
POLYLINE
 8
WIRE
 66
1
 10
0.0
 20
0.0
 30
0.0
 0
VERTEX
 8
WIRE
 10
 10.4000
 20
  4.3000
 30
0.0
 0
VERTEX
 8
WIRE
 10
 10.4000
 20
  4.2000
 30
0.0
 0
SEQEND
 8
WIRE
 0
POLYLINE
 8
WIRE
 66
1
 10
0.0
 20
0.0
 30
0.0
 0
VERTEX
 8
WIRE
 10
 10.9000
 20
  8.2000
 30
0.0
 0
VERTEX
 8
WIRE
 10
 10.9000
 20
  8.1000
 30
0.0
 0
SEQEND
 8
WIRE
 0
POLYLINE
 8
WIRE
 66
1
 10
0.0
 20
0.0
 30
0.0
 0
VERTEX
 8
WIRE
 10
 10.9000
 20
  7.9000
 30
0.0
 0
VERTEX
 8
WIRE
 10
 10.9000
 20
  7.8000
 30
0.0
 0
SEQEND
 8
WIRE
 0
POLYLINE
 8
WIRE
 66
1
 10
0.0
 20
0.0
 30
0.0
 0
VERTEX
 8
WIRE
 10
 10.9000
 20
  6.1000
 30
0.0
 0
VERTEX
 8
WIRE
 10
 10.9000
 20
  6.0000
 30
0.0
 0
SEQEND
 8
WIRE
 0
POLYLINE
 8
WIRE
 66
1
 10
0.0
 20
0.0
 30
0.0
 0
VERTEX
 8
WIRE
 10
 10.9000
 20
  5.9000
 30
0.0
 0
VERTEX
 8
WIRE
 10
 10.9000
 20
  5.8000
 30
0.0
 0
SEQEND
 8
WIRE
 0
POLYLINE
 8
WIRE
 66
1
 10
0.0
 20
0.0
 30
0.0
 0
VERTEX
 8
WIRE
 10
 10.9000
 20
  5.1000
 30
0.0
 0
VERTEX
 8
WIRE
 10
 10.9000
 20
  5.0000
 30
0.0
 0
SEQEND
 8
WIRE
 0
POLYLINE
 8
WIRE
 66
1
 10
0.0
 20
0.0
 30
0.0
 0
VERTEX
 8
WIRE
 10
 10.9000
 20
  4.8000
 30
0.0
 0
VERTEX
 8
WIRE
 10
 10.9000
 20
  4.7000
 30
0.0
 0
SEQEND
 8
WIRE
 0
POLYLINE
 8
WIRE
 66
1
 10
0.0
 20
0.0
 30
0.0
 0
VERTEX
 8
WIRE
 10
 10.9000
 20
  4.5000
 30
0.0
 0
VERTEX
 8
WIRE
 10
 10.9000
 20
  4.4000
 30
0.0
 0
SEQEND
 8
WIRE
 0
POLYLINE
 8
WIRE
 66
1
 10
0.0
 20
0.0
 30
0.0
 0
VERTEX
 8
WIRE
 10
 10.9000
 20
  4.2000
 30
0.0
 0
VERTEX
 8
WIRE
 10
 10.9000
 20
  4.1000
 30
0.0
 0
SEQEND
 8
WIRE
 0
POLYLINE
 8
WIRE
 66
1
 10
0.0
 20
0.0
 30
0.0
 0
VERTEX
 8
WIRE
 10
 10.9000
 20
  4.0000
 30
0.0
 0
VERTEX
 8
WIRE
 10
 10.9000
 20
  3.9000
 30
0.0
 0
SEQEND
 8
WIRE
 0
POLYLINE
 8
WIRE
 66
1
 10
0.0
 20
0.0
 30
0.0
 0
VERTEX
 8
WIRE
 10
 11.0000
 20
  7.7000
 30
0.0
 0
VERTEX
 8
WIRE
 10
 11.0000
 20
  7.5000
 30
0.0
 0
SEQEND
 8
WIRE
 0
POLYLINE
 8
WIRE
 66
1
 10
0.0
 20
0.0
 30
0.0
 0
VERTEX
 8
WIRE
 10
 11.0000
 20
  5.8000
 30
0.0
 0
VERTEX
 8
WIRE
 10
 11.0000
 20
  5.7000
 30
0.0
 0
SEQEND
 8
WIRE
 0
POLYLINE
 8
WIRE
 66
1
 10
0.0
 20
0.0
 30
0.0
 0
VERTEX
 8
WIRE
 10
 11.0000
 20
  3.9000
 30
0.0
 0
VERTEX
 8
WIRE
 10
 11.0000
 20
  3.8000
 30
0.0
 0
SEQEND
 8
WIRE
 0
POLYLINE
 8
WIRE
 66
1
 10
0.0
 20
0.0
 30
0.0
 0
VERTEX
 8
WIRE
 10
  6.7000
 20
  0.9000
 30
0.0
 0
VERTEX
 8
WIRE
 10
  6.7000
 20
  0.8000
 30
0.0
 0
SEQEND
 8
WIRE
 0
POLYLINE
 8
WIRE
 66
1
 10
0.0
 20
0.0
 30
0.0
 0
VERTEX
 8
WIRE
 10
  6.7000
 20
  1.0000
 30
0.0
 0
VERTEX
 8
WIRE
 10
  6.7000
 20
  0.9000
 30
0.0
 0
SEQEND
 8
WIRE
 0
POLYLINE
 8
WIRE
 66
1
 70
1
 10
0.0
 20
0.0
 30
0.0
 40
  0.0200
 41
  0.0200
 0
VERTEX
 8
WIRE
 10
  6.6900
 20
  0.9000
 30
0.0
 42
1.0
 0
VERTEX
 8
WIRE
 10
  6.7100
 20
  0.9000
 30
0.0
 42
1.0
 0
SEQEND
 8
WIRE
 0
POLYLINE
 8
WIRE
 66
1
 10
0.0
 20
0.0
 30
0.0
 0
VERTEX
 8
WIRE
 10
  6.7000
 20
  1.2000
 30
0.0
 0
VERTEX
 8
WIRE
 10
  6.7000
 20
  1.0000
 30
0.0
 0
SEQEND
 8
WIRE
 0
POLYLINE
 8
WIRE
 66
1
 70
1
 10
0.0
 20
0.0
 30
0.0
 40
  0.0200
 41
  0.0200
 0
VERTEX
 8
WIRE
 10
  6.6900
 20
  1.0000
 30
0.0
 42
1.0
 0
VERTEX
 8
WIRE
 10
  6.7100
 20
  1.0000
 30
0.0
 42
1.0
 0
SEQEND
 8
WIRE
 0
POLYLINE
 8
WIRE
 66
1
 10
0.0
 20
0.0
 30
0.0
 0
VERTEX
 8
WIRE
 10
  6.7000
 20
  1.5000
 30
0.0
 0
VERTEX
 8
WIRE
 10
  6.7000
 20
  1.2000
 30
0.0
 0
SEQEND
 8
WIRE
 0
POLYLINE
 8
WIRE
 66
1
 70
1
 10
0.0
 20
0.0
 30
0.0
 40
  0.0200
 41
  0.0200
 0
VERTEX
 8
WIRE
 10
  6.6900
 20
  1.2000
 30
0.0
 42
1.0
 0
VERTEX
 8
WIRE
 10
  6.7100
 20
  1.2000
 30
0.0
 42
1.0
 0
SEQEND
 8
WIRE
 0
POLYLINE
 8
WIRE
 66
1
 10
0.0
 20
0.0
 30
0.0
 0
VERTEX
 8
WIRE
 10
  6.7000
 20
  2.6000
 30
0.0
 0
VERTEX
 8
WIRE
 10
  6.7000
 20
  2.5000
 30
0.0
 0
SEQEND
 8
WIRE
 0
POLYLINE
 8
WIRE
 66
1
 10
0.0
 20
0.0
 30
0.0
 0
VERTEX
 8
WIRE
 10
  6.7000
 20
  7.7000
 30
0.0
 0
VERTEX
 8
WIRE
 10
  6.7000
 20
  7.6000
 30
0.0
 0
SEQEND
 8
WIRE
 0
POLYLINE
 8
WIRE
 66
1
 10
0.0
 20
0.0
 30
0.0
 0
VERTEX
 8
WIRE
 10
  6.7000
 20
  6.0000
 30
0.0
 0
VERTEX
 8
WIRE
 10
  6.7000
 20
  5.9000
 30
0.0
 0
SEQEND
 8
WIRE
 0
POLYLINE
 8
WIRE
 66
1
 10
0.0
 20
0.0
 30
0.0
 0
VERTEX
 8
WIRE
 10
  6.7000
 20
  4.3000
 30
0.0
 0
VERTEX
 8
WIRE
 10
  6.7000
 20
  4.2000
 30
0.0
 0
SEQEND
 8
WIRE
 0
POLYLINE
 8
PARTS
 66
1
 10
0.0
 20
0.0
 30
0.0
 0
VERTEX
 8
PARTS
 10
  6.6000
 20
  7.6000
 30
0.0
 0
VERTEX
 8
PARTS
 10
  6.8000
 20
  7.6000
 30
0.0
 0
SEQEND
 8
PARTS
 0
POLYLINE
 8
PARTS
 66
1
 10
0.0
 20
0.0
 30
0.0
 0
VERTEX
 8
PARTS
 10
  6.6300
 20
  7.5700
 30
0.0
 0
VERTEX
 8
PARTS
 10
  6.7700
 20
  7.5700
 30
0.0
 0
SEQEND
 8
PARTS
 0
POLYLINE
 8
PARTS
 66
1
 10
0.0
 20
0.0
 30
0.0
 0
VERTEX
 8
PARTS
 10
  6.7400
 20
  7.5400
 30
0.0
 0
VERTEX
 8
PARTS
 10
  6.6600
 20
  7.5400
 30
0.0
 0
SEQEND
 8
PARTS
 0
POLYLINE
 8
PARTS
 66
1
 10
0.0
 20
0.0
 30
0.0
 0
VERTEX
 8
PARTS
 10
  6.6900
 20
  7.5100
 30
0.0
 0
VERTEX
 8
PARTS
 10
  6.7100
 20
  7.5100
 30
0.0
 0
SEQEND
 8
PARTS
 0
POLYLINE
 8
PARTS
 66
1
 10
0.0
 20
0.0
 30
0.0
 0
VERTEX
 8
PARTS
 10
  6.6000
 20
  5.9000
 30
0.0
 0
VERTEX
 8
PARTS
 10
  6.8000
 20
  5.9000
 30
0.0
 0
SEQEND
 8
PARTS
 0
POLYLINE
 8
PARTS
 66
1
 10
0.0
 20
0.0
 30
0.0
 0
VERTEX
 8
PARTS
 10
  6.6300
 20
  5.8700
 30
0.0
 0
VERTEX
 8
PARTS
 10
  6.7700
 20
  5.8700
 30
0.0
 0
SEQEND
 8
PARTS
 0
POLYLINE
 8
PARTS
 66
1
 10
0.0
 20
0.0
 30
0.0
 0
VERTEX
 8
PARTS
 10
  6.7400
 20
  5.8400
 30
0.0
 0
VERTEX
 8
PARTS
 10
  6.6600
 20
  5.8400
 30
0.0
 0
SEQEND
 8
PARTS
 0
POLYLINE
 8
PARTS
 66
1
 10
0.0
 20
0.0
 30
0.0
 0
VERTEX
 8
PARTS
 10
  6.6900
 20
  5.8100
 30
0.0
 0
VERTEX
 8
PARTS
 10
  6.7100
 20
  5.8100
 30
0.0
 0
SEQEND
 8
PARTS
 0
POLYLINE
 8
PARTS
 66
1
 10
0.0
 20
0.0
 30
0.0
 0
VERTEX
 8
PARTS
 10
  6.6000
 20
  4.2000
 30
0.0
 0
VERTEX
 8
PARTS
 10
  6.8000
 20
  4.2000
 30
0.0
 0
SEQEND
 8
PARTS
 0
POLYLINE
 8
PARTS
 66
1
 10
0.0
 20
0.0
 30
0.0
 0
VERTEX
 8
PARTS
 10
  6.6300
 20
  4.1700
 30
0.0
 0
VERTEX
 8
PARTS
 10
  6.7700
 20
  4.1700
 30
0.0
 0
SEQEND
 8
PARTS
 0
POLYLINE
 8
PARTS
 66
1
 10
0.0
 20
0.0
 30
0.0
 0
VERTEX
 8
PARTS
 10
  6.7400
 20
  4.1400
 30
0.0
 0
VERTEX
 8
PARTS
 10
  6.6600
 20
  4.1400
 30
0.0
 0
SEQEND
 8
PARTS
 0
POLYLINE
 8
PARTS
 66
1
 10
0.0
 20
0.0
 30
0.0
 0
VERTEX
 8
PARTS
 10
  6.6900
 20
  4.1100
 30
0.0
 0
VERTEX
 8
PARTS
 10
  6.7100
 20
  4.1100
 30
0.0
 0
SEQEND
 8
PARTS
 0
POLYLINE
 8
PARTS
 66
1
 10
0.0
 20
0.0
 30
0.0
 0
VERTEX
 8
PARTS
 10
  6.6000
 20
  2.5000
 30
0.0
 0
VERTEX
 8
PARTS
 10
  6.8000
 20
  2.5000
 30
0.0
 0
SEQEND
 8
PARTS
 0
POLYLINE
 8
PARTS
 66
1
 10
0.0
 20
0.0
 30
0.0
 0
VERTEX
 8
PARTS
 10
  6.6300
 20
  2.4700
 30
0.0
 0
VERTEX
 8
PARTS
 10
  6.7700
 20
  2.4700
 30
0.0
 0
SEQEND
 8
PARTS
 0
POLYLINE
 8
PARTS
 66
1
 10
0.0
 20
0.0
 30
0.0
 0
VERTEX
 8
PARTS
 10
  6.7400
 20
  2.4400
 30
0.0
 0
VERTEX
 8
PARTS
 10
  6.6600
 20
  2.4400
 30
0.0
 0
SEQEND
 8
PARTS
 0
POLYLINE
 8
PARTS
 66
1
 10
0.0
 20
0.0
 30
0.0
 0
VERTEX
 8
PARTS
 10
  6.6900
 20
  2.4100
 30
0.0
 0
VERTEX
 8
PARTS
 10
  6.7100
 20
  2.4100
 30
0.0
 0
SEQEND
 8
PARTS
 0
POLYLINE
 8
PARTS
 66
1
 10
0.0
 20
0.0
 30
0.0
 0
VERTEX
 8
PARTS
 10
  6.6000
 20
  0.8000
 30
0.0
 0
VERTEX
 8
PARTS
 10
  6.8000
 20
  0.8000
 30
0.0
 0
SEQEND
 8
PARTS
 0
POLYLINE
 8
PARTS
 66
1
 10
0.0
 20
0.0
 30
0.0
 0
VERTEX
 8
PARTS
 10
  6.6300
 20
  0.7700
 30
0.0
 0
VERTEX
 8
PARTS
 10
  6.7700
 20
  0.7700
 30
0.0
 0
SEQEND
 8
PARTS
 0
POLYLINE
 8
PARTS
 66
1
 10
0.0
 20
0.0
 30
0.0
 0
VERTEX
 8
PARTS
 10
  6.7400
 20
  0.7400
 30
0.0
 0
VERTEX
 8
PARTS
 10
  6.6600
 20
  0.7400
 30
0.0
 0
SEQEND
 8
PARTS
 0
POLYLINE
 8
PARTS
 66
1
 10
0.0
 20
0.0
 30
0.0
 0
VERTEX
 8
PARTS
 10
  6.6900
 20
  0.7100
 30
0.0
 0
VERTEX
 8
PARTS
 10
  6.7100
 20
  0.7100
 30
0.0
 0
SEQEND
 8
PARTS
 0
POLYLINE
 8
PARTS
 66
1
 10
0.0
 20
0.0
 30
0.0
 0
VERTEX
 8
PARTS
 10
 10.9000
 20
  7.5000
 30
0.0
 0
VERTEX
 8
PARTS
 10
 11.1000
 20
  7.5000
 30
0.0
 0
SEQEND
 8
PARTS
 0
POLYLINE
 8
PARTS
 66
1
 10
0.0
 20
0.0
 30
0.0
 0
VERTEX
 8
PARTS
 10
 10.9300
 20
  7.4700
 30
0.0
 0
VERTEX
 8
PARTS
 10
 11.0700
 20
  7.4700
 30
0.0
 0
SEQEND
 8
PARTS
 0
POLYLINE
 8
PARTS
 66
1
 10
0.0
 20
0.0
 30
0.0
 0
VERTEX
 8
PARTS
 10
 11.0400
 20
  7.4400
 30
0.0
 0
VERTEX
 8
PARTS
 10
 10.9600
 20
  7.4400
 30
0.0
 0
SEQEND
 8
PARTS
 0
POLYLINE
 8
PARTS
 66
1
 10
0.0
 20
0.0
 30
0.0
 0
VERTEX
 8
PARTS
 10
 10.9900
 20
  7.4100
 30
0.0
 0
VERTEX
 8
PARTS
 10
 11.0100
 20
  7.4100
 30
0.0
 0
SEQEND
 8
PARTS
 0
POLYLINE
 8
PARTS
 66
1
 10
0.0
 20
0.0
 30
0.0
 0
VERTEX
 8
PARTS
 10
 10.9000
 20
  3.8000
 30
0.0
 0
VERTEX
 8
PARTS
 10
 11.1000
 20
  3.8000
 30
0.0
 0
SEQEND
 8
PARTS
 0
POLYLINE
 8
PARTS
 66
1
 10
0.0
 20
0.0
 30
0.0
 0
VERTEX
 8
PARTS
 10
 10.9300
 20
  3.7700
 30
0.0
 0
VERTEX
 8
PARTS
 10
 11.0700
 20
  3.7700
 30
0.0
 0
SEQEND
 8
PARTS
 0
POLYLINE
 8
PARTS
 66
1
 10
0.0
 20
0.0
 30
0.0
 0
VERTEX
 8
PARTS
 10
 11.0400
 20
  3.7400
 30
0.0
 0
VERTEX
 8
PARTS
 10
 10.9600
 20
  3.7400
 30
0.0
 0
SEQEND
 8
PARTS
 0
POLYLINE
 8
PARTS
 66
1
 10
0.0
 20
0.0
 30
0.0
 0
VERTEX
 8
PARTS
 10
 10.9900
 20
  3.7100
 30
0.0
 0
VERTEX
 8
PARTS
 10
 11.0100
 20
  3.7100
 30
0.0
 0
SEQEND
 8
PARTS
 0
POLYLINE
 8
PARTS
 66
1
 10
0.0
 20
0.0
 30
0.0
 0
VERTEX
 8
PARTS
 10
 10.9000
 20
  5.7000
 30
0.0
 0
VERTEX
 8
PARTS
 10
 11.1000
 20
  5.7000
 30
0.0
 0
SEQEND
 8
PARTS
 0
POLYLINE
 8
PARTS
 66
1
 10
0.0
 20
0.0
 30
0.0
 0
VERTEX
 8
PARTS
 10
 10.9300
 20
  5.6700
 30
0.0
 0
VERTEX
 8
PARTS
 10
 11.0700
 20
  5.6700
 30
0.0
 0
SEQEND
 8
PARTS
 0
POLYLINE
 8
PARTS
 66
1
 10
0.0
 20
0.0
 30
0.0
 0
VERTEX
 8
PARTS
 10
 11.0400
 20
  5.6400
 30
0.0
 0
VERTEX
 8
PARTS
 10
 10.9600
 20
  5.6400
 30
0.0
 0
SEQEND
 8
PARTS
 0
POLYLINE
 8
PARTS
 66
1
 10
0.0
 20
0.0
 30
0.0
 0
VERTEX
 8
PARTS
 10
 10.9900
 20
  5.6100
 30
0.0
 0
VERTEX
 8
PARTS
 10
 11.0100
 20
  5.6100
 30
0.0
 0
SEQEND
 8
PARTS
 0
TEXT
 8
COMMENTS
 10
 10.5000
 20
  8.4186
 30
0.0
 40
  0.0514
 1
120
 0
TEXT
 8
COMMENTS
 10
 10.5000
 20
  5.3186
 30
0.0
 40
  0.0514
 1
120
 0
TEXT
 8
COMMENTS
 10
  9.1000
 20
  3.3186
 30
0.0
 40
  0.0514
 1
Note : IO39,IO40 don't have a terminating resistor because 
 0
TEXT
 8
COMMENTS
 10
  9.7000
 20
  3.2186
 30
0.0
 40
  0.0514
 1
it is the power status for the DDS chassis.
 0
ENDSEC
 0
EOF
