 0
SECTION
 2
HEADER
 9
$ACADVER
 1
AC1009
 0
ENDSEC
 0
SECTION
 2
ENTITIES
 0
POLYLINE
 8
TITLE
 66
1
 70
1
 10
0.0
 20
0.0
 30
0.0
 0
VERTEX
 8
TITLE
 10
 -0.1000
 20
  0.1000
 30
0.0
 0
VERTEX
 8
TITLE
 10
 15.1000
 20
  0.1000
 30
0.0
 0
VERTEX
 8
TITLE
 10
 15.1000
 20
  9.8000
 30
0.0
 0
VERTEX
 8
TITLE
 10
 -0.1000
 20
  9.8000
 30
0.0
 0
SEQEND
 8
TITLE
 0
POLYLINE
 8
TITLE
 66
1
 70
1
 10
0.0
 20
0.0
 30
0.0
 0
VERTEX
 8
TITLE
 10
  0.0000
 20
  0.2000
 30
0.0
 0
VERTEX
 8
TITLE
 10
 15.0000
 20
  0.2000
 30
0.0
 0
VERTEX
 8
TITLE
 10
 15.0000
 20
  9.7000
 30
0.0
 0
VERTEX
 8
TITLE
 10
  0.0000
 20
  9.7000
 30
0.0
 0
SEQEND
 8
TITLE
 0
POLYLINE
 8
TITLE
 66
1
 10
0.0
 20
0.0
 30
0.0
 0
VERTEX
 8
TITLE
 10
  2.0500
 20
  0.2000
 30
0.0
 0
VERTEX
 8
TITLE
 10
  2.0500
 20
  0.1000
 30
0.0
 0
SEQEND
 8
TITLE
 0
POLYLINE
 8
TITLE
 66
1
 10
0.0
 20
0.0
 30
0.0
 0
VERTEX
 8
TITLE
 10
  2.0500
 20
  9.7000
 30
0.0
 0
VERTEX
 8
TITLE
 10
  2.0500
 20
  9.8000
 30
0.0
 0
SEQEND
 8
TITLE
 0
SOLID
 8
TITLE
 10
  7.6000
 20
  0.2000
 30
0.0
 11
  7.5800
 21
  0.1500
 31
0.0
 12
  7.6200
 22
  0.1500
 32
0.0
 13
  7.6000
 23
  0.1500
 33
0.0
 0
SOLID
 8
TITLE
 10
  7.6000
 20
  9.7000
 30
0.0
 11
  7.5800
 21
  9.7500
 31
0.0
 12
  7.6200
 22
  9.7500
 32
0.0
 13
  7.6000
 23
  9.7500
 33
0.0
 0
POLYLINE
 8
TITLE
 66
1
 10
0.0
 20
0.0
 30
0.0
 0
VERTEX
 8
TITLE
 10
  3.9000
 20
  0.2000
 30
0.0
 0
VERTEX
 8
TITLE
 10
  3.9000
 20
  0.1000
 30
0.0
 0
SEQEND
 8
TITLE
 0
POLYLINE
 8
TITLE
 66
1
 10
0.0
 20
0.0
 30
0.0
 0
VERTEX
 8
TITLE
 10
  3.9000
 20
  9.7000
 30
0.0
 0
VERTEX
 8
TITLE
 10
  3.9000
 20
  9.8000
 30
0.0
 0
SEQEND
 8
TITLE
 0
SOLID
 8
TITLE
 10
  7.6000
 20
  0.2000
 30
0.0
 11
  7.5800
 21
  0.1500
 31
0.0
 12
  7.6200
 22
  0.1500
 32
0.0
 13
  7.6000
 23
  0.1500
 33
0.0
 0
SOLID
 8
TITLE
 10
  7.6000
 20
  9.7000
 30
0.0
 11
  7.5800
 21
  9.7500
 31
0.0
 12
  7.6200
 22
  9.7500
 32
0.0
 13
  7.6000
 23
  9.7500
 33
0.0
 0
POLYLINE
 8
TITLE
 66
1
 10
0.0
 20
0.0
 30
0.0
 0
VERTEX
 8
TITLE
 10
  5.7500
 20
  0.2000
 30
0.0
 0
VERTEX
 8
TITLE
 10
  5.7500
 20
  0.1000
 30
0.0
 0
SEQEND
 8
TITLE
 0
POLYLINE
 8
TITLE
 66
1
 10
0.0
 20
0.0
 30
0.0
 0
VERTEX
 8
TITLE
 10
  5.7500
 20
  9.7000
 30
0.0
 0
VERTEX
 8
TITLE
 10
  5.7500
 20
  9.8000
 30
0.0
 0
SEQEND
 8
TITLE
 0
SOLID
 8
TITLE
 10
  7.6000
 20
  0.2000
 30
0.0
 11
  7.5800
 21
  0.1500
 31
0.0
 12
  7.6200
 22
  0.1500
 32
0.0
 13
  7.6000
 23
  0.1500
 33
0.0
 0
SOLID
 8
TITLE
 10
  7.6000
 20
  9.7000
 30
0.0
 11
  7.5800
 21
  9.7500
 31
0.0
 12
  7.6200
 22
  9.7500
 32
0.0
 13
  7.6000
 23
  9.7500
 33
0.0
 0
POLYLINE
 8
TITLE
 66
1
 10
0.0
 20
0.0
 30
0.0
 0
VERTEX
 8
TITLE
 10
  7.6000
 20
  0.2000
 30
0.0
 0
VERTEX
 8
TITLE
 10
  7.6000
 20
  0.1000
 30
0.0
 0
SEQEND
 8
TITLE
 0
POLYLINE
 8
TITLE
 66
1
 10
0.0
 20
0.0
 30
0.0
 0
VERTEX
 8
TITLE
 10
  7.6000
 20
  9.7000
 30
0.0
 0
VERTEX
 8
TITLE
 10
  7.6000
 20
  9.8000
 30
0.0
 0
SEQEND
 8
TITLE
 0
SOLID
 8
TITLE
 10
  7.6000
 20
  0.2000
 30
0.0
 11
  7.5800
 21
  0.1500
 31
0.0
 12
  7.6200
 22
  0.1500
 32
0.0
 13
  7.6000
 23
  0.1500
 33
0.0
 0
SOLID
 8
TITLE
 10
  7.6000
 20
  9.7000
 30
0.0
 11
  7.5800
 21
  9.7500
 31
0.0
 12
  7.6200
 22
  9.7500
 32
0.0
 13
  7.6000
 23
  9.7500
 33
0.0
 0
POLYLINE
 8
TITLE
 66
1
 10
0.0
 20
0.0
 30
0.0
 0
VERTEX
 8
TITLE
 10
  9.4500
 20
  0.2000
 30
0.0
 0
VERTEX
 8
TITLE
 10
  9.4500
 20
  0.1000
 30
0.0
 0
SEQEND
 8
TITLE
 0
POLYLINE
 8
TITLE
 66
1
 10
0.0
 20
0.0
 30
0.0
 0
VERTEX
 8
TITLE
 10
  9.4500
 20
  9.7000
 30
0.0
 0
VERTEX
 8
TITLE
 10
  9.4500
 20
  9.8000
 30
0.0
 0
SEQEND
 8
TITLE
 0
SOLID
 8
TITLE
 10
  7.6000
 20
  0.2000
 30
0.0
 11
  7.5800
 21
  0.1500
 31
0.0
 12
  7.6200
 22
  0.1500
 32
0.0
 13
  7.6000
 23
  0.1500
 33
0.0
 0
SOLID
 8
TITLE
 10
  7.6000
 20
  9.7000
 30
0.0
 11
  7.5800
 21
  9.7500
 31
0.0
 12
  7.6200
 22
  9.7500
 32
0.0
 13
  7.6000
 23
  9.7500
 33
0.0
 0
POLYLINE
 8
TITLE
 66
1
 10
0.0
 20
0.0
 30
0.0
 0
VERTEX
 8
TITLE
 10
 11.3000
 20
  0.2000
 30
0.0
 0
VERTEX
 8
TITLE
 10
 11.3000
 20
  0.1000
 30
0.0
 0
SEQEND
 8
TITLE
 0
POLYLINE
 8
TITLE
 66
1
 10
0.0
 20
0.0
 30
0.0
 0
VERTEX
 8
TITLE
 10
 11.3000
 20
  9.7000
 30
0.0
 0
VERTEX
 8
TITLE
 10
 11.3000
 20
  9.8000
 30
0.0
 0
SEQEND
 8
TITLE
 0
SOLID
 8
TITLE
 10
  7.6000
 20
  0.2000
 30
0.0
 11
  7.5800
 21
  0.1500
 31
0.0
 12
  7.6200
 22
  0.1500
 32
0.0
 13
  7.6000
 23
  0.1500
 33
0.0
 0
SOLID
 8
TITLE
 10
  7.6000
 20
  9.7000
 30
0.0
 11
  7.5800
 21
  9.7500
 31
0.0
 12
  7.6200
 22
  9.7500
 32
0.0
 13
  7.6000
 23
  9.7500
 33
0.0
 0
POLYLINE
 8
TITLE
 66
1
 10
0.0
 20
0.0
 30
0.0
 0
VERTEX
 8
TITLE
 10
 13.1500
 20
  0.2000
 30
0.0
 0
VERTEX
 8
TITLE
 10
 13.1500
 20
  0.1000
 30
0.0
 0
SEQEND
 8
TITLE
 0
POLYLINE
 8
TITLE
 66
1
 10
0.0
 20
0.0
 30
0.0
 0
VERTEX
 8
TITLE
 10
 13.1500
 20
  9.7000
 30
0.0
 0
VERTEX
 8
TITLE
 10
 13.1500
 20
  9.8000
 30
0.0
 0
SEQEND
 8
TITLE
 0
SOLID
 8
TITLE
 10
  7.6000
 20
  0.2000
 30
0.0
 11
  7.5800
 21
  0.1500
 31
0.0
 12
  7.6200
 22
  0.1500
 32
0.0
 13
  7.6000
 23
  0.1500
 33
0.0
 0
SOLID
 8
TITLE
 10
  7.6000
 20
  9.7000
 30
0.0
 11
  7.5800
 21
  9.7500
 31
0.0
 12
  7.6200
 22
  9.7500
 32
0.0
 13
  7.6000
 23
  9.7500
 33
0.0
 0
TEXT
 8
TITLE
 10
  1.1200
 20
  0.1200
 30
0.0
 40
  0.0500
 1
8
 0
TEXT
 8
TITLE
 10
  1.1200
 20
  9.7200
 30
0.0
 40
  0.0500
 1
8
 0
TEXT
 8
TITLE
 10
  2.9700
 20
  0.1200
 30
0.0
 40
  0.0500
 1
7
 0
TEXT
 8
TITLE
 10
  2.9700
 20
  9.7200
 30
0.0
 40
  0.0500
 1
7
 0
TEXT
 8
TITLE
 10
  4.8200
 20
  0.1200
 30
0.0
 40
  0.0500
 1
6
 0
TEXT
 8
TITLE
 10
  4.8200
 20
  9.7200
 30
0.0
 40
  0.0500
 1
6
 0
TEXT
 8
TITLE
 10
  6.6700
 20
  0.1200
 30
0.0
 40
  0.0500
 1
5
 0
TEXT
 8
TITLE
 10
  6.6700
 20
  9.7200
 30
0.0
 40
  0.0500
 1
5
 0
TEXT
 8
TITLE
 10
  8.5200
 20
  0.1200
 30
0.0
 40
  0.0500
 1
4
 0
TEXT
 8
TITLE
 10
  8.5200
 20
  9.7200
 30
0.0
 40
  0.0500
 1
4
 0
TEXT
 8
TITLE
 10
 10.3700
 20
  0.1200
 30
0.0
 40
  0.0500
 1
3
 0
TEXT
 8
TITLE
 10
 10.3700
 20
  9.7200
 30
0.0
 40
  0.0500
 1
3
 0
TEXT
 8
TITLE
 10
 12.2200
 20
  0.1200
 30
0.0
 40
  0.0500
 1
2
 0
TEXT
 8
TITLE
 10
 12.2200
 20
  9.7200
 30
0.0
 40
  0.0500
 1
2
 0
TEXT
 8
TITLE
 10
 14.0700
 20
  0.1200
 30
0.0
 40
  0.0500
 1
1
 0
TEXT
 8
TITLE
 10
 14.0700
 20
  9.7200
 30
0.0
 40
  0.0500
 1
1
 0
POLYLINE
 8
TITLE
 66
1
 10
0.0
 20
0.0
 30
0.0
 0
VERTEX
 8
TITLE
 10
 -0.1000
 20
  7.1800
 30
0.0
 0
VERTEX
 8
TITLE
 10
  0.0000
 20
  7.1800
 30
0.0
 0
SEQEND
 8
TITLE
 0
POLYLINE
 8
TITLE
 66
1
 10
0.0
 20
0.0
 30
0.0
 0
VERTEX
 8
TITLE
 10
 15.0000
 20
  7.1800
 30
0.0
 0
VERTEX
 8
TITLE
 10
 15.1000
 20
  7.1800
 30
0.0
 0
SEQEND
 8
TITLE
 0
SOLID
 8
TITLE
 10
  0.0000
 20
  4.8600
 30
0.0
 11
 -0.0500
 21
  4.8800
 31
0.0
 12
 -0.0500
 22
  4.8400
 32
0.0
 13
 -0.0500
 23
  4.8600
 33
0.0
 0
SOLID
 8
TITLE
 10
 15.0000
 20
  4.8600
 30
0.0
 11
 15.0500
 21
  4.8800
 31
0.0
 12
 15.0500
 22
  4.8400
 32
0.0
 13
 15.0500
 23
  4.8600
 33
0.0
 0
POLYLINE
 8
TITLE
 66
1
 10
0.0
 20
0.0
 30
0.0
 0
VERTEX
 8
TITLE
 10
 -0.1000
 20
  4.8600
 30
0.0
 0
VERTEX
 8
TITLE
 10
  0.0000
 20
  4.8600
 30
0.0
 0
SEQEND
 8
TITLE
 0
POLYLINE
 8
TITLE
 66
1
 10
0.0
 20
0.0
 30
0.0
 0
VERTEX
 8
TITLE
 10
 15.0000
 20
  4.8600
 30
0.0
 0
VERTEX
 8
TITLE
 10
 15.1000
 20
  4.8600
 30
0.0
 0
SEQEND
 8
TITLE
 0
SOLID
 8
TITLE
 10
  0.0000
 20
  4.8600
 30
0.0
 11
 -0.0500
 21
  4.8800
 31
0.0
 12
 -0.0500
 22
  4.8400
 32
0.0
 13
 -0.0500
 23
  4.8600
 33
0.0
 0
SOLID
 8
TITLE
 10
 15.0000
 20
  4.8600
 30
0.0
 11
 15.0500
 21
  4.8800
 31
0.0
 12
 15.0500
 22
  4.8400
 32
0.0
 13
 15.0500
 23
  4.8600
 33
0.0
 0
POLYLINE
 8
TITLE
 66
1
 10
0.0
 20
0.0
 30
0.0
 0
VERTEX
 8
TITLE
 10
 -0.1000
 20
  2.5400
 30
0.0
 0
VERTEX
 8
TITLE
 10
  0.0000
 20
  2.5400
 30
0.0
 0
SEQEND
 8
TITLE
 0
POLYLINE
 8
TITLE
 66
1
 10
0.0
 20
0.0
 30
0.0
 0
VERTEX
 8
TITLE
 10
 15.0000
 20
  2.5400
 30
0.0
 0
VERTEX
 8
TITLE
 10
 15.1000
 20
  2.5400
 30
0.0
 0
SEQEND
 8
TITLE
 0
SOLID
 8
TITLE
 10
  0.0000
 20
  4.8600
 30
0.0
 11
 -0.0500
 21
  4.8800
 31
0.0
 12
 -0.0500
 22
  4.8400
 32
0.0
 13
 -0.0500
 23
  4.8600
 33
0.0
 0
SOLID
 8
TITLE
 10
 15.0000
 20
  4.8600
 30
0.0
 11
 15.0500
 21
  4.8800
 31
0.0
 12
 15.0500
 22
  4.8400
 32
0.0
 13
 15.0500
 23
  4.8600
 33
0.0
 0
TEXT
 8
TITLE
 10
 -0.0800
 20
  8.3400
 30
0.0
 40
  0.0500
 1
D
 0
TEXT
 8
TITLE
 10
 15.0200
 20
  8.3400
 30
0.0
 40
  0.0500
 1
D
 0
TEXT
 8
TITLE
 10
 -0.0800
 20
  6.0200
 30
0.0
 40
  0.0500
 1
C
 0
TEXT
 8
TITLE
 10
 15.0200
 20
  6.0200
 30
0.0
 40
  0.0500
 1
C
 0
TEXT
 8
TITLE
 10
 -0.0800
 20
  3.7000
 30
0.0
 40
  0.0500
 1
B
 0
TEXT
 8
TITLE
 10
 15.0200
 20
  3.7000
 30
0.0
 40
  0.0500
 1
B
 0
TEXT
 8
TITLE
 10
 -0.0800
 20
  1.3800
 30
0.0
 40
  0.0500
 1
A
 0
TEXT
 8
TITLE
 10
 15.0200
 20
  1.3800
 30
0.0
 40
  0.0500
 1
A
 0
TEXT
 8
TITLE
 10
 11.7000
 20
  0.4186
 30
0.0
 40
  0.0514
 1
DIGITAL BOARD
 0
TEXT
 8
TITLE
 10
 14.6700
 20
  0.3986
 30
0.0
 40
  0.0514
 1
0
 0
TEXT
 8
TITLE
 10
 11.7000
 20
  0.7186
 30
0.0
 40
  0.0514
 1
DDS CONTROLLER
 0
TEXT
 8
TITLE
 10
 11.3000
 20
  1.3186
 30
0.0
 40
  0.0514
 1
ARECIBO OBSERVATORY
 0
TEXT
 8
TITLE
 10
 11.3000
 20
  1.1186
 30
0.0
 40
  0.0514
 1
BY : BILL SISK
 0
TEXT
 8
TITLE
 10
 11.3000
 20
  1.0186
 30
0.0
 40
  0.0514
 1
FILE : DDS5.SCH
 0
TEXT
 8
TITLE
 10
 11.4000
 20
  0.4186
 30
0.0
 40
  0.0514
 1
B
 0
TEXT
 8
TITLE
 10
 13.8000
 20
  0.2186
 30
0.0
 40
  0.0514
 1
2
 0
TEXT
 8
TITLE
 10
 14.4000
 20
  0.2186
 30
0.0
 40
  0.0514
 1
4
 0
TEXT
 8
TITLE
 10
 11.7100
 20
  0.2186
 30
0.0
 40
  0.0514
 1
Friday, March 11, 2005
 0
TEXT
 8
PARTTEXT
 10
 11.3000
 20
  0.8186
 30
0.0
 40
  0.0514
 1
Title
 0
TEXT
 8
PARTTEXT
 10
 11.3000
 20
  0.5186
 30
0.0
 40
  0.0514
 1
Size
 0
TEXT
 8
PARTTEXT
 10
 11.7000
 20
  0.5186
 30
0.0
 40
  0.0514
 1
Document Number
 0
TEXT
 8
PARTTEXT
 10
 14.6000
 20
  0.5186
 30
0.0
 40
  0.0514
 1
Rev
 0
TEXT
 8
PARTTEXT
 10
 11.3000
 20
  0.2186
 30
0.0
 40
  0.0514
 1
Date:
 0
TEXT
 8
PARTTEXT
 10
 13.3000
 20
  0.2186
 30
0.0
 40
  0.0514
 1
Sheet
 0
POLYLINE
 8
TITLE
 66
1
 70
1
 10
0.0
 20
0.0
 30
0.0
 0
VERTEX
 8
TITLE
 10
 11.3000
 20
  1.4000
 30
0.0
 0
VERTEX
 8
TITLE
 10
 14.9000
 20
  1.4000
 30
0.0
 0
VERTEX
 8
TITLE
 10
 14.9000
 20
  0.9000
 30
0.0
 0
VERTEX
 8
TITLE
 10
 11.3000
 20
  0.9000
 30
0.0
 0
SEQEND
 8
TITLE
 0
POLYLINE
 8
TITLE
 66
1
 70
1
 10
0.0
 20
0.0
 30
0.0
 0
VERTEX
 8
TITLE
 10
 11.3000
 20
  0.9000
 30
0.0
 0
VERTEX
 8
TITLE
 10
 14.9000
 20
  0.9000
 30
0.0
 0
VERTEX
 8
TITLE
 10
 14.9000
 20
  0.6000
 30
0.0
 0
VERTEX
 8
TITLE
 10
 11.3000
 20
  0.6000
 30
0.0
 0
SEQEND
 8
TITLE
 0
POLYLINE
 8
TITLE
 66
1
 70
1
 10
0.0
 20
0.0
 30
0.0
 0
VERTEX
 8
TITLE
 10
 11.3000
 20
  0.6000
 30
0.0
 0
VERTEX
 8
TITLE
 10
 11.6000
 20
  0.6000
 30
0.0
 0
VERTEX
 8
TITLE
 10
 11.6000
 20
  0.3000
 30
0.0
 0
VERTEX
 8
TITLE
 10
 11.3000
 20
  0.3000
 30
0.0
 0
SEQEND
 8
TITLE
 0
POLYLINE
 8
TITLE
 66
1
 70
1
 10
0.0
 20
0.0
 30
0.0
 0
VERTEX
 8
TITLE
 10
 11.6000
 20
  0.6000
 30
0.0
 0
VERTEX
 8
TITLE
 10
 14.6000
 20
  0.6000
 30
0.0
 0
VERTEX
 8
TITLE
 10
 14.6000
 20
  0.3000
 30
0.0
 0
VERTEX
 8
TITLE
 10
 11.6000
 20
  0.3000
 30
0.0
 0
SEQEND
 8
TITLE
 0
POLYLINE
 8
TITLE
 66
1
 70
1
 10
0.0
 20
0.0
 30
0.0
 0
VERTEX
 8
TITLE
 10
 14.6000
 20
  0.6000
 30
0.0
 0
VERTEX
 8
TITLE
 10
 14.9000
 20
  0.6000
 30
0.0
 0
VERTEX
 8
TITLE
 10
 14.9000
 20
  0.3000
 30
0.0
 0
VERTEX
 8
TITLE
 10
 14.6000
 20
  0.3000
 30
0.0
 0
SEQEND
 8
TITLE
 0
POLYLINE
 8
TITLE
 66
1
 70
1
 10
0.0
 20
0.0
 30
0.0
 0
VERTEX
 8
TITLE
 10
 11.3000
 20
  0.3000
 30
0.0
 0
VERTEX
 8
TITLE
 10
 13.3000
 20
  0.3000
 30
0.0
 0
VERTEX
 8
TITLE
 10
 13.3000
 20
  0.2000
 30
0.0
 0
VERTEX
 8
TITLE
 10
 11.3000
 20
  0.2000
 30
0.0
 0
SEQEND
 8
TITLE
 0
POLYLINE
 8
TITLE
 66
1
 70
1
 10
0.0
 20
0.0
 30
0.0
 0
VERTEX
 8
TITLE
 10
 13.3000
 20
  0.3000
 30
0.0
 0
VERTEX
 8
TITLE
 10
 14.9000
 20
  0.3000
 30
0.0
 0
VERTEX
 8
TITLE
 10
 14.9000
 20
  0.2000
 30
0.0
 0
VERTEX
 8
TITLE
 10
 13.3000
 20
  0.2000
 30
0.0
 0
SEQEND
 8
TITLE
 0
TEXT
 8
PARTTEXT
 10
 14.1000
 20
  0.2186
 30
0.0
 40
  0.0514
 1
of
 0
TEXT
 8
PARTTEXT
 10
  4.7500
 20
  9.2086
 30
0.0
 40
  0.0514
 1
R2
 0
TEXT
 8
PARTTEXT
 10
  4.7500
 20
  7.9086
 30
0.0
 40
  0.0514
 1
74LS377
 0
LINE
 8
PARTS
 10
  4.4000
 20
  9.1000
 30
0.0
 11
  4.7000
 21
  9.1000
 31
0.0
 0
TEXT
 8
PARTS
 10
  4.7900
 20
  9.0750
 30
0.0
 40
  0.0500
 1
D1
 0
TEXT
 8
PARTS
 10
  4.6000
 20
  9.1300
 30
0.0
 40
  0.0500
 1
3
 0
LINE
 8
PARTS
 10
  4.4000
 20
  9.0000
 30
0.0
 11
  4.7000
 21
  9.0000
 31
0.0
 0
TEXT
 8
PARTS
 10
  4.7900
 20
  8.9750
 30
0.0
 40
  0.0500
 1
D2
 0
TEXT
 8
PARTS
 10
  4.6000
 20
  9.0300
 30
0.0
 40
  0.0500
 1
4
 0
LINE
 8
PARTS
 10
  4.4000
 20
  8.9000
 30
0.0
 11
  4.7000
 21
  8.9000
 31
0.0
 0
TEXT
 8
PARTS
 10
  4.7900
 20
  8.8750
 30
0.0
 40
  0.0500
 1
D3
 0
TEXT
 8
PARTS
 10
  4.6000
 20
  8.9300
 30
0.0
 40
  0.0500
 1
7
 0
LINE
 8
PARTS
 10
  4.4000
 20
  8.8000
 30
0.0
 11
  4.7000
 21
  8.8000
 31
0.0
 0
TEXT
 8
PARTS
 10
  4.7900
 20
  8.7750
 30
0.0
 40
  0.0500
 1
D4
 0
TEXT
 8
PARTS
 10
  4.6000
 20
  8.8300
 30
0.0
 40
  0.0500
 1
8
 0
LINE
 8
PARTS
 10
  4.4000
 20
  8.7000
 30
0.0
 11
  4.7000
 21
  8.7000
 31
0.0
 0
TEXT
 8
PARTS
 10
  4.7900
 20
  8.6750
 30
0.0
 40
  0.0500
 1
D5
 0
TEXT
 8
PARTS
 10
  4.5600
 20
  8.7300
 30
0.0
 40
  0.0500
 1
13
 0
LINE
 8
PARTS
 10
  4.4000
 20
  8.6000
 30
0.0
 11
  4.7000
 21
  8.6000
 31
0.0
 0
TEXT
 8
PARTS
 10
  4.7900
 20
  8.5750
 30
0.0
 40
  0.0500
 1
D6
 0
TEXT
 8
PARTS
 10
  4.5600
 20
  8.6300
 30
0.0
 40
  0.0500
 1
14
 0
LINE
 8
PARTS
 10
  4.4000
 20
  8.5000
 30
0.0
 11
  4.7000
 21
  8.5000
 31
0.0
 0
TEXT
 8
PARTS
 10
  4.7900
 20
  8.4750
 30
0.0
 40
  0.0500
 1
D7
 0
TEXT
 8
PARTS
 10
  4.5600
 20
  8.5300
 30
0.0
 40
  0.0500
 1
17
 0
LINE
 8
PARTS
 10
  4.4000
 20
  8.4000
 30
0.0
 11
  4.7000
 21
  8.4000
 31
0.0
 0
TEXT
 8
PARTS
 10
  4.7900
 20
  8.3750
 30
0.0
 40
  0.0500
 1
D8
 0
TEXT
 8
PARTS
 10
  4.5600
 20
  8.4300
 30
0.0
 40
  0.0500
 1
18
 0
LINE
 8
PARTS
 10
  4.4000
 20
  8.2000
 30
0.0
 11
  4.7000
 21
  8.2000
 31
0.0
 0
LINE
 8
PARTS
 10
  4.7000
 20
  8.2600
 30
0.0
 11
  4.7600
 21
  8.2000
 31
0.0
 0
LINE
 8
PARTS
 10
  4.7600
 20
  8.2000
 30
0.0
 11
  4.7000
 21
  8.1400
 31
0.0
 0
TEXT
 8
PARTS
 10
  4.7900
 20
  8.1750
 30
0.0
 40
  0.0500
 1
CLK
 0
TEXT
 8
PARTS
 10
  4.5600
 20
  8.2300
 30
0.0
 40
  0.0500
 1
11
 0
CIRCLE
 8
PARTS
 10
  4.6700
 20
  8.1000
 30
0.0
 40
  0.0300
 0
LINE
 8
PARTS
 10
  4.4000
 20
  8.1000
 30
0.0
 11
  4.6400
 21
  8.1000
 31
0.0
 0
TEXT
 8
PARTS
 10
  4.7900
 20
  8.0750
 30
0.0
 40
  0.0500
 1
G
 0
TEXT
 8
PARTS
 10
  4.6000
 20
  8.1300
 30
0.0
 40
  0.0500
 1
1
 0
LINE
 8
PARTS
 10
  5.6000
 20
  9.1000
 30
0.0
 11
  5.3000
 21
  9.1000
 31
0.0
 0
TEXT
 8
PARTS
 10
  5.1300
 20
  9.0750
 30
0.0
 40
  0.0500
 1
Q1
 0
TEXT
 8
PARTS
 10
  5.3600
 20
  9.1300
 30
0.0
 40
  0.0500
 1
2
 0
LINE
 8
PARTS
 10
  5.6000
 20
  9.0000
 30
0.0
 11
  5.3000
 21
  9.0000
 31
0.0
 0
TEXT
 8
PARTS
 10
  5.1300
 20
  8.9750
 30
0.0
 40
  0.0500
 1
Q2
 0
TEXT
 8
PARTS
 10
  5.3600
 20
  9.0300
 30
0.0
 40
  0.0500
 1
5
 0
LINE
 8
PARTS
 10
  5.6000
 20
  8.9000
 30
0.0
 11
  5.3000
 21
  8.9000
 31
0.0
 0
TEXT
 8
PARTS
 10
  5.1300
 20
  8.8750
 30
0.0
 40
  0.0500
 1
Q3
 0
TEXT
 8
PARTS
 10
  5.3600
 20
  8.9300
 30
0.0
 40
  0.0500
 1
6
 0
LINE
 8
PARTS
 10
  5.6000
 20
  8.8000
 30
0.0
 11
  5.3000
 21
  8.8000
 31
0.0
 0
TEXT
 8
PARTS
 10
  5.1300
 20
  8.7750
 30
0.0
 40
  0.0500
 1
Q4
 0
TEXT
 8
PARTS
 10
  5.3600
 20
  8.8300
 30
0.0
 40
  0.0500
 1
9
 0
LINE
 8
PARTS
 10
  5.6000
 20
  8.7000
 30
0.0
 11
  5.3000
 21
  8.7000
 31
0.0
 0
TEXT
 8
PARTS
 10
  5.1300
 20
  8.6750
 30
0.0
 40
  0.0500
 1
Q5
 0
TEXT
 8
PARTS
 10
  5.3600
 20
  8.7300
 30
0.0
 40
  0.0500
 1
12
 0
LINE
 8
PARTS
 10
  5.6000
 20
  8.6000
 30
0.0
 11
  5.3000
 21
  8.6000
 31
0.0
 0
TEXT
 8
PARTS
 10
  5.1300
 20
  8.5750
 30
0.0
 40
  0.0500
 1
Q6
 0
TEXT
 8
PARTS
 10
  5.3600
 20
  8.6300
 30
0.0
 40
  0.0500
 1
15
 0
LINE
 8
PARTS
 10
  5.6000
 20
  8.5000
 30
0.0
 11
  5.3000
 21
  8.5000
 31
0.0
 0
TEXT
 8
PARTS
 10
  5.1300
 20
  8.4750
 30
0.0
 40
  0.0500
 1
Q7
 0
TEXT
 8
PARTS
 10
  5.3600
 20
  8.5300
 30
0.0
 40
  0.0500
 1
16
 0
LINE
 8
PARTS
 10
  5.6000
 20
  8.4000
 30
0.0
 11
  5.3000
 21
  8.4000
 31
0.0
 0
TEXT
 8
PARTS
 10
  5.1300
 20
  8.3750
 30
0.0
 40
  0.0500
 1
Q8
 0
TEXT
 8
PARTS
 10
  5.3600
 20
  8.4300
 30
0.0
 40
  0.0500
 1
19
 0
POLYLINE
 8
PARTS
 66
1
 70
1
 10
0.0
 20
0.0
 30
0.0
 0
VERTEX
 8
PARTS
 10
  4.7000
 20
  9.2000
 30
0.0
 0
VERTEX
 8
PARTS
 10
  5.3000
 20
  9.2000
 30
0.0
 0
VERTEX
 8
PARTS
 10
  5.3000
 20
  8.0000
 30
0.0
 0
VERTEX
 8
PARTS
 10
  4.7000
 20
  8.0000
 30
0.0
 0
SEQEND
 8
PARTS
 0
TEXT
 8
PARTTEXT
 10
  7.3500
 20
  5.7086
 30
0.0
 40
  0.0514
 1
M3
 0
TEXT
 8
PARTTEXT
 10
  7.3500
 20
  4.2086
 30
0.0
 40
  0.0514
 1
DDSPAL02 22V10
 0
LINE
 8
PARTS
 10
  7.0000
 20
  5.6000
 30
0.0
 11
  7.3000
 21
  5.6000
 31
0.0
 0
TEXT
 8
PARTS
 10
  7.3900
 20
  5.5750
 30
0.0
 40
  0.0500
 1
CLK
 0
TEXT
 8
PARTS
 10
  7.2000
 20
  5.6300
 30
0.0
 40
  0.0500
 1
1
 0
LINE
 8
PARTS
 10
  8.3000
 20
  5.6000
 30
0.0
 11
  8.0000
 21
  5.6000
 31
0.0
 0
TEXT
 8
PARTS
 10
  7.8300
 20
  5.5750
 30
0.0
 40
  0.0500
 1
Q7
 0
TEXT
 8
PARTS
 10
  8.0600
 20
  5.6300
 30
0.0
 40
  0.0500
 1
23
 0
LINE
 8
PARTS
 10
  8.3000
 20
  5.5000
 30
0.0
 11
  8.0000
 21
  5.5000
 31
0.0
 0
TEXT
 8
PARTS
 10
  7.8300
 20
  5.4750
 30
0.0
 40
  0.0500
 1
Q6
 0
TEXT
 8
PARTS
 10
  8.0600
 20
  5.5300
 30
0.0
 40
  0.0500
 1
22
 0
LINE
 8
PARTS
 10
  8.3000
 20
  5.4000
 30
0.0
 11
  8.0000
 21
  5.4000
 31
0.0
 0
TEXT
 8
PARTS
 10
  7.8300
 20
  5.3750
 30
0.0
 40
  0.0500
 1
Q5
 0
TEXT
 8
PARTS
 10
  8.0600
 20
  5.4300
 30
0.0
 40
  0.0500
 1
21
 0
LINE
 8
PARTS
 10
  8.3000
 20
  5.3000
 30
0.0
 11
  8.0000
 21
  5.3000
 31
0.0
 0
TEXT
 8
PARTS
 10
  7.8300
 20
  5.2750
 30
0.0
 40
  0.0500
 1
Q4
 0
TEXT
 8
PARTS
 10
  8.0600
 20
  5.3300
 30
0.0
 40
  0.0500
 1
20
 0
LINE
 8
PARTS
 10
  8.3000
 20
  5.2000
 30
0.0
 11
  8.0000
 21
  5.2000
 31
0.0
 0
TEXT
 8
PARTS
 10
  7.8300
 20
  5.1750
 30
0.0
 40
  0.0500
 1
Q3
 0
TEXT
 8
PARTS
 10
  8.0600
 20
  5.2300
 30
0.0
 40
  0.0500
 1
19
 0
LINE
 8
PARTS
 10
  8.3000
 20
  5.1000
 30
0.0
 11
  8.0000
 21
  5.1000
 31
0.0
 0
TEXT
 8
PARTS
 10
  7.8300
 20
  5.0750
 30
0.0
 40
  0.0500
 1
Q2
 0
TEXT
 8
PARTS
 10
  8.0600
 20
  5.1300
 30
0.0
 40
  0.0500
 1
18
 0
LINE
 8
PARTS
 10
  8.3000
 20
  5.0000
 30
0.0
 11
  8.0000
 21
  5.0000
 31
0.0
 0
TEXT
 8
PARTS
 10
  7.8300
 20
  4.9750
 30
0.0
 40
  0.0500
 1
Q1
 0
TEXT
 8
PARTS
 10
  8.0600
 20
  5.0300
 30
0.0
 40
  0.0500
 1
17
 0
LINE
 8
PARTS
 10
  8.3000
 20
  4.9000
 30
0.0
 11
  8.0000
 21
  4.9000
 31
0.0
 0
TEXT
 8
PARTS
 10
  7.8300
 20
  4.8750
 30
0.0
 40
  0.0500
 1
Q0
 0
TEXT
 8
PARTS
 10
  8.0600
 20
  4.9300
 30
0.0
 40
  0.0500
 1
16
 0
LINE
 8
PARTS
 10
  7.0000
 20
  5.5000
 30
0.0
 11
  7.3000
 21
  5.5000
 31
0.0
 0
TEXT
 8
PARTS
 10
  7.3900
 20
  5.4750
 30
0.0
 40
  0.0500
 1
D0
 0
TEXT
 8
PARTS
 10
  7.2000
 20
  5.5300
 30
0.0
 40
  0.0500
 1
2
 0
LINE
 8
PARTS
 10
  7.0000
 20
  5.4000
 30
0.0
 11
  7.3000
 21
  5.4000
 31
0.0
 0
TEXT
 8
PARTS
 10
  7.3900
 20
  5.3750
 30
0.0
 40
  0.0500
 1
D1
 0
TEXT
 8
PARTS
 10
  7.2000
 20
  5.4300
 30
0.0
 40
  0.0500
 1
3
 0
LINE
 8
PARTS
 10
  7.0000
 20
  5.3000
 30
0.0
 11
  7.3000
 21
  5.3000
 31
0.0
 0
TEXT
 8
PARTS
 10
  7.3900
 20
  5.2750
 30
0.0
 40
  0.0500
 1
D2
 0
TEXT
 8
PARTS
 10
  7.2000
 20
  5.3300
 30
0.0
 40
  0.0500
 1
4
 0
LINE
 8
PARTS
 10
  7.0000
 20
  5.2000
 30
0.0
 11
  7.3000
 21
  5.2000
 31
0.0
 0
TEXT
 8
PARTS
 10
  7.3900
 20
  5.1750
 30
0.0
 40
  0.0500
 1
D3
 0
TEXT
 8
PARTS
 10
  7.2000
 20
  5.2300
 30
0.0
 40
  0.0500
 1
5
 0
LINE
 8
PARTS
 10
  7.0000
 20
  5.1000
 30
0.0
 11
  7.3000
 21
  5.1000
 31
0.0
 0
TEXT
 8
PARTS
 10
  7.3900
 20
  5.0750
 30
0.0
 40
  0.0500
 1
D4
 0
TEXT
 8
PARTS
 10
  7.2000
 20
  5.1300
 30
0.0
 40
  0.0500
 1
6
 0
LINE
 8
PARTS
 10
  7.0000
 20
  5.0000
 30
0.0
 11
  7.3000
 21
  5.0000
 31
0.0
 0
TEXT
 8
PARTS
 10
  7.3900
 20
  4.9750
 30
0.0
 40
  0.0500
 1
D5
 0
TEXT
 8
PARTS
 10
  7.2000
 20
  5.0300
 30
0.0
 40
  0.0500
 1
7
 0
LINE
 8
PARTS
 10
  7.0000
 20
  4.9000
 30
0.0
 11
  7.3000
 21
  4.9000
 31
0.0
 0
TEXT
 8
PARTS
 10
  7.3900
 20
  4.8750
 30
0.0
 40
  0.0500
 1
D6
 0
TEXT
 8
PARTS
 10
  7.2000
 20
  4.9300
 30
0.0
 40
  0.0500
 1
8
 0
LINE
 8
PARTS
 10
  7.0000
 20
  4.8000
 30
0.0
 11
  7.3000
 21
  4.8000
 31
0.0
 0
TEXT
 8
PARTS
 10
  7.3900
 20
  4.7750
 30
0.0
 40
  0.0500
 1
D7
 0
TEXT
 8
PARTS
 10
  7.2000
 20
  4.8300
 30
0.0
 40
  0.0500
 1
9
 0
LINE
 8
PARTS
 10
  8.3000
 20
  4.8000
 30
0.0
 11
  8.0000
 21
  4.8000
 31
0.0
 0
TEXT
 8
PARTS
 10
  7.7900
 20
  4.7750
 30
0.0
 40
  0.0500
 1
RCO
 0
TEXT
 8
PARTS
 10
  8.0600
 20
  4.8300
 30
0.0
 40
  0.0500
 1
15
 0
LINE
 8
PARTS
 10
  7.0000
 20
  4.6000
 30
0.0
 11
  7.3000
 21
  4.6000
 31
0.0
 0
TEXT
 8
PARTS
 10
  7.3900
 20
  4.5750
 30
0.0
 40
  0.0500
 1
ENT
 0
TEXT
 8
PARTS
 10
  7.1600
 20
  4.6300
 30
0.0
 40
  0.0500
 1
11
 0
LINE
 8
PARTS
 10
  7.0000
 20
  4.5000
 30
0.0
 11
  7.3000
 21
  4.5000
 31
0.0
 0
TEXT
 8
PARTS
 10
  7.3900
 20
  4.4750
 30
0.0
 40
  0.0500
 1
ENP
 0
TEXT
 8
PARTS
 10
  7.1600
 20
  4.5300
 30
0.0
 40
  0.0500
 1
13
 0
LINE
 8
PARTS
 10
  7.0000
 20
  4.4000
 30
0.0
 11
  7.3000
 21
  4.4000
 31
0.0
 0
TEXT
 8
PARTS
 10
  7.3900
 20
  4.3750
 30
0.0
 40
  0.0500
 1
%%oCLR%%o
 0
TEXT
 8
PARTS
 10
  7.1600
 20
  4.4300
 30
0.0
 40
  0.0500
 1
14
 0
LINE
 8
PARTS
 10
  7.0000
 20
  4.7000
 30
0.0
 11
  7.3000
 21
  4.7000
 31
0.0
 0
TEXT
 8
PARTS
 10
  7.3900
 20
  4.6750
 30
0.0
 40
  0.0500
 1
LD
 0
TEXT
 8
PARTS
 10
  7.1600
 20
  4.7300
 30
0.0
 40
  0.0500
 1
10
 0
POLYLINE
 8
PARTS
 66
1
 70
1
 10
0.0
 20
0.0
 30
0.0
 0
VERTEX
 8
PARTS
 10
  7.3000
 20
  5.7000
 30
0.0
 0
VERTEX
 8
PARTS
 10
  8.0000
 20
  5.7000
 30
0.0
 0
VERTEX
 8
PARTS
 10
  8.0000
 20
  4.3000
 30
0.0
 0
VERTEX
 8
PARTS
 10
  7.3000
 20
  4.3000
 30
0.0
 0
SEQEND
 8
PARTS
 0
TEXT
 8
PARTTEXT
 10
  9.3500
 20
  1.6086
 30
0.0
 40
  0.0514
 1
E3C
 0
TEXT
 8
PARTTEXT
 10
  9.3500
 20
  1.1086
 30
0.0
 40
  0.0514
 1
74ALS04
 0
LINE
 8
PARTS
 10
  9.0000
 20
  1.4000
 30
0.0
 11
  9.3000
 21
  1.4000
 31
0.0
 0
TEXT
 8
PARTS
 10
  9.2000
 20
  1.4300
 30
0.0
 40
  0.0500
 1
5
 0
CIRCLE
 8
PARTS
 10
  9.7300
 20
  1.4000
 30
0.0
 40
  0.0300
 0
LINE
 8
PARTS
 10
 10.0000
 20
  1.4000
 30
0.0
 11
  9.7600
 21
  1.4000
 31
0.0
 0
TEXT
 8
PARTS
 10
  9.7600
 20
  1.4300
 30
0.0
 40
  0.0500
 1
6
 0
POLYLINE
 8
PARTS
 66
1
 10
0.0
 20
0.0
 30
0.0
 0
VERTEX
 8
PARTS
 10
  9.3000
 20
  1.6000
 30
0.0
 0
VERTEX
 8
PARTS
 10
  9.7000
 20
  1.4000
 30
0.0
 0
SEQEND
 8
PARTS
 0
POLYLINE
 8
PARTS
 66
1
 10
0.0
 20
0.0
 30
0.0
 0
VERTEX
 8
PARTS
 10
  9.7000
 20
  1.4000
 30
0.0
 0
VERTEX
 8
PARTS
 10
  9.3000
 20
  1.2000
 30
0.0
 0
SEQEND
 8
PARTS
 0
POLYLINE
 8
PARTS
 66
1
 10
0.0
 20
0.0
 30
0.0
 0
VERTEX
 8
PARTS
 10
  9.3000
 20
  1.2000
 30
0.0
 0
VERTEX
 8
PARTS
 10
  9.3000
 20
  1.6000
 30
0.0
 0
SEQEND
 8
PARTS
 0
TEXT
 8
PARTTEXT
 10
  4.7500
 20
  7.4086
 30
0.0
 40
  0.0514
 1
N2
 0
TEXT
 8
PARTTEXT
 10
  4.7500
 20
  6.1086
 30
0.0
 40
  0.0514
 1
74LS377
 0
LINE
 8
PARTS
 10
  4.4000
 20
  7.3000
 30
0.0
 11
  4.7000
 21
  7.3000
 31
0.0
 0
TEXT
 8
PARTS
 10
  4.7900
 20
  7.2750
 30
0.0
 40
  0.0500
 1
D1
 0
TEXT
 8
PARTS
 10
  4.6000
 20
  7.3300
 30
0.0
 40
  0.0500
 1
3
 0
LINE
 8
PARTS
 10
  4.4000
 20
  7.2000
 30
0.0
 11
  4.7000
 21
  7.2000
 31
0.0
 0
TEXT
 8
PARTS
 10
  4.7900
 20
  7.1750
 30
0.0
 40
  0.0500
 1
D2
 0
TEXT
 8
PARTS
 10
  4.6000
 20
  7.2300
 30
0.0
 40
  0.0500
 1
4
 0
LINE
 8
PARTS
 10
  4.4000
 20
  7.1000
 30
0.0
 11
  4.7000
 21
  7.1000
 31
0.0
 0
TEXT
 8
PARTS
 10
  4.7900
 20
  7.0750
 30
0.0
 40
  0.0500
 1
D3
 0
TEXT
 8
PARTS
 10
  4.6000
 20
  7.1300
 30
0.0
 40
  0.0500
 1
7
 0
LINE
 8
PARTS
 10
  4.4000
 20
  7.0000
 30
0.0
 11
  4.7000
 21
  7.0000
 31
0.0
 0
TEXT
 8
PARTS
 10
  4.7900
 20
  6.9750
 30
0.0
 40
  0.0500
 1
D4
 0
TEXT
 8
PARTS
 10
  4.6000
 20
  7.0300
 30
0.0
 40
  0.0500
 1
8
 0
LINE
 8
PARTS
 10
  4.4000
 20
  6.9000
 30
0.0
 11
  4.7000
 21
  6.9000
 31
0.0
 0
TEXT
 8
PARTS
 10
  4.7900
 20
  6.8750
 30
0.0
 40
  0.0500
 1
D5
 0
TEXT
 8
PARTS
 10
  4.5600
 20
  6.9300
 30
0.0
 40
  0.0500
 1
13
 0
LINE
 8
PARTS
 10
  4.4000
 20
  6.8000
 30
0.0
 11
  4.7000
 21
  6.8000
 31
0.0
 0
TEXT
 8
PARTS
 10
  4.7900
 20
  6.7750
 30
0.0
 40
  0.0500
 1
D6
 0
TEXT
 8
PARTS
 10
  4.5600
 20
  6.8300
 30
0.0
 40
  0.0500
 1
14
 0
LINE
 8
PARTS
 10
  4.4000
 20
  6.7000
 30
0.0
 11
  4.7000
 21
  6.7000
 31
0.0
 0
TEXT
 8
PARTS
 10
  4.7900
 20
  6.6750
 30
0.0
 40
  0.0500
 1
D7
 0
TEXT
 8
PARTS
 10
  4.5600
 20
  6.7300
 30
0.0
 40
  0.0500
 1
17
 0
LINE
 8
PARTS
 10
  4.4000
 20
  6.6000
 30
0.0
 11
  4.7000
 21
  6.6000
 31
0.0
 0
TEXT
 8
PARTS
 10
  4.7900
 20
  6.5750
 30
0.0
 40
  0.0500
 1
D8
 0
TEXT
 8
PARTS
 10
  4.5600
 20
  6.6300
 30
0.0
 40
  0.0500
 1
18
 0
LINE
 8
PARTS
 10
  4.4000
 20
  6.4000
 30
0.0
 11
  4.7000
 21
  6.4000
 31
0.0
 0
LINE
 8
PARTS
 10
  4.7000
 20
  6.4600
 30
0.0
 11
  4.7600
 21
  6.4000
 31
0.0
 0
LINE
 8
PARTS
 10
  4.7600
 20
  6.4000
 30
0.0
 11
  4.7000
 21
  6.3400
 31
0.0
 0
TEXT
 8
PARTS
 10
  4.7900
 20
  6.3750
 30
0.0
 40
  0.0500
 1
CLK
 0
TEXT
 8
PARTS
 10
  4.5600
 20
  6.4300
 30
0.0
 40
  0.0500
 1
11
 0
CIRCLE
 8
PARTS
 10
  4.6700
 20
  6.3000
 30
0.0
 40
  0.0300
 0
LINE
 8
PARTS
 10
  4.4000
 20
  6.3000
 30
0.0
 11
  4.6400
 21
  6.3000
 31
0.0
 0
TEXT
 8
PARTS
 10
  4.7900
 20
  6.2750
 30
0.0
 40
  0.0500
 1
G
 0
TEXT
 8
PARTS
 10
  4.6000
 20
  6.3300
 30
0.0
 40
  0.0500
 1
1
 0
LINE
 8
PARTS
 10
  5.6000
 20
  7.3000
 30
0.0
 11
  5.3000
 21
  7.3000
 31
0.0
 0
TEXT
 8
PARTS
 10
  5.1300
 20
  7.2750
 30
0.0
 40
  0.0500
 1
Q1
 0
TEXT
 8
PARTS
 10
  5.3600
 20
  7.3300
 30
0.0
 40
  0.0500
 1
2
 0
LINE
 8
PARTS
 10
  5.6000
 20
  7.2000
 30
0.0
 11
  5.3000
 21
  7.2000
 31
0.0
 0
TEXT
 8
PARTS
 10
  5.1300
 20
  7.1750
 30
0.0
 40
  0.0500
 1
Q2
 0
TEXT
 8
PARTS
 10
  5.3600
 20
  7.2300
 30
0.0
 40
  0.0500
 1
5
 0
LINE
 8
PARTS
 10
  5.6000
 20
  7.1000
 30
0.0
 11
  5.3000
 21
  7.1000
 31
0.0
 0
TEXT
 8
PARTS
 10
  5.1300
 20
  7.0750
 30
0.0
 40
  0.0500
 1
Q3
 0
TEXT
 8
PARTS
 10
  5.3600
 20
  7.1300
 30
0.0
 40
  0.0500
 1
6
 0
LINE
 8
PARTS
 10
  5.6000
 20
  7.0000
 30
0.0
 11
  5.3000
 21
  7.0000
 31
0.0
 0
TEXT
 8
PARTS
 10
  5.1300
 20
  6.9750
 30
0.0
 40
  0.0500
 1
Q4
 0
TEXT
 8
PARTS
 10
  5.3600
 20
  7.0300
 30
0.0
 40
  0.0500
 1
9
 0
LINE
 8
PARTS
 10
  5.6000
 20
  6.9000
 30
0.0
 11
  5.3000
 21
  6.9000
 31
0.0
 0
TEXT
 8
PARTS
 10
  5.1300
 20
  6.8750
 30
0.0
 40
  0.0500
 1
Q5
 0
TEXT
 8
PARTS
 10
  5.3600
 20
  6.9300
 30
0.0
 40
  0.0500
 1
12
 0
LINE
 8
PARTS
 10
  5.6000
 20
  6.8000
 30
0.0
 11
  5.3000
 21
  6.8000
 31
0.0
 0
TEXT
 8
PARTS
 10
  5.1300
 20
  6.7750
 30
0.0
 40
  0.0500
 1
Q6
 0
TEXT
 8
PARTS
 10
  5.3600
 20
  6.8300
 30
0.0
 40
  0.0500
 1
15
 0
LINE
 8
PARTS
 10
  5.6000
 20
  6.7000
 30
0.0
 11
  5.3000
 21
  6.7000
 31
0.0
 0
TEXT
 8
PARTS
 10
  5.1300
 20
  6.6750
 30
0.0
 40
  0.0500
 1
Q7
 0
TEXT
 8
PARTS
 10
  5.3600
 20
  6.7300
 30
0.0
 40
  0.0500
 1
16
 0
LINE
 8
PARTS
 10
  5.6000
 20
  6.6000
 30
0.0
 11
  5.3000
 21
  6.6000
 31
0.0
 0
TEXT
 8
PARTS
 10
  5.1300
 20
  6.5750
 30
0.0
 40
  0.0500
 1
Q8
 0
TEXT
 8
PARTS
 10
  5.3600
 20
  6.6300
 30
0.0
 40
  0.0500
 1
19
 0
POLYLINE
 8
PARTS
 66
1
 70
1
 10
0.0
 20
0.0
 30
0.0
 0
VERTEX
 8
PARTS
 10
  4.7000
 20
  7.4000
 30
0.0
 0
VERTEX
 8
PARTS
 10
  5.3000
 20
  7.4000
 30
0.0
 0
VERTEX
 8
PARTS
 10
  5.3000
 20
  6.2000
 30
0.0
 0
VERTEX
 8
PARTS
 10
  4.7000
 20
  6.2000
 30
0.0
 0
SEQEND
 8
PARTS
 0
TEXT
 8
PARTTEXT
 10
  3.2900
 20
  1.5086
 30
0.0
 40
  0.0514
 1
F3B
 0
TEXT
 8
PARTTEXT
 10
  3.2900
 20
  0.7186
 30
0.0
 40
  0.0514
 1
74F74
 0
LINE
 8
PARTS
 10
  2.3000
 20
  1.3000
 30
0.0
 11
  2.6000
 21
  1.3000
 31
0.0
 0
TEXT
 8
PARTS
 10
  2.6900
 20
  1.2750
 30
0.0
 40
  0.0500
 1
D
 0
TEXT
 8
PARTS
 10
  2.4600
 20
  1.3300
 30
0.0
 40
  0.0500
 1
12
 0
LINE
 8
PARTS
 10
  2.3000
 20
  1.1000
 30
0.0
 11
  2.6000
 21
  1.1000
 31
0.0
 0
LINE
 8
PARTS
 10
  2.6000
 20
  1.1600
 30
0.0
 11
  2.6600
 21
  1.1000
 31
0.0
 0
LINE
 8
PARTS
 10
  2.6600
 20
  1.1000
 30
0.0
 11
  2.6000
 21
  1.0400
 31
0.0
 0
TEXT
 8
PARTS
 10
  2.6900
 20
  1.0750
 30
0.0
 40
  0.0500
 1
CLK
 0
TEXT
 8
PARTS
 10
  2.4600
 20
  1.1300
 30
0.0
 40
  0.0500
 1
11
 0
LINE
 8
PARTS
 10
  3.5000
 20
  1.3000
 30
0.0
 11
  3.2000
 21
  1.3000
 31
0.0
 0
TEXT
 8
PARTS
 10
  3.0700
 20
  1.2750
 30
0.0
 40
  0.0500
 1
Q
 0
TEXT
 8
PARTS
 10
  3.2600
 20
  1.3300
 30
0.0
 40
  0.0500
 1
9
 0
LINE
 8
PARTS
 10
  3.5000
 20
  0.9000
 30
0.0
 11
  3.2000
 21
  0.9000
 31
0.0
 0
TEXT
 8
PARTS
 10
  3.0700
 20
  0.8750
 30
0.0
 40
  0.0500
 1
%%oQ%%o
 0
TEXT
 8
PARTS
 10
  3.2600
 20
  0.9300
 30
0.0
 40
  0.0500
 1
8
 0
CIRCLE
 8
PARTS
 10
  2.9000
 20
  1.4300
 30
0.0
 40
  0.0300
 0
LINE
 8
PARTS
 10
  2.9000
 20
  1.7000
 30
0.0
 11
  2.9000
 21
  1.4600
 31
0.0
 0
TEXT
 8
PARTS
 10
  2.9250
 20
  1.2300
 30
0.0
 40
  0.0500
 50
 90.0000
 1
PR
 0
TEXT
 8
PARTS
 10
  2.8700
 20
  1.4600
 30
0.0
 40
  0.0500
 50
 90.0000
 1
10
 0
CIRCLE
 8
PARTS
 10
  2.9000
 20
  0.7700
 30
0.0
 40
  0.0300
 0
LINE
 8
PARTS
 10
  2.9000
 20
  0.5000
 30
0.0
 11
  2.9000
 21
  0.7400
 31
0.0
 0
TEXT
 8
PARTS
 10
  2.9250
 20
  0.8900
 30
0.0
 40
  0.0500
 50
 90.0000
 1
CL
 0
TEXT
 8
PARTS
 10
  2.8700
 20
  0.6800
 30
0.0
 40
  0.0500
 50
 90.0000
 1
13
 0
POLYLINE
 8
PARTS
 66
1
 70
1
 10
0.0
 20
0.0
 30
0.0
 0
VERTEX
 8
PARTS
 10
  2.6000
 20
  1.4000
 30
0.0
 0
VERTEX
 8
PARTS
 10
  3.2000
 20
  1.4000
 30
0.0
 0
VERTEX
 8
PARTS
 10
  3.2000
 20
  0.8000
 30
0.0
 0
VERTEX
 8
PARTS
 10
  2.6000
 20
  0.8000
 30
0.0
 0
SEQEND
 8
PARTS
 0
TEXT
 8
PARTTEXT
 10
 10.5500
 20
  5.2086
 30
0.0
 40
  0.0514
 1
J3
 0
TEXT
 8
PARTTEXT
 10
 10.5500
 20
  3.7086
 30
0.0
 40
  0.0514
 1
DDSPAL01 610
 0
LINE
 8
PARTS
 10
 10.2000
 20
  5.1000
 30
0.0
 11
 10.5000
 21
  5.1000
 31
0.0
 0
TEXT
 8
PARTS
 10
 10.5900
 20
  5.0750
 30
0.0
 40
  0.0500
 1
CLK1
 0
TEXT
 8
PARTS
 10
 10.4000
 20
  5.1300
 30
0.0
 40
  0.0500
 1
1
 0
LINE
 8
PARTS
 10
 10.2000
 20
  4.9000
 30
0.0
 11
 10.5000
 21
  4.9000
 31
0.0
 0
TEXT
 8
PARTS
 10
 10.5900
 20
  4.8750
 30
0.0
 40
  0.0500
 1
D13
 0
TEXT
 8
PARTS
 10
 10.4000
 20
  4.9300
 30
0.0
 40
  0.0500
 1
2
 0
LINE
 8
PARTS
 10
 10.2000
 20
  4.8000
 30
0.0
 11
 10.5000
 21
  4.8000
 31
0.0
 0
TEXT
 8
PARTS
 10
 10.5900
 20
  4.7750
 30
0.0
 40
  0.0500
 1
D14
 0
TEXT
 8
PARTS
 10
 10.4000
 20
  4.8300
 30
0.0
 40
  0.0500
 1
3
 0
LINE
 8
PARTS
 10
 10.2000
 20
  4.7000
 30
0.0
 11
 10.5000
 21
  4.7000
 31
0.0
 0
TEXT
 8
PARTS
 10
 10.5900
 20
  4.6750
 30
0.0
 40
  0.0500
 1
D15
 0
TEXT
 8
PARTS
 10
 10.3600
 20
  4.7300
 30
0.0
 40
  0.0500
 1
11
 0
LINE
 8
PARTS
 10
 12.0000
 20
  5.0000
 30
0.0
 11
 11.7000
 21
  5.0000
 31
0.0
 0
TEXT
 8
PARTS
 10
 11.4100
 20
  4.9750
 30
0.0
 40
  0.0500
 1
RESET
 0
TEXT
 8
PARTS
 10
 11.7600
 20
  5.0300
 30
0.0
 40
  0.0500
 1
10
 0
LINE
 8
PARTS
 10
 12.0000
 20
  4.9000
 30
0.0
 11
 11.7000
 21
  4.9000
 31
0.0
 0
TEXT
 8
PARTS
 10
 11.3700
 20
  4.8750
 30
0.0
 40
  0.0500
 1
UPDATE
 0
TEXT
 8
PARTS
 10
 11.7600
 20
  4.9300
 30
0.0
 40
  0.0500
 1
9
 0
LINE
 8
PARTS
 10
 12.0000
 20
  4.8000
 30
0.0
 11
 11.7000
 21
  4.8000
 31
0.0
 0
TEXT
 8
PARTS
 10
 11.4100
 20
  4.7750
 30
0.0
 40
  0.0500
 1
ENTRG
 0
TEXT
 8
PARTS
 10
 11.7600
 20
  4.8300
 30
0.0
 40
  0.0500
 1
8
 0
LINE
 8
PARTS
 10
 12.0000
 20
  4.7000
 30
0.0
 11
 11.7000
 21
  4.7000
 31
0.0
 0
TEXT
 8
PARTS
 10
 11.4100
 20
  4.6750
 30
0.0
 40
  0.0500
 1
ENIPP
 0
TEXT
 8
PARTS
 10
 11.7600
 20
  4.7300
 30
0.0
 40
  0.0500
 1
7
 0
LINE
 8
PARTS
 10
 10.2000
 20
  4.5000
 30
0.0
 11
 10.5000
 21
  4.5000
 31
0.0
 0
TEXT
 8
PARTS
 10
 10.5900
 20
  4.4750
 30
0.0
 40
  0.0500
 1
CLK2
 0
TEXT
 8
PARTS
 10
 10.3600
 20
  4.5300
 30
0.0
 40
  0.0500
 1
13
 0
LINE
 8
PARTS
 10
 10.2000
 20
  4.2000
 30
0.0
 11
 10.5000
 21
  4.2000
 31
0.0
 0
TEXT
 8
PARTS
 10
 10.5900
 20
  4.1750
 30
0.0
 40
  0.0500
 1
%%oLDSTB%%o
 0
TEXT
 8
PARTS
 10
 10.3600
 20
  4.2300
 30
0.0
 40
  0.0500
 1
14
 0
LINE
 8
PARTS
 10
 12.0000
 20
  4.5000
 30
0.0
 11
 11.7000
 21
  4.5000
 31
0.0
 0
TEXT
 8
PARTS
 10
 11.3700
 20
  4.4750
 30
0.0
 40
  0.0500
 1
%%oARMTRG%%o
 0
TEXT
 8
PARTS
 10
 11.7600
 20
  4.5300
 30
0.0
 40
  0.0500
 1
22
 0
LINE
 8
PARTS
 10
 12.0000
 20
  4.4000
 30
0.0
 11
 11.7000
 21
  4.4000
 31
0.0
 0
TEXT
 8
PARTS
 10
 11.3300
 20
  4.3750
 30
0.0
 40
  0.0500
 1
%%oSTARTIM%%o
 0
TEXT
 8
PARTS
 10
 11.7600
 20
  4.4300
 30
0.0
 40
  0.0500
 1
21
 0
LINE
 8
PARTS
 10
 12.0000
 20
  4.3000
 30
0.0
 11
 11.7000
 21
  4.3000
 31
0.0
 0
TEXT
 8
PARTS
 10
 11.3700
 20
  4.2750
 30
0.0
 40
  0.0500
 1
STBIT1
 0
TEXT
 8
PARTS
 10
 11.7600
 20
  4.3300
 30
0.0
 40
  0.0500
 1
20
 0
LINE
 8
PARTS
 10
 12.0000
 20
  4.2000
 30
0.0
 11
 11.7000
 21
  4.2000
 31
0.0
 0
TEXT
 8
PARTS
 10
 11.3700
 20
  4.1750
 30
0.0
 40
  0.0500
 1
STBIT0
 0
TEXT
 8
PARTS
 10
 11.7600
 20
  4.2300
 30
0.0
 40
  0.0500
 1
19
 0
LINE
 8
PARTS
 10
 12.0000
 20
  4.0000
 30
0.0
 11
 11.7000
 21
  4.0000
 31
0.0
 0
TEXT
 8
PARTS
 10
 11.2500
 20
  3.9750
 30
0.0
 40
  0.0500
 1
UPD_SYNC1
 0
TEXT
 8
PARTS
 10
 11.7600
 20
  4.0300
 30
0.0
 40
  0.0500
 1
18
 0
LINE
 8
PARTS
 10
 10.2000
 20
  4.0000
 30
0.0
 11
 10.5000
 21
  4.0000
 31
0.0
 0
TEXT
 8
PARTS
 10
 10.5900
 20
  3.9750
 30
0.0
 40
  0.0500
 1
23
 0
TEXT
 8
PARTS
 10
 10.3600
 20
  4.0300
 30
0.0
 40
  0.0500
 1
23
 0
LINE
 8
PARTS
 10
 10.2000
 20
  5.0000
 30
0.0
 11
 10.5000
 21
  5.0000
 31
0.0
 0
TEXT
 8
PARTS
 10
 10.5900
 20
  4.9750
 30
0.0
 40
  0.0500
 1
D12
 0
TEXT
 8
PARTS
 10
 10.4000
 20
  5.0300
 30
0.0
 40
  0.0500
 1
4
 0
LINE
 8
PARTS
 10
 12.0000
 20
  5.1000
 30
0.0
 11
 11.7000
 21
  5.1000
 31
0.0
 0
TEXT
 8
PARTS
 10
 11.3300
 20
  5.0750
 30
0.0
 40
  0.0500
 1
DDS_RES
 0
TEXT
 8
PARTS
 10
 11.7600
 20
  5.1300
 30
0.0
 40
  0.0500
 1
6
 0
LINE
 8
PARTS
 10
 12.0000
 20
  4.1000
 30
0.0
 11
 11.7000
 21
  4.1000
 31
0.0
 0
TEXT
 8
PARTS
 10
 11.2500
 20
  4.0750
 30
0.0
 40
  0.0500
 1
UPD_SYNC0
 0
TEXT
 8
PARTS
 10
 11.7600
 20
  4.1300
 30
0.0
 40
  0.0500
 1
17
 0
POLYLINE
 8
PARTS
 66
1
 70
1
 10
0.0
 20
0.0
 30
0.0
 0
VERTEX
 8
PARTS
 10
 10.5000
 20
  5.2000
 30
0.0
 0
VERTEX
 8
PARTS
 10
 11.7000
 20
  5.2000
 30
0.0
 0
VERTEX
 8
PARTS
 10
 11.7000
 20
  3.8000
 30
0.0
 0
VERTEX
 8
PARTS
 10
 10.5000
 20
  3.8000
 30
0.0
 0
SEQEND
 8
PARTS
 0
TEXT
 8
PARTTEXT
 10
  7.3500
 20
  3.9086
 30
0.0
 40
  0.0514
 1
K3
 0
TEXT
 8
PARTTEXT
 10
  7.3500
 20
  2.4086
 30
0.0
 40
  0.0514
 1
DDSPAL02 22V10
 0
LINE
 8
PARTS
 10
  7.0000
 20
  3.8000
 30
0.0
 11
  7.3000
 21
  3.8000
 31
0.0
 0
TEXT
 8
PARTS
 10
  7.3900
 20
  3.7750
 30
0.0
 40
  0.0500
 1
CLK
 0
TEXT
 8
PARTS
 10
  7.2000
 20
  3.8300
 30
0.0
 40
  0.0500
 1
1
 0
LINE
 8
PARTS
 10
  8.3000
 20
  3.8000
 30
0.0
 11
  8.0000
 21
  3.8000
 31
0.0
 0
TEXT
 8
PARTS
 10
  7.8300
 20
  3.7750
 30
0.0
 40
  0.0500
 1
Q7
 0
TEXT
 8
PARTS
 10
  8.0600
 20
  3.8300
 30
0.0
 40
  0.0500
 1
23
 0
LINE
 8
PARTS
 10
  8.3000
 20
  3.7000
 30
0.0
 11
  8.0000
 21
  3.7000
 31
0.0
 0
TEXT
 8
PARTS
 10
  7.8300
 20
  3.6750
 30
0.0
 40
  0.0500
 1
Q6
 0
TEXT
 8
PARTS
 10
  8.0600
 20
  3.7300
 30
0.0
 40
  0.0500
 1
22
 0
LINE
 8
PARTS
 10
  8.3000
 20
  3.6000
 30
0.0
 11
  8.0000
 21
  3.6000
 31
0.0
 0
TEXT
 8
PARTS
 10
  7.8300
 20
  3.5750
 30
0.0
 40
  0.0500
 1
Q5
 0
TEXT
 8
PARTS
 10
  8.0600
 20
  3.6300
 30
0.0
 40
  0.0500
 1
21
 0
LINE
 8
PARTS
 10
  8.3000
 20
  3.5000
 30
0.0
 11
  8.0000
 21
  3.5000
 31
0.0
 0
TEXT
 8
PARTS
 10
  7.8300
 20
  3.4750
 30
0.0
 40
  0.0500
 1
Q4
 0
TEXT
 8
PARTS
 10
  8.0600
 20
  3.5300
 30
0.0
 40
  0.0500
 1
20
 0
LINE
 8
PARTS
 10
  8.3000
 20
  3.4000
 30
0.0
 11
  8.0000
 21
  3.4000
 31
0.0
 0
TEXT
 8
PARTS
 10
  7.8300
 20
  3.3750
 30
0.0
 40
  0.0500
 1
Q3
 0
TEXT
 8
PARTS
 10
  8.0600
 20
  3.4300
 30
0.0
 40
  0.0500
 1
19
 0
LINE
 8
PARTS
 10
  8.3000
 20
  3.3000
 30
0.0
 11
  8.0000
 21
  3.3000
 31
0.0
 0
TEXT
 8
PARTS
 10
  7.8300
 20
  3.2750
 30
0.0
 40
  0.0500
 1
Q2
 0
TEXT
 8
PARTS
 10
  8.0600
 20
  3.3300
 30
0.0
 40
  0.0500
 1
18
 0
LINE
 8
PARTS
 10
  8.3000
 20
  3.2000
 30
0.0
 11
  8.0000
 21
  3.2000
 31
0.0
 0
TEXT
 8
PARTS
 10
  7.8300
 20
  3.1750
 30
0.0
 40
  0.0500
 1
Q1
 0
TEXT
 8
PARTS
 10
  8.0600
 20
  3.2300
 30
0.0
 40
  0.0500
 1
17
 0
LINE
 8
PARTS
 10
  8.3000
 20
  3.1000
 30
0.0
 11
  8.0000
 21
  3.1000
 31
0.0
 0
TEXT
 8
PARTS
 10
  7.8300
 20
  3.0750
 30
0.0
 40
  0.0500
 1
Q0
 0
TEXT
 8
PARTS
 10
  8.0600
 20
  3.1300
 30
0.0
 40
  0.0500
 1
16
 0
LINE
 8
PARTS
 10
  7.0000
 20
  3.7000
 30
0.0
 11
  7.3000
 21
  3.7000
 31
0.0
 0
TEXT
 8
PARTS
 10
  7.3900
 20
  3.6750
 30
0.0
 40
  0.0500
 1
D0
 0
TEXT
 8
PARTS
 10
  7.2000
 20
  3.7300
 30
0.0
 40
  0.0500
 1
2
 0
LINE
 8
PARTS
 10
  7.0000
 20
  3.6000
 30
0.0
 11
  7.3000
 21
  3.6000
 31
0.0
 0
TEXT
 8
PARTS
 10
  7.3900
 20
  3.5750
 30
0.0
 40
  0.0500
 1
D1
 0
TEXT
 8
PARTS
 10
  7.2000
 20
  3.6300
 30
0.0
 40
  0.0500
 1
3
 0
LINE
 8
PARTS
 10
  7.0000
 20
  3.5000
 30
0.0
 11
  7.3000
 21
  3.5000
 31
0.0
 0
TEXT
 8
PARTS
 10
  7.3900
 20
  3.4750
 30
0.0
 40
  0.0500
 1
D2
 0
TEXT
 8
PARTS
 10
  7.2000
 20
  3.5300
 30
0.0
 40
  0.0500
 1
4
 0
LINE
 8
PARTS
 10
  7.0000
 20
  3.4000
 30
0.0
 11
  7.3000
 21
  3.4000
 31
0.0
 0
TEXT
 8
PARTS
 10
  7.3900
 20
  3.3750
 30
0.0
 40
  0.0500
 1
D3
 0
TEXT
 8
PARTS
 10
  7.2000
 20
  3.4300
 30
0.0
 40
  0.0500
 1
5
 0
LINE
 8
PARTS
 10
  7.0000
 20
  3.3000
 30
0.0
 11
  7.3000
 21
  3.3000
 31
0.0
 0
TEXT
 8
PARTS
 10
  7.3900
 20
  3.2750
 30
0.0
 40
  0.0500
 1
D4
 0
TEXT
 8
PARTS
 10
  7.2000
 20
  3.3300
 30
0.0
 40
  0.0500
 1
6
 0
LINE
 8
PARTS
 10
  7.0000
 20
  3.2000
 30
0.0
 11
  7.3000
 21
  3.2000
 31
0.0
 0
TEXT
 8
PARTS
 10
  7.3900
 20
  3.1750
 30
0.0
 40
  0.0500
 1
D5
 0
TEXT
 8
PARTS
 10
  7.2000
 20
  3.2300
 30
0.0
 40
  0.0500
 1
7
 0
LINE
 8
PARTS
 10
  7.0000
 20
  3.1000
 30
0.0
 11
  7.3000
 21
  3.1000
 31
0.0
 0
TEXT
 8
PARTS
 10
  7.3900
 20
  3.0750
 30
0.0
 40
  0.0500
 1
D6
 0
TEXT
 8
PARTS
 10
  7.2000
 20
  3.1300
 30
0.0
 40
  0.0500
 1
8
 0
LINE
 8
PARTS
 10
  7.0000
 20
  3.0000
 30
0.0
 11
  7.3000
 21
  3.0000
 31
0.0
 0
TEXT
 8
PARTS
 10
  7.3900
 20
  2.9750
 30
0.0
 40
  0.0500
 1
D7
 0
TEXT
 8
PARTS
 10
  7.2000
 20
  3.0300
 30
0.0
 40
  0.0500
 1
9
 0
LINE
 8
PARTS
 10
  8.3000
 20
  3.0000
 30
0.0
 11
  8.0000
 21
  3.0000
 31
0.0
 0
TEXT
 8
PARTS
 10
  7.7900
 20
  2.9750
 30
0.0
 40
  0.0500
 1
RCO
 0
TEXT
 8
PARTS
 10
  8.0600
 20
  3.0300
 30
0.0
 40
  0.0500
 1
15
 0
LINE
 8
PARTS
 10
  7.0000
 20
  2.8000
 30
0.0
 11
  7.3000
 21
  2.8000
 31
0.0
 0
TEXT
 8
PARTS
 10
  7.3900
 20
  2.7750
 30
0.0
 40
  0.0500
 1
ENT
 0
TEXT
 8
PARTS
 10
  7.1600
 20
  2.8300
 30
0.0
 40
  0.0500
 1
11
 0
LINE
 8
PARTS
 10
  7.0000
 20
  2.7000
 30
0.0
 11
  7.3000
 21
  2.7000
 31
0.0
 0
TEXT
 8
PARTS
 10
  7.3900
 20
  2.6750
 30
0.0
 40
  0.0500
 1
ENP
 0
TEXT
 8
PARTS
 10
  7.1600
 20
  2.7300
 30
0.0
 40
  0.0500
 1
13
 0
LINE
 8
PARTS
 10
  7.0000
 20
  2.6000
 30
0.0
 11
  7.3000
 21
  2.6000
 31
0.0
 0
TEXT
 8
PARTS
 10
  7.3900
 20
  2.5750
 30
0.0
 40
  0.0500
 1
%%oCLR%%o
 0
TEXT
 8
PARTS
 10
  7.1600
 20
  2.6300
 30
0.0
 40
  0.0500
 1
14
 0
LINE
 8
PARTS
 10
  7.0000
 20
  2.9000
 30
0.0
 11
  7.3000
 21
  2.9000
 31
0.0
 0
TEXT
 8
PARTS
 10
  7.3900
 20
  2.8750
 30
0.0
 40
  0.0500
 1
LD
 0
TEXT
 8
PARTS
 10
  7.1600
 20
  2.9300
 30
0.0
 40
  0.0500
 1
10
 0
POLYLINE
 8
PARTS
 66
1
 70
1
 10
0.0
 20
0.0
 30
0.0
 0
VERTEX
 8
PARTS
 10
  7.3000
 20
  3.9000
 30
0.0
 0
VERTEX
 8
PARTS
 10
  8.0000
 20
  3.9000
 30
0.0
 0
VERTEX
 8
PARTS
 10
  8.0000
 20
  2.5000
 30
0.0
 0
VERTEX
 8
PARTS
 10
  7.3000
 20
  2.5000
 30
0.0
 0
SEQEND
 8
PARTS
 0
TEXT
 8
PARTTEXT
 10
 12.9500
 20
  8.8086
 30
0.0
 40
  0.0514
 1
E2B
 0
TEXT
 8
PARTTEXT
 10
 12.9500
 20
  8.3086
 30
0.0
 40
  0.0514
 1
74ALS1034
 0
LINE
 8
PARTS
 10
 12.6000
 20
  8.6000
 30
0.0
 11
 12.9000
 21
  8.6000
 31
0.0
 0
TEXT
 8
PARTS
 10
 12.8000
 20
  8.6300
 30
0.0
 40
  0.0500
 1
3
 0
LINE
 8
PARTS
 10
 13.6000
 20
  8.6000
 30
0.0
 11
 13.3000
 21
  8.6000
 31
0.0
 0
TEXT
 8
PARTS
 10
 13.3600
 20
  8.6300
 30
0.0
 40
  0.0500
 1
4
 0
POLYLINE
 8
PARTS
 66
1
 10
0.0
 20
0.0
 30
0.0
 0
VERTEX
 8
PARTS
 10
 12.9000
 20
  8.8000
 30
0.0
 0
VERTEX
 8
PARTS
 10
 13.3000
 20
  8.6000
 30
0.0
 0
SEQEND
 8
PARTS
 0
POLYLINE
 8
PARTS
 66
1
 10
0.0
 20
0.0
 30
0.0
 0
VERTEX
 8
PARTS
 10
 13.3000
 20
  8.6000
 30
0.0
 0
VERTEX
 8
PARTS
 10
 12.9000
 20
  8.4000
 30
0.0
 0
SEQEND
 8
PARTS
 0
POLYLINE
 8
PARTS
 66
1
 10
0.0
 20
0.0
 30
0.0
 0
VERTEX
 8
PARTS
 10
 12.9000
 20
  8.4000
 30
0.0
 0
VERTEX
 8
PARTS
 10
 12.9000
 20
  8.8000
 30
0.0
 0
SEQEND
 8
PARTS
 0
TEXT
 8
PARTTEXT
 10
  1.8500
 20
  8.2086
 30
0.0
 40
  0.0514
 1
J2
 0
TEXT
 8
PARTTEXT
 10
  1.8500
 20
  7.2086
 30
0.0
 40
  0.0514
 1
74ALS138
 0
LINE
 8
PARTS
 10
  1.5000
 20
  8.1000
 30
0.0
 11
  1.8000
 21
  8.1000
 31
0.0
 0
TEXT
 8
PARTS
 10
  1.8900
 20
  8.0750
 30
0.0
 40
  0.0500
 1
A
 0
TEXT
 8
PARTS
 10
  1.7000
 20
  8.1300
 30
0.0
 40
  0.0500
 1
1
 0
LINE
 8
PARTS
 10
  1.5000
 20
  8.0000
 30
0.0
 11
  1.8000
 21
  8.0000
 31
0.0
 0
TEXT
 8
PARTS
 10
  1.8900
 20
  7.9750
 30
0.0
 40
  0.0500
 1
B
 0
TEXT
 8
PARTS
 10
  1.7000
 20
  8.0300
 30
0.0
 40
  0.0500
 1
2
 0
LINE
 8
PARTS
 10
  1.5000
 20
  7.9000
 30
0.0
 11
  1.8000
 21
  7.9000
 31
0.0
 0
TEXT
 8
PARTS
 10
  1.8900
 20
  7.8750
 30
0.0
 40
  0.0500
 1
C
 0
TEXT
 8
PARTS
 10
  1.7000
 20
  7.9300
 30
0.0
 40
  0.0500
 1
3
 0
LINE
 8
PARTS
 10
  1.5000
 20
  7.6000
 30
0.0
 11
  1.8000
 21
  7.6000
 31
0.0
 0
TEXT
 8
PARTS
 10
  1.8900
 20
  7.5750
 30
0.0
 40
  0.0500
 1
G1
 0
TEXT
 8
PARTS
 10
  1.7000
 20
  7.6300
 30
0.0
 40
  0.0500
 1
6
 0
CIRCLE
 8
PARTS
 10
  1.7700
 20
  7.5000
 30
0.0
 40
  0.0300
 0
LINE
 8
PARTS
 10
  1.5000
 20
  7.5000
 30
0.0
 11
  1.7400
 21
  7.5000
 31
0.0
 0
TEXT
 8
PARTS
 10
  1.8900
 20
  7.4750
 30
0.0
 40
  0.0500
 1
G2A
 0
TEXT
 8
PARTS
 10
  1.7000
 20
  7.5300
 30
0.0
 40
  0.0500
 1
4
 0
CIRCLE
 8
PARTS
 10
  1.7700
 20
  7.4000
 30
0.0
 40
  0.0300
 0
LINE
 8
PARTS
 10
  1.5000
 20
  7.4000
 30
0.0
 11
  1.7400
 21
  7.4000
 31
0.0
 0
TEXT
 8
PARTS
 10
  1.8900
 20
  7.3750
 30
0.0
 40
  0.0500
 1
G2B
 0
TEXT
 8
PARTS
 10
  1.7000
 20
  7.4300
 30
0.0
 40
  0.0500
 1
5
 0
CIRCLE
 8
PARTS
 10
  2.5300
 20
  8.1000
 30
0.0
 40
  0.0300
 0
LINE
 8
PARTS
 10
  2.8000
 20
  8.1000
 30
0.0
 11
  2.5600
 21
  8.1000
 31
0.0
 0
TEXT
 8
PARTS
 10
  2.3300
 20
  8.0750
 30
0.0
 40
  0.0500
 1
Y0
 0
TEXT
 8
PARTS
 10
  2.5600
 20
  8.1300
 30
0.0
 40
  0.0500
 1
15
 0
CIRCLE
 8
PARTS
 10
  2.5300
 20
  8.0000
 30
0.0
 40
  0.0300
 0
LINE
 8
PARTS
 10
  2.8000
 20
  8.0000
 30
0.0
 11
  2.5600
 21
  8.0000
 31
0.0
 0
TEXT
 8
PARTS
 10
  2.3300
 20
  7.9750
 30
0.0
 40
  0.0500
 1
Y1
 0
TEXT
 8
PARTS
 10
  2.5600
 20
  8.0300
 30
0.0
 40
  0.0500
 1
14
 0
CIRCLE
 8
PARTS
 10
  2.5300
 20
  7.9000
 30
0.0
 40
  0.0300
 0
LINE
 8
PARTS
 10
  2.8000
 20
  7.9000
 30
0.0
 11
  2.5600
 21
  7.9000
 31
0.0
 0
TEXT
 8
PARTS
 10
  2.3300
 20
  7.8750
 30
0.0
 40
  0.0500
 1
Y2
 0
TEXT
 8
PARTS
 10
  2.5600
 20
  7.9300
 30
0.0
 40
  0.0500
 1
13
 0
CIRCLE
 8
PARTS
 10
  2.5300
 20
  7.8000
 30
0.0
 40
  0.0300
 0
LINE
 8
PARTS
 10
  2.8000
 20
  7.8000
 30
0.0
 11
  2.5600
 21
  7.8000
 31
0.0
 0
TEXT
 8
PARTS
 10
  2.3300
 20
  7.7750
 30
0.0
 40
  0.0500
 1
Y3
 0
TEXT
 8
PARTS
 10
  2.5600
 20
  7.8300
 30
0.0
 40
  0.0500
 1
12
 0
CIRCLE
 8
PARTS
 10
  2.5300
 20
  7.7000
 30
0.0
 40
  0.0300
 0
LINE
 8
PARTS
 10
  2.8000
 20
  7.7000
 30
0.0
 11
  2.5600
 21
  7.7000
 31
0.0
 0
TEXT
 8
PARTS
 10
  2.3300
 20
  7.6750
 30
0.0
 40
  0.0500
 1
Y4
 0
TEXT
 8
PARTS
 10
  2.5600
 20
  7.7300
 30
0.0
 40
  0.0500
 1
11
 0
CIRCLE
 8
PARTS
 10
  2.5300
 20
  7.6000
 30
0.0
 40
  0.0300
 0
LINE
 8
PARTS
 10
  2.8000
 20
  7.6000
 30
0.0
 11
  2.5600
 21
  7.6000
 31
0.0
 0
TEXT
 8
PARTS
 10
  2.3300
 20
  7.5750
 30
0.0
 40
  0.0500
 1
Y5
 0
TEXT
 8
PARTS
 10
  2.5600
 20
  7.6300
 30
0.0
 40
  0.0500
 1
10
 0
CIRCLE
 8
PARTS
 10
  2.5300
 20
  7.5000
 30
0.0
 40
  0.0300
 0
LINE
 8
PARTS
 10
  2.8000
 20
  7.5000
 30
0.0
 11
  2.5600
 21
  7.5000
 31
0.0
 0
TEXT
 8
PARTS
 10
  2.3300
 20
  7.4750
 30
0.0
 40
  0.0500
 1
Y6
 0
TEXT
 8
PARTS
 10
  2.5600
 20
  7.5300
 30
0.0
 40
  0.0500
 1
9
 0
CIRCLE
 8
PARTS
 10
  2.5300
 20
  7.4000
 30
0.0
 40
  0.0300
 0
LINE
 8
PARTS
 10
  2.8000
 20
  7.4000
 30
0.0
 11
  2.5600
 21
  7.4000
 31
0.0
 0
TEXT
 8
PARTS
 10
  2.3300
 20
  7.3750
 30
0.0
 40
  0.0500
 1
Y7
 0
TEXT
 8
PARTS
 10
  2.5600
 20
  7.4300
 30
0.0
 40
  0.0500
 1
7
 0
POLYLINE
 8
PARTS
 66
1
 70
1
 10
0.0
 20
0.0
 30
0.0
 0
VERTEX
 8
PARTS
 10
  1.8000
 20
  8.2000
 30
0.0
 0
VERTEX
 8
PARTS
 10
  2.5000
 20
  8.2000
 30
0.0
 0
VERTEX
 8
PARTS
 10
  2.5000
 20
  7.3000
 30
0.0
 0
VERTEX
 8
PARTS
 10
  1.8000
 20
  7.3000
 30
0.0
 0
SEQEND
 8
PARTS
 0
TEXT
 8
PARTTEXT
 10
 14.1900
 20
  3.7086
 30
0.0
 40
  0.0514
 1
D1A
 0
TEXT
 8
PARTTEXT
 10
 14.1800
 20
  3.6186
 30
0.0
 40
  0.0514
 1
74F74
 0
LINE
 8
PARTS
 10
 13.2000
 20
  3.5000
 30
0.0
 11
 13.5000
 21
  3.5000
 31
0.0
 0
TEXT
 8
PARTS
 10
 13.5900
 20
  3.4750
 30
0.0
 40
  0.0500
 1
D
 0
TEXT
 8
PARTS
 10
 13.4000
 20
  3.5300
 30
0.0
 40
  0.0500
 1
2
 0
LINE
 8
PARTS
 10
 13.2000
 20
  3.3000
 30
0.0
 11
 13.5000
 21
  3.3000
 31
0.0
 0
LINE
 8
PARTS
 10
 13.5000
 20
  3.3600
 30
0.0
 11
 13.5600
 21
  3.3000
 31
0.0
 0
LINE
 8
PARTS
 10
 13.5600
 20
  3.3000
 30
0.0
 11
 13.5000
 21
  3.2400
 31
0.0
 0
TEXT
 8
PARTS
 10
 13.5900
 20
  3.2750
 30
0.0
 40
  0.0500
 1
CLK
 0
TEXT
 8
PARTS
 10
 13.4000
 20
  3.3300
 30
0.0
 40
  0.0500
 1
3
 0
LINE
 8
PARTS
 10
 14.4000
 20
  3.5000
 30
0.0
 11
 14.1000
 21
  3.5000
 31
0.0
 0
TEXT
 8
PARTS
 10
 13.9700
 20
  3.4750
 30
0.0
 40
  0.0500
 1
Q
 0
TEXT
 8
PARTS
 10
 14.1600
 20
  3.5300
 30
0.0
 40
  0.0500
 1
5
 0
LINE
 8
PARTS
 10
 14.4000
 20
  3.1000
 30
0.0
 11
 14.1000
 21
  3.1000
 31
0.0
 0
TEXT
 8
PARTS
 10
 13.9700
 20
  3.0750
 30
0.0
 40
  0.0500
 1
%%oQ%%o
 0
TEXT
 8
PARTS
 10
 14.1600
 20
  3.1300
 30
0.0
 40
  0.0500
 1
6
 0
CIRCLE
 8
PARTS
 10
 13.8000
 20
  3.6300
 30
0.0
 40
  0.0300
 0
LINE
 8
PARTS
 10
 13.8000
 20
  3.9000
 30
0.0
 11
 13.8000
 21
  3.6600
 31
0.0
 0
TEXT
 8
PARTS
 10
 13.8250
 20
  3.4300
 30
0.0
 40
  0.0500
 50
 90.0000
 1
PR
 0
TEXT
 8
PARTS
 10
 13.7700
 20
  3.6600
 30
0.0
 40
  0.0500
 50
 90.0000
 1
4
 0
CIRCLE
 8
PARTS
 10
 13.8000
 20
  2.9700
 30
0.0
 40
  0.0300
 0
LINE
 8
PARTS
 10
 13.8000
 20
  2.7000
 30
0.0
 11
 13.8000
 21
  2.9400
 31
0.0
 0
TEXT
 8
PARTS
 10
 13.8250
 20
  3.0900
 30
0.0
 40
  0.0500
 50
 90.0000
 1
CL
 0
TEXT
 8
PARTS
 10
 13.7700
 20
  2.8800
 30
0.0
 40
  0.0500
 50
 90.0000
 1
1
 0
POLYLINE
 8
PARTS
 66
1
 70
1
 10
0.0
 20
0.0
 30
0.0
 0
VERTEX
 8
PARTS
 10
 13.5000
 20
  3.6000
 30
0.0
 0
VERTEX
 8
PARTS
 10
 14.1000
 20
  3.6000
 30
0.0
 0
VERTEX
 8
PARTS
 10
 14.1000
 20
  3.0000
 30
0.0
 0
VERTEX
 8
PARTS
 10
 13.5000
 20
  3.0000
 30
0.0
 0
SEQEND
 8
PARTS
 0
TEXT
 8
PARTTEXT
 10
 12.9500
 20
  6.7086
 30
0.0
 40
  0.0514
 1
D3A
 0
TEXT
 8
PARTTEXT
 10
 12.9500
 20
  6.2086
 30
0.0
 40
  0.0514
 1
74ALS00
 0
LINE
 8
PARTS
 10
 12.6000
 20
  6.6000
 30
0.0
 11
 12.9000
 21
  6.6000
 31
0.0
 0
TEXT
 8
PARTS
 10
 12.8000
 20
  6.6300
 30
0.0
 40
  0.0500
 1
1
 0
LINE
 8
PARTS
 10
 12.6000
 20
  6.4000
 30
0.0
 11
 12.9000
 21
  6.4000
 31
0.0
 0
TEXT
 8
PARTS
 10
 12.8000
 20
  6.4300
 30
0.0
 40
  0.0500
 1
2
 0
CIRCLE
 8
PARTS
 10
 13.5300
 20
  6.5000
 30
0.0
 40
  0.0300
 0
LINE
 8
PARTS
 10
 13.8000
 20
  6.5000
 30
0.0
 11
 13.5600
 21
  6.5000
 31
0.0
 0
TEXT
 8
PARTS
 10
 13.5600
 20
  6.5300
 30
0.0
 40
  0.0500
 1
3
 0
POLYLINE
 8
PARTS
 66
1
 10
0.0
 20
0.0
 30
0.0
 0
VERTEX
 8
PARTS
 10
 13.3000
 20
  6.7000
 30
0.0
 0
VERTEX
 8
PARTS
 10
 12.9000
 20
  6.7000
 30
0.0
 0
SEQEND
 8
PARTS
 0
POLYLINE
 8
PARTS
 66
1
 10
0.0
 20
0.0
 30
0.0
 0
VERTEX
 8
PARTS
 10
 12.9000
 20
  6.7000
 30
0.0
 0
VERTEX
 8
PARTS
 10
 12.9000
 20
  6.3000
 30
0.0
 0
SEQEND
 8
PARTS
 0
POLYLINE
 8
PARTS
 66
1
 10
0.0
 20
0.0
 30
0.0
 0
VERTEX
 8
PARTS
 10
 12.9000
 20
  6.3000
 30
0.0
 0
VERTEX
 8
PARTS
 10
 13.3000
 20
  6.3000
 30
0.0
 0
SEQEND
 8
PARTS
 0
POLYLINE
 8
PARTS
 66
1
 10
0.0
 20
0.0
 30
0.0
 0
VERTEX
 8
PARTS
 10
 13.5000
 20
  6.5000
 30
0.0
 42
  0.4142
 0
VERTEX
 8
PARTS
 10
 13.3000
 20
  6.7000
 30
0.0
 0
SEQEND
 8
PARTS
 0
POLYLINE
 8
PARTS
 66
1
 10
0.0
 20
0.0
 30
0.0
 0
VERTEX
 8
PARTS
 10
 13.3000
 20
  6.3000
 30
0.0
 42
  0.4142
 0
VERTEX
 8
PARTS
 10
 13.5000
 20
  6.5000
 30
0.0
 0
SEQEND
 8
PARTS
 0
TEXT
 8
PARTTEXT
 10
  6.9500
 20
  1.6086
 30
0.0
 40
  0.0514
 1
H3B
 0
TEXT
 8
PARTTEXT
 10
  6.9500
 20
  1.1086
 30
0.0
 40
  0.0514
 1
74ALS08
 0
LINE
 8
PARTS
 10
  6.6000
 20
  1.5000
 30
0.0
 11
  6.9000
 21
  1.5000
 31
0.0
 0
TEXT
 8
PARTS
 10
  6.8000
 20
  1.5300
 30
0.0
 40
  0.0500
 1
4
 0
LINE
 8
PARTS
 10
  6.6000
 20
  1.3000
 30
0.0
 11
  6.9000
 21
  1.3000
 31
0.0
 0
TEXT
 8
PARTS
 10
  6.8000
 20
  1.3300
 30
0.0
 40
  0.0500
 1
5
 0
LINE
 8
PARTS
 10
  7.8000
 20
  1.4000
 30
0.0
 11
  7.5000
 21
  1.4000
 31
0.0
 0
TEXT
 8
PARTS
 10
  7.5600
 20
  1.4300
 30
0.0
 40
  0.0500
 1
6
 0
POLYLINE
 8
PARTS
 66
1
 10
0.0
 20
0.0
 30
0.0
 0
VERTEX
 8
PARTS
 10
  7.3000
 20
  1.6000
 30
0.0
 0
VERTEX
 8
PARTS
 10
  6.9000
 20
  1.6000
 30
0.0
 0
SEQEND
 8
PARTS
 0
POLYLINE
 8
PARTS
 66
1
 10
0.0
 20
0.0
 30
0.0
 0
VERTEX
 8
PARTS
 10
  6.9000
 20
  1.6000
 30
0.0
 0
VERTEX
 8
PARTS
 10
  6.9000
 20
  1.2000
 30
0.0
 0
SEQEND
 8
PARTS
 0
POLYLINE
 8
PARTS
 66
1
 10
0.0
 20
0.0
 30
0.0
 0
VERTEX
 8
PARTS
 10
  6.9000
 20
  1.2000
 30
0.0
 0
VERTEX
 8
PARTS
 10
  7.3000
 20
  1.2000
 30
0.0
 0
SEQEND
 8
PARTS
 0
POLYLINE
 8
PARTS
 66
1
 10
0.0
 20
0.0
 30
0.0
 0
VERTEX
 8
PARTS
 10
  7.5000
 20
  1.4000
 30
0.0
 42
  0.4142
 0
VERTEX
 8
PARTS
 10
  7.3000
 20
  1.6000
 30
0.0
 0
SEQEND
 8
PARTS
 0
POLYLINE
 8
PARTS
 66
1
 10
0.0
 20
0.0
 30
0.0
 0
VERTEX
 8
PARTS
 10
  7.3000
 20
  1.2000
 30
0.0
 42
  0.4142
 0
VERTEX
 8
PARTS
 10
  7.5000
 20
  1.4000
 30
0.0
 0
SEQEND
 8
PARTS
 0
TEXT
 8
PARTTEXT
 10
 12.9500
 20
  7.9086
 30
0.0
 40
  0.0514
 1
J4A
 0
TEXT
 8
PARTTEXT
 10
 12.9500
 20
  7.4086
 30
0.0
 40
  0.0514
 1
74ALS00
 0
LINE
 8
PARTS
 10
 12.6000
 20
  7.8000
 30
0.0
 11
 12.9000
 21
  7.8000
 31
0.0
 0
TEXT
 8
PARTS
 10
 12.8000
 20
  7.8300
 30
0.0
 40
  0.0500
 1
1
 0
LINE
 8
PARTS
 10
 12.6000
 20
  7.6000
 30
0.0
 11
 12.9000
 21
  7.6000
 31
0.0
 0
TEXT
 8
PARTS
 10
 12.8000
 20
  7.6300
 30
0.0
 40
  0.0500
 1
2
 0
CIRCLE
 8
PARTS
 10
 13.5300
 20
  7.7000
 30
0.0
 40
  0.0300
 0
LINE
 8
PARTS
 10
 13.8000
 20
  7.7000
 30
0.0
 11
 13.5600
 21
  7.7000
 31
0.0
 0
TEXT
 8
PARTS
 10
 13.5600
 20
  7.7300
 30
0.0
 40
  0.0500
 1
3
 0
POLYLINE
 8
PARTS
 66
1
 10
0.0
 20
0.0
 30
0.0
 0
VERTEX
 8
PARTS
 10
 13.3000
 20
  7.9000
 30
0.0
 0
VERTEX
 8
PARTS
 10
 12.9000
 20
  7.9000
 30
0.0
 0
SEQEND
 8
PARTS
 0
POLYLINE
 8
PARTS
 66
1
 10
0.0
 20
0.0
 30
0.0
 0
VERTEX
 8
PARTS
 10
 12.9000
 20
  7.9000
 30
0.0
 0
VERTEX
 8
PARTS
 10
 12.9000
 20
  7.5000
 30
0.0
 0
SEQEND
 8
PARTS
 0
POLYLINE
 8
PARTS
 66
1
 10
0.0
 20
0.0
 30
0.0
 0
VERTEX
 8
PARTS
 10
 12.9000
 20
  7.5000
 30
0.0
 0
VERTEX
 8
PARTS
 10
 13.3000
 20
  7.5000
 30
0.0
 0
SEQEND
 8
PARTS
 0
POLYLINE
 8
PARTS
 66
1
 10
0.0
 20
0.0
 30
0.0
 0
VERTEX
 8
PARTS
 10
 13.5000
 20
  7.7000
 30
0.0
 42
  0.4142
 0
VERTEX
 8
PARTS
 10
 13.3000
 20
  7.9000
 30
0.0
 0
SEQEND
 8
PARTS
 0
POLYLINE
 8
PARTS
 66
1
 10
0.0
 20
0.0
 30
0.0
 0
VERTEX
 8
PARTS
 10
 13.3000
 20
  7.5000
 30
0.0
 42
  0.4142
 0
VERTEX
 8
PARTS
 10
 13.5000
 20
  7.7000
 30
0.0
 0
SEQEND
 8
PARTS
 0
TEXT
 8
PARTTEXT
 10
  4.7500
 20
  5.6086
 30
0.0
 40
  0.0514
 1
M2
 0
TEXT
 8
PARTTEXT
 10
  4.7500
 20
  4.3086
 30
0.0
 40
  0.0514
 1
74LS377
 0
LINE
 8
PARTS
 10
  4.4000
 20
  5.5000
 30
0.0
 11
  4.7000
 21
  5.5000
 31
0.0
 0
TEXT
 8
PARTS
 10
  4.7900
 20
  5.4750
 30
0.0
 40
  0.0500
 1
D1
 0
TEXT
 8
PARTS
 10
  4.6000
 20
  5.5300
 30
0.0
 40
  0.0500
 1
3
 0
LINE
 8
PARTS
 10
  4.4000
 20
  5.4000
 30
0.0
 11
  4.7000
 21
  5.4000
 31
0.0
 0
TEXT
 8
PARTS
 10
  4.7900
 20
  5.3750
 30
0.0
 40
  0.0500
 1
D2
 0
TEXT
 8
PARTS
 10
  4.6000
 20
  5.4300
 30
0.0
 40
  0.0500
 1
4
 0
LINE
 8
PARTS
 10
  4.4000
 20
  5.3000
 30
0.0
 11
  4.7000
 21
  5.3000
 31
0.0
 0
TEXT
 8
PARTS
 10
  4.7900
 20
  5.2750
 30
0.0
 40
  0.0500
 1
D3
 0
TEXT
 8
PARTS
 10
  4.6000
 20
  5.3300
 30
0.0
 40
  0.0500
 1
7
 0
LINE
 8
PARTS
 10
  4.4000
 20
  5.2000
 30
0.0
 11
  4.7000
 21
  5.2000
 31
0.0
 0
TEXT
 8
PARTS
 10
  4.7900
 20
  5.1750
 30
0.0
 40
  0.0500
 1
D4
 0
TEXT
 8
PARTS
 10
  4.6000
 20
  5.2300
 30
0.0
 40
  0.0500
 1
8
 0
LINE
 8
PARTS
 10
  4.4000
 20
  5.1000
 30
0.0
 11
  4.7000
 21
  5.1000
 31
0.0
 0
TEXT
 8
PARTS
 10
  4.7900
 20
  5.0750
 30
0.0
 40
  0.0500
 1
D5
 0
TEXT
 8
PARTS
 10
  4.5600
 20
  5.1300
 30
0.0
 40
  0.0500
 1
13
 0
LINE
 8
PARTS
 10
  4.4000
 20
  5.0000
 30
0.0
 11
  4.7000
 21
  5.0000
 31
0.0
 0
TEXT
 8
PARTS
 10
  4.7900
 20
  4.9750
 30
0.0
 40
  0.0500
 1
D6
 0
TEXT
 8
PARTS
 10
  4.5600
 20
  5.0300
 30
0.0
 40
  0.0500
 1
14
 0
LINE
 8
PARTS
 10
  4.4000
 20
  4.9000
 30
0.0
 11
  4.7000
 21
  4.9000
 31
0.0
 0
TEXT
 8
PARTS
 10
  4.7900
 20
  4.8750
 30
0.0
 40
  0.0500
 1
D7
 0
TEXT
 8
PARTS
 10
  4.5600
 20
  4.9300
 30
0.0
 40
  0.0500
 1
17
 0
LINE
 8
PARTS
 10
  4.4000
 20
  4.8000
 30
0.0
 11
  4.7000
 21
  4.8000
 31
0.0
 0
TEXT
 8
PARTS
 10
  4.7900
 20
  4.7750
 30
0.0
 40
  0.0500
 1
D8
 0
TEXT
 8
PARTS
 10
  4.5600
 20
  4.8300
 30
0.0
 40
  0.0500
 1
18
 0
LINE
 8
PARTS
 10
  4.4000
 20
  4.6000
 30
0.0
 11
  4.7000
 21
  4.6000
 31
0.0
 0
LINE
 8
PARTS
 10
  4.7000
 20
  4.6600
 30
0.0
 11
  4.7600
 21
  4.6000
 31
0.0
 0
LINE
 8
PARTS
 10
  4.7600
 20
  4.6000
 30
0.0
 11
  4.7000
 21
  4.5400
 31
0.0
 0
TEXT
 8
PARTS
 10
  4.7900
 20
  4.5750
 30
0.0
 40
  0.0500
 1
CLK
 0
TEXT
 8
PARTS
 10
  4.5600
 20
  4.6300
 30
0.0
 40
  0.0500
 1
11
 0
CIRCLE
 8
PARTS
 10
  4.6700
 20
  4.5000
 30
0.0
 40
  0.0300
 0
LINE
 8
PARTS
 10
  4.4000
 20
  4.5000
 30
0.0
 11
  4.6400
 21
  4.5000
 31
0.0
 0
TEXT
 8
PARTS
 10
  4.7900
 20
  4.4750
 30
0.0
 40
  0.0500
 1
G
 0
TEXT
 8
PARTS
 10
  4.6000
 20
  4.5300
 30
0.0
 40
  0.0500
 1
1
 0
LINE
 8
PARTS
 10
  5.6000
 20
  5.5000
 30
0.0
 11
  5.3000
 21
  5.5000
 31
0.0
 0
TEXT
 8
PARTS
 10
  5.1300
 20
  5.4750
 30
0.0
 40
  0.0500
 1
Q1
 0
TEXT
 8
PARTS
 10
  5.3600
 20
  5.5300
 30
0.0
 40
  0.0500
 1
2
 0
LINE
 8
PARTS
 10
  5.6000
 20
  5.4000
 30
0.0
 11
  5.3000
 21
  5.4000
 31
0.0
 0
TEXT
 8
PARTS
 10
  5.1300
 20
  5.3750
 30
0.0
 40
  0.0500
 1
Q2
 0
TEXT
 8
PARTS
 10
  5.3600
 20
  5.4300
 30
0.0
 40
  0.0500
 1
5
 0
LINE
 8
PARTS
 10
  5.6000
 20
  5.3000
 30
0.0
 11
  5.3000
 21
  5.3000
 31
0.0
 0
TEXT
 8
PARTS
 10
  5.1300
 20
  5.2750
 30
0.0
 40
  0.0500
 1
Q3
 0
TEXT
 8
PARTS
 10
  5.3600
 20
  5.3300
 30
0.0
 40
  0.0500
 1
6
 0
LINE
 8
PARTS
 10
  5.6000
 20
  5.2000
 30
0.0
 11
  5.3000
 21
  5.2000
 31
0.0
 0
TEXT
 8
PARTS
 10
  5.1300
 20
  5.1750
 30
0.0
 40
  0.0500
 1
Q4
 0
TEXT
 8
PARTS
 10
  5.3600
 20
  5.2300
 30
0.0
 40
  0.0500
 1
9
 0
LINE
 8
PARTS
 10
  5.6000
 20
  5.1000
 30
0.0
 11
  5.3000
 21
  5.1000
 31
0.0
 0
TEXT
 8
PARTS
 10
  5.1300
 20
  5.0750
 30
0.0
 40
  0.0500
 1
Q5
 0
TEXT
 8
PARTS
 10
  5.3600
 20
  5.1300
 30
0.0
 40
  0.0500
 1
12
 0
LINE
 8
PARTS
 10
  5.6000
 20
  5.0000
 30
0.0
 11
  5.3000
 21
  5.0000
 31
0.0
 0
TEXT
 8
PARTS
 10
  5.1300
 20
  4.9750
 30
0.0
 40
  0.0500
 1
Q6
 0
TEXT
 8
PARTS
 10
  5.3600
 20
  5.0300
 30
0.0
 40
  0.0500
 1
15
 0
LINE
 8
PARTS
 10
  5.6000
 20
  4.9000
 30
0.0
 11
  5.3000
 21
  4.9000
 31
0.0
 0
TEXT
 8
PARTS
 10
  5.1300
 20
  4.8750
 30
0.0
 40
  0.0500
 1
Q7
 0
TEXT
 8
PARTS
 10
  5.3600
 20
  4.9300
 30
0.0
 40
  0.0500
 1
16
 0
LINE
 8
PARTS
 10
  5.6000
 20
  4.8000
 30
0.0
 11
  5.3000
 21
  4.8000
 31
0.0
 0
TEXT
 8
PARTS
 10
  5.1300
 20
  4.7750
 30
0.0
 40
  0.0500
 1
Q8
 0
TEXT
 8
PARTS
 10
  5.3600
 20
  4.8300
 30
0.0
 40
  0.0500
 1
19
 0
POLYLINE
 8
PARTS
 66
1
 70
1
 10
0.0
 20
0.0
 30
0.0
 0
VERTEX
 8
PARTS
 10
  4.7000
 20
  5.6000
 30
0.0
 0
VERTEX
 8
PARTS
 10
  5.3000
 20
  5.6000
 30
0.0
 0
VERTEX
 8
PARTS
 10
  5.3000
 20
  4.4000
 30
0.0
 0
VERTEX
 8
PARTS
 10
  4.7000
 20
  4.4000
 30
0.0
 0
SEQEND
 8
PARTS
 0
TEXT
 8
PARTTEXT
 10
 10.5500
 20
  6.4086
 30
0.0
 40
  0.0514
 1
D4
 0
TEXT
 8
PARTTEXT
 10
 10.5500
 20
  5.7086
 30
0.0
 40
  0.0514
 1
DS1000-100
 0
LINE
 8
PARTS
 10
 10.2000
 20
  6.3000
 30
0.0
 11
 10.5000
 21
  6.3000
 31
0.0
 0
TEXT
 8
PARTS
 10
 10.5900
 20
  6.2750
 30
0.0
 40
  0.0500
 1
IN
 0
TEXT
 8
PARTS
 10
 10.4000
 20
  6.3300
 30
0.0
 40
  0.0500
 1
1
 0
LINE
 8
PARTS
 10
 11.6000
 20
  6.3000
 30
0.0
 11
 11.3000
 21
  6.3000
 31
0.0
 0
TEXT
 8
PARTS
 10
 11.0500
 20
  6.2750
 30
0.0
 40
  0.0500
 1
TAP1
 0
TEXT
 8
PARTS
 10
 11.3600
 20
  6.3300
 30
0.0
 40
  0.0500
 1
12
 0
LINE
 8
PARTS
 10
 11.6000
 20
  6.2000
 30
0.0
 11
 11.3000
 21
  6.2000
 31
0.0
 0
TEXT
 8
PARTS
 10
 11.0500
 20
  6.1750
 30
0.0
 40
  0.0500
 1
TAP2
 0
TEXT
 8
PARTS
 10
 11.3600
 20
  6.2300
 30
0.0
 40
  0.0500
 1
4
 0
LINE
 8
PARTS
 10
 11.6000
 20
  6.1000
 30
0.0
 11
 11.3000
 21
  6.1000
 31
0.0
 0
TEXT
 8
PARTS
 10
 11.0500
 20
  6.0750
 30
0.0
 40
  0.0500
 1
TAP3
 0
TEXT
 8
PARTS
 10
 11.3600
 20
  6.1300
 30
0.0
 40
  0.0500
 1
10
 0
LINE
 8
PARTS
 10
 11.6000
 20
  6.0000
 30
0.0
 11
 11.3000
 21
  6.0000
 31
0.0
 0
TEXT
 8
PARTS
 10
 11.0500
 20
  5.9750
 30
0.0
 40
  0.0500
 1
TAP4
 0
TEXT
 8
PARTS
 10
 11.3600
 20
  6.0300
 30
0.0
 40
  0.0500
 1
6
 0
LINE
 8
PARTS
 10
 11.6000
 20
  5.9000
 30
0.0
 11
 11.3000
 21
  5.9000
 31
0.0
 0
TEXT
 8
PARTS
 10
 11.0500
 20
  5.8750
 30
0.0
 40
  0.0500
 1
TAP5
 0
TEXT
 8
PARTS
 10
 11.3600
 20
  5.9300
 30
0.0
 40
  0.0500
 1
8
 0
POLYLINE
 8
PARTS
 66
1
 70
1
 10
0.0
 20
0.0
 30
0.0
 0
VERTEX
 8
PARTS
 10
 10.5000
 20
  6.4000
 30
0.0
 0
VERTEX
 8
PARTS
 10
 11.3000
 20
  6.4000
 30
0.0
 0
VERTEX
 8
PARTS
 10
 11.3000
 20
  5.8000
 30
0.0
 0
VERTEX
 8
PARTS
 10
 10.5000
 20
  5.8000
 30
0.0
 0
SEQEND
 8
PARTS
 0
TEXT
 8
PARTTEXT
 10
  8.7900
 20
  1.6086
 30
0.0
 40
  0.0514
 1
G3B
 0
TEXT
 8
PARTTEXT
 10
  8.7900
 20
  0.8186
 30
0.0
 40
  0.0514
 1
74F74
 0
LINE
 8
PARTS
 10
  7.8000
 20
  1.4000
 30
0.0
 11
  8.1000
 21
  1.4000
 31
0.0
 0
TEXT
 8
PARTS
 10
  8.1900
 20
  1.3750
 30
0.0
 40
  0.0500
 1
D
 0
TEXT
 8
PARTS
 10
  7.9600
 20
  1.4300
 30
0.0
 40
  0.0500
 1
12
 0
LINE
 8
PARTS
 10
  7.8000
 20
  1.2000
 30
0.0
 11
  8.1000
 21
  1.2000
 31
0.0
 0
LINE
 8
PARTS
 10
  8.1000
 20
  1.2600
 30
0.0
 11
  8.1600
 21
  1.2000
 31
0.0
 0
LINE
 8
PARTS
 10
  8.1600
 20
  1.2000
 30
0.0
 11
  8.1000
 21
  1.1400
 31
0.0
 0
TEXT
 8
PARTS
 10
  8.1900
 20
  1.1750
 30
0.0
 40
  0.0500
 1
CLK
 0
TEXT
 8
PARTS
 10
  7.9600
 20
  1.2300
 30
0.0
 40
  0.0500
 1
11
 0
LINE
 8
PARTS
 10
  9.0000
 20
  1.4000
 30
0.0
 11
  8.7000
 21
  1.4000
 31
0.0
 0
TEXT
 8
PARTS
 10
  8.5700
 20
  1.3750
 30
0.0
 40
  0.0500
 1
Q
 0
TEXT
 8
PARTS
 10
  8.7600
 20
  1.4300
 30
0.0
 40
  0.0500
 1
9
 0
LINE
 8
PARTS
 10
  9.0000
 20
  1.0000
 30
0.0
 11
  8.7000
 21
  1.0000
 31
0.0
 0
TEXT
 8
PARTS
 10
  8.5700
 20
  0.9750
 30
0.0
 40
  0.0500
 1
%%oQ%%o
 0
TEXT
 8
PARTS
 10
  8.7600
 20
  1.0300
 30
0.0
 40
  0.0500
 1
8
 0
CIRCLE
 8
PARTS
 10
  8.4000
 20
  1.5300
 30
0.0
 40
  0.0300
 0
LINE
 8
PARTS
 10
  8.4000
 20
  1.8000
 30
0.0
 11
  8.4000
 21
  1.5600
 31
0.0
 0
TEXT
 8
PARTS
 10
  8.4250
 20
  1.3300
 30
0.0
 40
  0.0500
 50
 90.0000
 1
PR
 0
TEXT
 8
PARTS
 10
  8.3700
 20
  1.5600
 30
0.0
 40
  0.0500
 50
 90.0000
 1
10
 0
CIRCLE
 8
PARTS
 10
  8.4000
 20
  0.8700
 30
0.0
 40
  0.0300
 0
LINE
 8
PARTS
 10
  8.4000
 20
  0.6000
 30
0.0
 11
  8.4000
 21
  0.8400
 31
0.0
 0
TEXT
 8
PARTS
 10
  8.4250
 20
  0.9900
 30
0.0
 40
  0.0500
 50
 90.0000
 1
CL
 0
TEXT
 8
PARTS
 10
  8.3700
 20
  0.7800
 30
0.0
 40
  0.0500
 50
 90.0000
 1
13
 0
POLYLINE
 8
PARTS
 66
1
 70
1
 10
0.0
 20
0.0
 30
0.0
 0
VERTEX
 8
PARTS
 10
  8.1000
 20
  1.5000
 30
0.0
 0
VERTEX
 8
PARTS
 10
  8.7000
 20
  1.5000
 30
0.0
 0
VERTEX
 8
PARTS
 10
  8.7000
 20
  0.9000
 30
0.0
 0
VERTEX
 8
PARTS
 10
  8.1000
 20
  0.9000
 30
0.0
 0
SEQEND
 8
PARTS
 0
TEXT
 8
PARTTEXT
 10
  8.8500
 20
  3.1086
 30
0.0
 40
  0.0514
 1
H3C
 0
TEXT
 8
PARTTEXT
 10
  8.8500
 20
  2.6086
 30
0.0
 40
  0.0514
 1
74ALS08
 0
LINE
 8
PARTS
 10
  8.5000
 20
  3.0000
 30
0.0
 11
  8.8000
 21
  3.0000
 31
0.0
 0
TEXT
 8
PARTS
 10
  8.7000
 20
  3.0300
 30
0.0
 40
  0.0500
 1
9
 0
LINE
 8
PARTS
 10
  8.5000
 20
  2.8000
 30
0.0
 11
  8.8000
 21
  2.8000
 31
0.0
 0
TEXT
 8
PARTS
 10
  8.6600
 20
  2.8300
 30
0.0
 40
  0.0500
 1
10
 0
LINE
 8
PARTS
 10
  9.7000
 20
  2.9000
 30
0.0
 11
  9.4000
 21
  2.9000
 31
0.0
 0
TEXT
 8
PARTS
 10
  9.4600
 20
  2.9300
 30
0.0
 40
  0.0500
 1
8
 0
POLYLINE
 8
PARTS
 66
1
 10
0.0
 20
0.0
 30
0.0
 0
VERTEX
 8
PARTS
 10
  9.2000
 20
  3.1000
 30
0.0
 0
VERTEX
 8
PARTS
 10
  8.8000
 20
  3.1000
 30
0.0
 0
SEQEND
 8
PARTS
 0
POLYLINE
 8
PARTS
 66
1
 10
0.0
 20
0.0
 30
0.0
 0
VERTEX
 8
PARTS
 10
  8.8000
 20
  3.1000
 30
0.0
 0
VERTEX
 8
PARTS
 10
  8.8000
 20
  2.7000
 30
0.0
 0
SEQEND
 8
PARTS
 0
POLYLINE
 8
PARTS
 66
1
 10
0.0
 20
0.0
 30
0.0
 0
VERTEX
 8
PARTS
 10
  8.8000
 20
  2.7000
 30
0.0
 0
VERTEX
 8
PARTS
 10
  9.2000
 20
  2.7000
 30
0.0
 0
SEQEND
 8
PARTS
 0
POLYLINE
 8
PARTS
 66
1
 10
0.0
 20
0.0
 30
0.0
 0
VERTEX
 8
PARTS
 10
  9.4000
 20
  2.9000
 30
0.0
 42
  0.4142
 0
VERTEX
 8
PARTS
 10
  9.2000
 20
  3.1000
 30
0.0
 0
SEQEND
 8
PARTS
 0
POLYLINE
 8
PARTS
 66
1
 10
0.0
 20
0.0
 30
0.0
 0
VERTEX
 8
PARTS
 10
  9.2000
 20
  2.7000
 30
0.0
 42
  0.4142
 0
VERTEX
 8
PARTS
 10
  9.4000
 20
  2.9000
 30
0.0
 0
SEQEND
 8
PARTS
 0
TEXT
 8
PARTTEXT
 10
  5.6500
 20
  2.1086
 30
0.0
 40
  0.0514
 1
D3B
 0
TEXT
 8
PARTTEXT
 10
  5.6500
 20
  1.6086
 30
0.0
 40
  0.0514
 1
74ALS00
 0
LINE
 8
PARTS
 10
  5.3000
 20
  2.0000
 30
0.0
 11
  5.6000
 21
  2.0000
 31
0.0
 0
TEXT
 8
PARTS
 10
  5.5000
 20
  2.0300
 30
0.0
 40
  0.0500
 1
4
 0
LINE
 8
PARTS
 10
  5.3000
 20
  1.8000
 30
0.0
 11
  5.6000
 21
  1.8000
 31
0.0
 0
TEXT
 8
PARTS
 10
  5.5000
 20
  1.8300
 30
0.0
 40
  0.0500
 1
5
 0
CIRCLE
 8
PARTS
 10
  6.2300
 20
  1.9000
 30
0.0
 40
  0.0300
 0
LINE
 8
PARTS
 10
  6.5000
 20
  1.9000
 30
0.0
 11
  6.2600
 21
  1.9000
 31
0.0
 0
TEXT
 8
PARTS
 10
  6.2600
 20
  1.9300
 30
0.0
 40
  0.0500
 1
6
 0
POLYLINE
 8
PARTS
 66
1
 10
0.0
 20
0.0
 30
0.0
 0
VERTEX
 8
PARTS
 10
  6.0000
 20
  2.1000
 30
0.0
 0
VERTEX
 8
PARTS
 10
  5.6000
 20
  2.1000
 30
0.0
 0
SEQEND
 8
PARTS
 0
POLYLINE
 8
PARTS
 66
1
 10
0.0
 20
0.0
 30
0.0
 0
VERTEX
 8
PARTS
 10
  5.6000
 20
  2.1000
 30
0.0
 0
VERTEX
 8
PARTS
 10
  5.6000
 20
  1.7000
 30
0.0
 0
SEQEND
 8
PARTS
 0
POLYLINE
 8
PARTS
 66
1
 10
0.0
 20
0.0
 30
0.0
 0
VERTEX
 8
PARTS
 10
  5.6000
 20
  1.7000
 30
0.0
 0
VERTEX
 8
PARTS
 10
  6.0000
 20
  1.7000
 30
0.0
 0
SEQEND
 8
PARTS
 0
POLYLINE
 8
PARTS
 66
1
 10
0.0
 20
0.0
 30
0.0
 0
VERTEX
 8
PARTS
 10
  6.2000
 20
  1.9000
 30
0.0
 42
  0.4142
 0
VERTEX
 8
PARTS
 10
  6.0000
 20
  2.1000
 30
0.0
 0
SEQEND
 8
PARTS
 0
POLYLINE
 8
PARTS
 66
1
 10
0.0
 20
0.0
 30
0.0
 0
VERTEX
 8
PARTS
 10
  6.0000
 20
  1.7000
 30
0.0
 42
  0.4142
 0
VERTEX
 8
PARTS
 10
  6.2000
 20
  1.9000
 30
0.0
 0
SEQEND
 8
PARTS
 0
TEXT
 8
PARTTEXT
 10
 11.9500
 20
  6.1086
 30
0.0
 40
  0.0514
 1
E3B
 0
TEXT
 8
PARTTEXT
 10
 11.9500
 20
  5.6086
 30
0.0
 40
  0.0514
 1
74ALS04
 0
LINE
 8
PARTS
 10
 11.6000
 20
  5.9000
 30
0.0
 11
 11.9000
 21
  5.9000
 31
0.0
 0
TEXT
 8
PARTS
 10
 11.8000
 20
  5.9300
 30
0.0
 40
  0.0500
 1
3
 0
CIRCLE
 8
PARTS
 10
 12.3300
 20
  5.9000
 30
0.0
 40
  0.0300
 0
LINE
 8
PARTS
 10
 12.6000
 20
  5.9000
 30
0.0
 11
 12.3600
 21
  5.9000
 31
0.0
 0
TEXT
 8
PARTS
 10
 12.3600
 20
  5.9300
 30
0.0
 40
  0.0500
 1
4
 0
POLYLINE
 8
PARTS
 66
1
 10
0.0
 20
0.0
 30
0.0
 0
VERTEX
 8
PARTS
 10
 11.9000
 20
  6.1000
 30
0.0
 0
VERTEX
 8
PARTS
 10
 12.3000
 20
  5.9000
 30
0.0
 0
SEQEND
 8
PARTS
 0
POLYLINE
 8
PARTS
 66
1
 10
0.0
 20
0.0
 30
0.0
 0
VERTEX
 8
PARTS
 10
 12.3000
 20
  5.9000
 30
0.0
 0
VERTEX
 8
PARTS
 10
 11.9000
 20
  5.7000
 30
0.0
 0
SEQEND
 8
PARTS
 0
POLYLINE
 8
PARTS
 66
1
 10
0.0
 20
0.0
 30
0.0
 0
VERTEX
 8
PARTS
 10
 11.9000
 20
  5.7000
 30
0.0
 0
VERTEX
 8
PARTS
 10
 11.9000
 20
  6.1000
 30
0.0
 0
SEQEND
 8
PARTS
 0
TEXT
 8
PARTTEXT
 10
  4.7500
 20
  3.8086
 30
0.0
 40
  0.0514
 1
K2
 0
TEXT
 8
PARTTEXT
 10
  4.7500
 20
  2.5086
 30
0.0
 40
  0.0514
 1
74LS377
 0
LINE
 8
PARTS
 10
  4.4000
 20
  3.7000
 30
0.0
 11
  4.7000
 21
  3.7000
 31
0.0
 0
TEXT
 8
PARTS
 10
  4.7900
 20
  3.6750
 30
0.0
 40
  0.0500
 1
D1
 0
TEXT
 8
PARTS
 10
  4.6000
 20
  3.7300
 30
0.0
 40
  0.0500
 1
3
 0
LINE
 8
PARTS
 10
  4.4000
 20
  3.6000
 30
0.0
 11
  4.7000
 21
  3.6000
 31
0.0
 0
TEXT
 8
PARTS
 10
  4.7900
 20
  3.5750
 30
0.0
 40
  0.0500
 1
D2
 0
TEXT
 8
PARTS
 10
  4.6000
 20
  3.6300
 30
0.0
 40
  0.0500
 1
4
 0
LINE
 8
PARTS
 10
  4.4000
 20
  3.5000
 30
0.0
 11
  4.7000
 21
  3.5000
 31
0.0
 0
TEXT
 8
PARTS
 10
  4.7900
 20
  3.4750
 30
0.0
 40
  0.0500
 1
D3
 0
TEXT
 8
PARTS
 10
  4.6000
 20
  3.5300
 30
0.0
 40
  0.0500
 1
7
 0
LINE
 8
PARTS
 10
  4.4000
 20
  3.4000
 30
0.0
 11
  4.7000
 21
  3.4000
 31
0.0
 0
TEXT
 8
PARTS
 10
  4.7900
 20
  3.3750
 30
0.0
 40
  0.0500
 1
D4
 0
TEXT
 8
PARTS
 10
  4.6000
 20
  3.4300
 30
0.0
 40
  0.0500
 1
8
 0
LINE
 8
PARTS
 10
  4.4000
 20
  3.3000
 30
0.0
 11
  4.7000
 21
  3.3000
 31
0.0
 0
TEXT
 8
PARTS
 10
  4.7900
 20
  3.2750
 30
0.0
 40
  0.0500
 1
D5
 0
TEXT
 8
PARTS
 10
  4.5600
 20
  3.3300
 30
0.0
 40
  0.0500
 1
13
 0
LINE
 8
PARTS
 10
  4.4000
 20
  3.2000
 30
0.0
 11
  4.7000
 21
  3.2000
 31
0.0
 0
TEXT
 8
PARTS
 10
  4.7900
 20
  3.1750
 30
0.0
 40
  0.0500
 1
D6
 0
TEXT
 8
PARTS
 10
  4.5600
 20
  3.2300
 30
0.0
 40
  0.0500
 1
14
 0
LINE
 8
PARTS
 10
  4.4000
 20
  3.1000
 30
0.0
 11
  4.7000
 21
  3.1000
 31
0.0
 0
TEXT
 8
PARTS
 10
  4.7900
 20
  3.0750
 30
0.0
 40
  0.0500
 1
D7
 0
TEXT
 8
PARTS
 10
  4.5600
 20
  3.1300
 30
0.0
 40
  0.0500
 1
17
 0
LINE
 8
PARTS
 10
  4.4000
 20
  3.0000
 30
0.0
 11
  4.7000
 21
  3.0000
 31
0.0
 0
TEXT
 8
PARTS
 10
  4.7900
 20
  2.9750
 30
0.0
 40
  0.0500
 1
D8
 0
TEXT
 8
PARTS
 10
  4.5600
 20
  3.0300
 30
0.0
 40
  0.0500
 1
18
 0
LINE
 8
PARTS
 10
  4.4000
 20
  2.8000
 30
0.0
 11
  4.7000
 21
  2.8000
 31
0.0
 0
LINE
 8
PARTS
 10
  4.7000
 20
  2.8600
 30
0.0
 11
  4.7600
 21
  2.8000
 31
0.0
 0
LINE
 8
PARTS
 10
  4.7600
 20
  2.8000
 30
0.0
 11
  4.7000
 21
  2.7400
 31
0.0
 0
TEXT
 8
PARTS
 10
  4.7900
 20
  2.7750
 30
0.0
 40
  0.0500
 1
CLK
 0
TEXT
 8
PARTS
 10
  4.5600
 20
  2.8300
 30
0.0
 40
  0.0500
 1
11
 0
CIRCLE
 8
PARTS
 10
  4.6700
 20
  2.7000
 30
0.0
 40
  0.0300
 0
LINE
 8
PARTS
 10
  4.4000
 20
  2.7000
 30
0.0
 11
  4.6400
 21
  2.7000
 31
0.0
 0
TEXT
 8
PARTS
 10
  4.7900
 20
  2.6750
 30
0.0
 40
  0.0500
 1
G
 0
TEXT
 8
PARTS
 10
  4.6000
 20
  2.7300
 30
0.0
 40
  0.0500
 1
1
 0
LINE
 8
PARTS
 10
  5.6000
 20
  3.7000
 30
0.0
 11
  5.3000
 21
  3.7000
 31
0.0
 0
TEXT
 8
PARTS
 10
  5.1300
 20
  3.6750
 30
0.0
 40
  0.0500
 1
Q1
 0
TEXT
 8
PARTS
 10
  5.3600
 20
  3.7300
 30
0.0
 40
  0.0500
 1
2
 0
LINE
 8
PARTS
 10
  5.6000
 20
  3.6000
 30
0.0
 11
  5.3000
 21
  3.6000
 31
0.0
 0
TEXT
 8
PARTS
 10
  5.1300
 20
  3.5750
 30
0.0
 40
  0.0500
 1
Q2
 0
TEXT
 8
PARTS
 10
  5.3600
 20
  3.6300
 30
0.0
 40
  0.0500
 1
5
 0
LINE
 8
PARTS
 10
  5.6000
 20
  3.5000
 30
0.0
 11
  5.3000
 21
  3.5000
 31
0.0
 0
TEXT
 8
PARTS
 10
  5.1300
 20
  3.4750
 30
0.0
 40
  0.0500
 1
Q3
 0
TEXT
 8
PARTS
 10
  5.3600
 20
  3.5300
 30
0.0
 40
  0.0500
 1
6
 0
LINE
 8
PARTS
 10
  5.6000
 20
  3.4000
 30
0.0
 11
  5.3000
 21
  3.4000
 31
0.0
 0
TEXT
 8
PARTS
 10
  5.1300
 20
  3.3750
 30
0.0
 40
  0.0500
 1
Q4
 0
TEXT
 8
PARTS
 10
  5.3600
 20
  3.4300
 30
0.0
 40
  0.0500
 1
9
 0
LINE
 8
PARTS
 10
  5.6000
 20
  3.3000
 30
0.0
 11
  5.3000
 21
  3.3000
 31
0.0
 0
TEXT
 8
PARTS
 10
  5.1300
 20
  3.2750
 30
0.0
 40
  0.0500
 1
Q5
 0
TEXT
 8
PARTS
 10
  5.3600
 20
  3.3300
 30
0.0
 40
  0.0500
 1
12
 0
LINE
 8
PARTS
 10
  5.6000
 20
  3.2000
 30
0.0
 11
  5.3000
 21
  3.2000
 31
0.0
 0
TEXT
 8
PARTS
 10
  5.1300
 20
  3.1750
 30
0.0
 40
  0.0500
 1
Q6
 0
TEXT
 8
PARTS
 10
  5.3600
 20
  3.2300
 30
0.0
 40
  0.0500
 1
15
 0
LINE
 8
PARTS
 10
  5.6000
 20
  3.1000
 30
0.0
 11
  5.3000
 21
  3.1000
 31
0.0
 0
TEXT
 8
PARTS
 10
  5.1300
 20
  3.0750
 30
0.0
 40
  0.0500
 1
Q7
 0
TEXT
 8
PARTS
 10
  5.3600
 20
  3.1300
 30
0.0
 40
  0.0500
 1
16
 0
LINE
 8
PARTS
 10
  5.6000
 20
  3.0000
 30
0.0
 11
  5.3000
 21
  3.0000
 31
0.0
 0
TEXT
 8
PARTS
 10
  5.1300
 20
  2.9750
 30
0.0
 40
  0.0500
 1
Q8
 0
TEXT
 8
PARTS
 10
  5.3600
 20
  3.0300
 30
0.0
 40
  0.0500
 1
19
 0
POLYLINE
 8
PARTS
 66
1
 70
1
 10
0.0
 20
0.0
 30
0.0
 0
VERTEX
 8
PARTS
 10
  4.7000
 20
  3.8000
 30
0.0
 0
VERTEX
 8
PARTS
 10
  5.3000
 20
  3.8000
 30
0.0
 0
VERTEX
 8
PARTS
 10
  5.3000
 20
  2.6000
 30
0.0
 0
VERTEX
 8
PARTS
 10
  4.7000
 20
  2.6000
 30
0.0
 0
SEQEND
 8
PARTS
 0
TEXT
 8
PARTTEXT
 10
  4.8900
 20
  1.5086
 30
0.0
 40
  0.0514
 1
G3A
 0
TEXT
 8
PARTTEXT
 10
  4.8900
 20
  0.7186
 30
0.0
 40
  0.0514
 1
74F74
 0
LINE
 8
PARTS
 10
  3.9000
 20
  1.3000
 30
0.0
 11
  4.2000
 21
  1.3000
 31
0.0
 0
TEXT
 8
PARTS
 10
  4.2900
 20
  1.2750
 30
0.0
 40
  0.0500
 1
D
 0
TEXT
 8
PARTS
 10
  4.1000
 20
  1.3300
 30
0.0
 40
  0.0500
 1
2
 0
LINE
 8
PARTS
 10
  3.9000
 20
  1.1000
 30
0.0
 11
  4.2000
 21
  1.1000
 31
0.0
 0
LINE
 8
PARTS
 10
  4.2000
 20
  1.1600
 30
0.0
 11
  4.2600
 21
  1.1000
 31
0.0
 0
LINE
 8
PARTS
 10
  4.2600
 20
  1.1000
 30
0.0
 11
  4.2000
 21
  1.0400
 31
0.0
 0
TEXT
 8
PARTS
 10
  4.2900
 20
  1.0750
 30
0.0
 40
  0.0500
 1
CLK
 0
TEXT
 8
PARTS
 10
  4.1000
 20
  1.1300
 30
0.0
 40
  0.0500
 1
3
 0
LINE
 8
PARTS
 10
  5.1000
 20
  1.3000
 30
0.0
 11
  4.8000
 21
  1.3000
 31
0.0
 0
TEXT
 8
PARTS
 10
  4.6700
 20
  1.2750
 30
0.0
 40
  0.0500
 1
Q
 0
TEXT
 8
PARTS
 10
  4.8600
 20
  1.3300
 30
0.0
 40
  0.0500
 1
5
 0
LINE
 8
PARTS
 10
  5.1000
 20
  0.9000
 30
0.0
 11
  4.8000
 21
  0.9000
 31
0.0
 0
TEXT
 8
PARTS
 10
  4.6700
 20
  0.8750
 30
0.0
 40
  0.0500
 1
%%oQ%%o
 0
TEXT
 8
PARTS
 10
  4.8600
 20
  0.9300
 30
0.0
 40
  0.0500
 1
6
 0
CIRCLE
 8
PARTS
 10
  4.5000
 20
  1.4300
 30
0.0
 40
  0.0300
 0
LINE
 8
PARTS
 10
  4.5000
 20
  1.7000
 30
0.0
 11
  4.5000
 21
  1.4600
 31
0.0
 0
TEXT
 8
PARTS
 10
  4.5250
 20
  1.2300
 30
0.0
 40
  0.0500
 50
 90.0000
 1
PR
 0
TEXT
 8
PARTS
 10
  4.4700
 20
  1.4600
 30
0.0
 40
  0.0500
 50
 90.0000
 1
4
 0
CIRCLE
 8
PARTS
 10
  4.5000
 20
  0.7700
 30
0.0
 40
  0.0300
 0
LINE
 8
PARTS
 10
  4.5000
 20
  0.5000
 30
0.0
 11
  4.5000
 21
  0.7400
 31
0.0
 0
TEXT
 8
PARTS
 10
  4.5250
 20
  0.8900
 30
0.0
 40
  0.0500
 50
 90.0000
 1
CL
 0
TEXT
 8
PARTS
 10
  4.4700
 20
  0.6800
 30
0.0
 40
  0.0500
 50
 90.0000
 1
1
 0
POLYLINE
 8
PARTS
 66
1
 70
1
 10
0.0
 20
0.0
 30
0.0
 0
VERTEX
 8
PARTS
 10
  4.2000
 20
  1.4000
 30
0.0
 0
VERTEX
 8
PARTS
 10
  4.8000
 20
  1.4000
 30
0.0
 0
VERTEX
 8
PARTS
 10
  4.8000
 20
  0.8000
 30
0.0
 0
VERTEX
 8
PARTS
 10
  4.2000
 20
  0.8000
 30
0.0
 0
SEQEND
 8
PARTS
 0
TEXT
 8
PARTTEXT
 10
 12.9500
 20
  9.5086
 30
0.0
 40
  0.0514
 1
E2A
 0
TEXT
 8
PARTTEXT
 10
 12.9500
 20
  9.0086
 30
0.0
 40
  0.0514
 1
74ALS1034
 0
LINE
 8
PARTS
 10
 12.6000
 20
  9.3000
 30
0.0
 11
 12.9000
 21
  9.3000
 31
0.0
 0
TEXT
 8
PARTS
 10
 12.8000
 20
  9.3300
 30
0.0
 40
  0.0500
 1
1
 0
LINE
 8
PARTS
 10
 13.6000
 20
  9.3000
 30
0.0
 11
 13.3000
 21
  9.3000
 31
0.0
 0
TEXT
 8
PARTS
 10
 13.3600
 20
  9.3300
 30
0.0
 40
  0.0500
 1
2
 0
POLYLINE
 8
PARTS
 66
1
 10
0.0
 20
0.0
 30
0.0
 0
VERTEX
 8
PARTS
 10
 12.9000
 20
  9.5000
 30
0.0
 0
VERTEX
 8
PARTS
 10
 13.3000
 20
  9.3000
 30
0.0
 0
SEQEND
 8
PARTS
 0
POLYLINE
 8
PARTS
 66
1
 10
0.0
 20
0.0
 30
0.0
 0
VERTEX
 8
PARTS
 10
 13.3000
 20
  9.3000
 30
0.0
 0
VERTEX
 8
PARTS
 10
 12.9000
 20
  9.1000
 30
0.0
 0
SEQEND
 8
PARTS
 0
POLYLINE
 8
PARTS
 66
1
 10
0.0
 20
0.0
 30
0.0
 0
VERTEX
 8
PARTS
 10
 12.9000
 20
  9.1000
 30
0.0
 0
VERTEX
 8
PARTS
 10
 12.9000
 20
  9.5000
 30
0.0
 0
SEQEND
 8
PARTS
 0
TEXT
 8
PARTTEXT
 10
  1.6900
 20
  1.5086
 30
0.0
 40
  0.0514
 1
F3A
 0
TEXT
 8
PARTTEXT
 10
  1.6900
 20
  0.7186
 30
0.0
 40
  0.0514
 1
74F74
 0
LINE
 8
PARTS
 10
  0.7000
 20
  1.3000
 30
0.0
 11
  1.0000
 21
  1.3000
 31
0.0
 0
TEXT
 8
PARTS
 10
  1.0900
 20
  1.2750
 30
0.0
 40
  0.0500
 1
D
 0
TEXT
 8
PARTS
 10
  0.9000
 20
  1.3300
 30
0.0
 40
  0.0500
 1
2
 0
LINE
 8
PARTS
 10
  0.7000
 20
  1.1000
 30
0.0
 11
  1.0000
 21
  1.1000
 31
0.0
 0
LINE
 8
PARTS
 10
  1.0000
 20
  1.1600
 30
0.0
 11
  1.0600
 21
  1.1000
 31
0.0
 0
LINE
 8
PARTS
 10
  1.0600
 20
  1.1000
 30
0.0
 11
  1.0000
 21
  1.0400
 31
0.0
 0
TEXT
 8
PARTS
 10
  1.0900
 20
  1.0750
 30
0.0
 40
  0.0500
 1
CLK
 0
TEXT
 8
PARTS
 10
  0.9000
 20
  1.1300
 30
0.0
 40
  0.0500
 1
3
 0
LINE
 8
PARTS
 10
  1.9000
 20
  1.3000
 30
0.0
 11
  1.6000
 21
  1.3000
 31
0.0
 0
TEXT
 8
PARTS
 10
  1.4700
 20
  1.2750
 30
0.0
 40
  0.0500
 1
Q
 0
TEXT
 8
PARTS
 10
  1.6600
 20
  1.3300
 30
0.0
 40
  0.0500
 1
5
 0
LINE
 8
PARTS
 10
  1.9000
 20
  0.9000
 30
0.0
 11
  1.6000
 21
  0.9000
 31
0.0
 0
TEXT
 8
PARTS
 10
  1.4700
 20
  0.8750
 30
0.0
 40
  0.0500
 1
%%oQ%%o
 0
TEXT
 8
PARTS
 10
  1.6600
 20
  0.9300
 30
0.0
 40
  0.0500
 1
6
 0
CIRCLE
 8
PARTS
 10
  1.3000
 20
  1.4300
 30
0.0
 40
  0.0300
 0
LINE
 8
PARTS
 10
  1.3000
 20
  1.7000
 30
0.0
 11
  1.3000
 21
  1.4600
 31
0.0
 0
TEXT
 8
PARTS
 10
  1.3250
 20
  1.2300
 30
0.0
 40
  0.0500
 50
 90.0000
 1
PR
 0
TEXT
 8
PARTS
 10
  1.2700
 20
  1.4600
 30
0.0
 40
  0.0500
 50
 90.0000
 1
4
 0
CIRCLE
 8
PARTS
 10
  1.3000
 20
  0.7700
 30
0.0
 40
  0.0300
 0
LINE
 8
PARTS
 10
  1.3000
 20
  0.5000
 30
0.0
 11
  1.3000
 21
  0.7400
 31
0.0
 0
TEXT
 8
PARTS
 10
  1.3250
 20
  0.8900
 30
0.0
 40
  0.0500
 50
 90.0000
 1
CL
 0
TEXT
 8
PARTS
 10
  1.2700
 20
  0.6800
 30
0.0
 40
  0.0500
 50
 90.0000
 1
1
 0
POLYLINE
 8
PARTS
 66
1
 70
1
 10
0.0
 20
0.0
 30
0.0
 0
VERTEX
 8
PARTS
 10
  1.0000
 20
  1.4000
 30
0.0
 0
VERTEX
 8
PARTS
 10
  1.6000
 20
  1.4000
 30
0.0
 0
VERTEX
 8
PARTS
 10
  1.6000
 20
  0.8000
 30
0.0
 0
VERTEX
 8
PARTS
 10
  1.0000
 20
  0.8000
 30
0.0
 0
SEQEND
 8
PARTS
 0
TEXT
 8
PARTTEXT
 10
  7.3500
 20
  9.3086
 30
0.0
 40
  0.0514
 1
R3
 0
TEXT
 8
PARTTEXT
 10
  7.3500
 20
  7.8086
 30
0.0
 40
  0.0514
 1
DDSPAL02 22V10
 0
LINE
 8
PARTS
 10
  7.0000
 20
  9.2000
 30
0.0
 11
  7.3000
 21
  9.2000
 31
0.0
 0
TEXT
 8
PARTS
 10
  7.3900
 20
  9.1750
 30
0.0
 40
  0.0500
 1
CLK
 0
TEXT
 8
PARTS
 10
  7.2000
 20
  9.2300
 30
0.0
 40
  0.0500
 1
1
 0
LINE
 8
PARTS
 10
  8.3000
 20
  9.2000
 30
0.0
 11
  8.0000
 21
  9.2000
 31
0.0
 0
TEXT
 8
PARTS
 10
  7.8300
 20
  9.1750
 30
0.0
 40
  0.0500
 1
Q7
 0
TEXT
 8
PARTS
 10
  8.0600
 20
  9.2300
 30
0.0
 40
  0.0500
 1
23
 0
LINE
 8
PARTS
 10
  8.3000
 20
  9.1000
 30
0.0
 11
  8.0000
 21
  9.1000
 31
0.0
 0
TEXT
 8
PARTS
 10
  7.8300
 20
  9.0750
 30
0.0
 40
  0.0500
 1
Q6
 0
TEXT
 8
PARTS
 10
  8.0600
 20
  9.1300
 30
0.0
 40
  0.0500
 1
22
 0
LINE
 8
PARTS
 10
  8.3000
 20
  9.0000
 30
0.0
 11
  8.0000
 21
  9.0000
 31
0.0
 0
TEXT
 8
PARTS
 10
  7.8300
 20
  8.9750
 30
0.0
 40
  0.0500
 1
Q5
 0
TEXT
 8
PARTS
 10
  8.0600
 20
  9.0300
 30
0.0
 40
  0.0500
 1
21
 0
LINE
 8
PARTS
 10
  8.3000
 20
  8.9000
 30
0.0
 11
  8.0000
 21
  8.9000
 31
0.0
 0
TEXT
 8
PARTS
 10
  7.8300
 20
  8.8750
 30
0.0
 40
  0.0500
 1
Q4
 0
TEXT
 8
PARTS
 10
  8.0600
 20
  8.9300
 30
0.0
 40
  0.0500
 1
20
 0
LINE
 8
PARTS
 10
  8.3000
 20
  8.8000
 30
0.0
 11
  8.0000
 21
  8.8000
 31
0.0
 0
TEXT
 8
PARTS
 10
  7.8300
 20
  8.7750
 30
0.0
 40
  0.0500
 1
Q3
 0
TEXT
 8
PARTS
 10
  8.0600
 20
  8.8300
 30
0.0
 40
  0.0500
 1
19
 0
LINE
 8
PARTS
 10
  8.3000
 20
  8.7000
 30
0.0
 11
  8.0000
 21
  8.7000
 31
0.0
 0
TEXT
 8
PARTS
 10
  7.8300
 20
  8.6750
 30
0.0
 40
  0.0500
 1
Q2
 0
TEXT
 8
PARTS
 10
  8.0600
 20
  8.7300
 30
0.0
 40
  0.0500
 1
18
 0
LINE
 8
PARTS
 10
  8.3000
 20
  8.6000
 30
0.0
 11
  8.0000
 21
  8.6000
 31
0.0
 0
TEXT
 8
PARTS
 10
  7.8300
 20
  8.5750
 30
0.0
 40
  0.0500
 1
Q1
 0
TEXT
 8
PARTS
 10
  8.0600
 20
  8.6300
 30
0.0
 40
  0.0500
 1
17
 0
LINE
 8
PARTS
 10
  8.3000
 20
  8.5000
 30
0.0
 11
  8.0000
 21
  8.5000
 31
0.0
 0
TEXT
 8
PARTS
 10
  7.8300
 20
  8.4750
 30
0.0
 40
  0.0500
 1
Q0
 0
TEXT
 8
PARTS
 10
  8.0600
 20
  8.5300
 30
0.0
 40
  0.0500
 1
16
 0
LINE
 8
PARTS
 10
  7.0000
 20
  9.1000
 30
0.0
 11
  7.3000
 21
  9.1000
 31
0.0
 0
TEXT
 8
PARTS
 10
  7.3900
 20
  9.0750
 30
0.0
 40
  0.0500
 1
D0
 0
TEXT
 8
PARTS
 10
  7.2000
 20
  9.1300
 30
0.0
 40
  0.0500
 1
2
 0
LINE
 8
PARTS
 10
  7.0000
 20
  9.0000
 30
0.0
 11
  7.3000
 21
  9.0000
 31
0.0
 0
TEXT
 8
PARTS
 10
  7.3900
 20
  8.9750
 30
0.0
 40
  0.0500
 1
D1
 0
TEXT
 8
PARTS
 10
  7.2000
 20
  9.0300
 30
0.0
 40
  0.0500
 1
3
 0
LINE
 8
PARTS
 10
  7.0000
 20
  8.9000
 30
0.0
 11
  7.3000
 21
  8.9000
 31
0.0
 0
TEXT
 8
PARTS
 10
  7.3900
 20
  8.8750
 30
0.0
 40
  0.0500
 1
D2
 0
TEXT
 8
PARTS
 10
  7.2000
 20
  8.9300
 30
0.0
 40
  0.0500
 1
4
 0
LINE
 8
PARTS
 10
  7.0000
 20
  8.8000
 30
0.0
 11
  7.3000
 21
  8.8000
 31
0.0
 0
TEXT
 8
PARTS
 10
  7.3900
 20
  8.7750
 30
0.0
 40
  0.0500
 1
D3
 0
TEXT
 8
PARTS
 10
  7.2000
 20
  8.8300
 30
0.0
 40
  0.0500
 1
5
 0
LINE
 8
PARTS
 10
  7.0000
 20
  8.7000
 30
0.0
 11
  7.3000
 21
  8.7000
 31
0.0
 0
TEXT
 8
PARTS
 10
  7.3900
 20
  8.6750
 30
0.0
 40
  0.0500
 1
D4
 0
TEXT
 8
PARTS
 10
  7.2000
 20
  8.7300
 30
0.0
 40
  0.0500
 1
6
 0
LINE
 8
PARTS
 10
  7.0000
 20
  8.6000
 30
0.0
 11
  7.3000
 21
  8.6000
 31
0.0
 0
TEXT
 8
PARTS
 10
  7.3900
 20
  8.5750
 30
0.0
 40
  0.0500
 1
D5
 0
TEXT
 8
PARTS
 10
  7.2000
 20
  8.6300
 30
0.0
 40
  0.0500
 1
7
 0
LINE
 8
PARTS
 10
  7.0000
 20
  8.5000
 30
0.0
 11
  7.3000
 21
  8.5000
 31
0.0
 0
TEXT
 8
PARTS
 10
  7.3900
 20
  8.4750
 30
0.0
 40
  0.0500
 1
D6
 0
TEXT
 8
PARTS
 10
  7.2000
 20
  8.5300
 30
0.0
 40
  0.0500
 1
8
 0
LINE
 8
PARTS
 10
  7.0000
 20
  8.4000
 30
0.0
 11
  7.3000
 21
  8.4000
 31
0.0
 0
TEXT
 8
PARTS
 10
  7.3900
 20
  8.3750
 30
0.0
 40
  0.0500
 1
D7
 0
TEXT
 8
PARTS
 10
  7.2000
 20
  8.4300
 30
0.0
 40
  0.0500
 1
9
 0
LINE
 8
PARTS
 10
  8.3000
 20
  8.4000
 30
0.0
 11
  8.0000
 21
  8.4000
 31
0.0
 0
TEXT
 8
PARTS
 10
  7.7900
 20
  8.3750
 30
0.0
 40
  0.0500
 1
RCO
 0
TEXT
 8
PARTS
 10
  8.0600
 20
  8.4300
 30
0.0
 40
  0.0500
 1
15
 0
LINE
 8
PARTS
 10
  7.0000
 20
  8.2000
 30
0.0
 11
  7.3000
 21
  8.2000
 31
0.0
 0
TEXT
 8
PARTS
 10
  7.3900
 20
  8.1750
 30
0.0
 40
  0.0500
 1
ENT
 0
TEXT
 8
PARTS
 10
  7.1600
 20
  8.2300
 30
0.0
 40
  0.0500
 1
11
 0
LINE
 8
PARTS
 10
  7.0000
 20
  8.1000
 30
0.0
 11
  7.3000
 21
  8.1000
 31
0.0
 0
TEXT
 8
PARTS
 10
  7.3900
 20
  8.0750
 30
0.0
 40
  0.0500
 1
ENP
 0
TEXT
 8
PARTS
 10
  7.1600
 20
  8.1300
 30
0.0
 40
  0.0500
 1
13
 0
LINE
 8
PARTS
 10
  7.0000
 20
  8.0000
 30
0.0
 11
  7.3000
 21
  8.0000
 31
0.0
 0
TEXT
 8
PARTS
 10
  7.3900
 20
  7.9750
 30
0.0
 40
  0.0500
 1
%%oCLR%%o
 0
TEXT
 8
PARTS
 10
  7.1600
 20
  8.0300
 30
0.0
 40
  0.0500
 1
14
 0
LINE
 8
PARTS
 10
  7.0000
 20
  8.3000
 30
0.0
 11
  7.3000
 21
  8.3000
 31
0.0
 0
TEXT
 8
PARTS
 10
  7.3900
 20
  8.2750
 30
0.0
 40
  0.0500
 1
LD
 0
TEXT
 8
PARTS
 10
  7.1600
 20
  8.3300
 30
0.0
 40
  0.0500
 1
10
 0
POLYLINE
 8
PARTS
 66
1
 70
1
 10
0.0
 20
0.0
 30
0.0
 0
VERTEX
 8
PARTS
 10
  7.3000
 20
  9.3000
 30
0.0
 0
VERTEX
 8
PARTS
 10
  8.0000
 20
  9.3000
 30
0.0
 0
VERTEX
 8
PARTS
 10
  8.0000
 20
  7.9000
 30
0.0
 0
VERTEX
 8
PARTS
 10
  7.3000
 20
  7.9000
 30
0.0
 0
SEQEND
 8
PARTS
 0
TEXT
 8
PARTTEXT
 10
  7.3500
 20
  7.5086
 30
0.0
 40
  0.0514
 1
N3
 0
TEXT
 8
PARTTEXT
 10
  7.3500
 20
  6.0086
 30
0.0
 40
  0.0514
 1
DDSPAL02 22V10
 0
LINE
 8
PARTS
 10
  7.0000
 20
  7.4000
 30
0.0
 11
  7.3000
 21
  7.4000
 31
0.0
 0
TEXT
 8
PARTS
 10
  7.3900
 20
  7.3750
 30
0.0
 40
  0.0500
 1
CLK
 0
TEXT
 8
PARTS
 10
  7.2000
 20
  7.4300
 30
0.0
 40
  0.0500
 1
1
 0
LINE
 8
PARTS
 10
  8.3000
 20
  7.4000
 30
0.0
 11
  8.0000
 21
  7.4000
 31
0.0
 0
TEXT
 8
PARTS
 10
  7.8300
 20
  7.3750
 30
0.0
 40
  0.0500
 1
Q7
 0
TEXT
 8
PARTS
 10
  8.0600
 20
  7.4300
 30
0.0
 40
  0.0500
 1
23
 0
LINE
 8
PARTS
 10
  8.3000
 20
  7.3000
 30
0.0
 11
  8.0000
 21
  7.3000
 31
0.0
 0
TEXT
 8
PARTS
 10
  7.8300
 20
  7.2750
 30
0.0
 40
  0.0500
 1
Q6
 0
TEXT
 8
PARTS
 10
  8.0600
 20
  7.3300
 30
0.0
 40
  0.0500
 1
22
 0
LINE
 8
PARTS
 10
  8.3000
 20
  7.2000
 30
0.0
 11
  8.0000
 21
  7.2000
 31
0.0
 0
TEXT
 8
PARTS
 10
  7.8300
 20
  7.1750
 30
0.0
 40
  0.0500
 1
Q5
 0
TEXT
 8
PARTS
 10
  8.0600
 20
  7.2300
 30
0.0
 40
  0.0500
 1
21
 0
LINE
 8
PARTS
 10
  8.3000
 20
  7.1000
 30
0.0
 11
  8.0000
 21
  7.1000
 31
0.0
 0
TEXT
 8
PARTS
 10
  7.8300
 20
  7.0750
 30
0.0
 40
  0.0500
 1
Q4
 0
TEXT
 8
PARTS
 10
  8.0600
 20
  7.1300
 30
0.0
 40
  0.0500
 1
20
 0
LINE
 8
PARTS
 10
  8.3000
 20
  7.0000
 30
0.0
 11
  8.0000
 21
  7.0000
 31
0.0
 0
TEXT
 8
PARTS
 10
  7.8300
 20
  6.9750
 30
0.0
 40
  0.0500
 1
Q3
 0
TEXT
 8
PARTS
 10
  8.0600
 20
  7.0300
 30
0.0
 40
  0.0500
 1
19
 0
LINE
 8
PARTS
 10
  8.3000
 20
  6.9000
 30
0.0
 11
  8.0000
 21
  6.9000
 31
0.0
 0
TEXT
 8
PARTS
 10
  7.8300
 20
  6.8750
 30
0.0
 40
  0.0500
 1
Q2
 0
TEXT
 8
PARTS
 10
  8.0600
 20
  6.9300
 30
0.0
 40
  0.0500
 1
18
 0
LINE
 8
PARTS
 10
  8.3000
 20
  6.8000
 30
0.0
 11
  8.0000
 21
  6.8000
 31
0.0
 0
TEXT
 8
PARTS
 10
  7.8300
 20
  6.7750
 30
0.0
 40
  0.0500
 1
Q1
 0
TEXT
 8
PARTS
 10
  8.0600
 20
  6.8300
 30
0.0
 40
  0.0500
 1
17
 0
LINE
 8
PARTS
 10
  8.3000
 20
  6.7000
 30
0.0
 11
  8.0000
 21
  6.7000
 31
0.0
 0
TEXT
 8
PARTS
 10
  7.8300
 20
  6.6750
 30
0.0
 40
  0.0500
 1
Q0
 0
TEXT
 8
PARTS
 10
  8.0600
 20
  6.7300
 30
0.0
 40
  0.0500
 1
16
 0
LINE
 8
PARTS
 10
  7.0000
 20
  7.3000
 30
0.0
 11
  7.3000
 21
  7.3000
 31
0.0
 0
TEXT
 8
PARTS
 10
  7.3900
 20
  7.2750
 30
0.0
 40
  0.0500
 1
D0
 0
TEXT
 8
PARTS
 10
  7.2000
 20
  7.3300
 30
0.0
 40
  0.0500
 1
2
 0
LINE
 8
PARTS
 10
  7.0000
 20
  7.2000
 30
0.0
 11
  7.3000
 21
  7.2000
 31
0.0
 0
TEXT
 8
PARTS
 10
  7.3900
 20
  7.1750
 30
0.0
 40
  0.0500
 1
D1
 0
TEXT
 8
PARTS
 10
  7.2000
 20
  7.2300
 30
0.0
 40
  0.0500
 1
3
 0
LINE
 8
PARTS
 10
  7.0000
 20
  7.1000
 30
0.0
 11
  7.3000
 21
  7.1000
 31
0.0
 0
TEXT
 8
PARTS
 10
  7.3900
 20
  7.0750
 30
0.0
 40
  0.0500
 1
D2
 0
TEXT
 8
PARTS
 10
  7.2000
 20
  7.1300
 30
0.0
 40
  0.0500
 1
4
 0
LINE
 8
PARTS
 10
  7.0000
 20
  7.0000
 30
0.0
 11
  7.3000
 21
  7.0000
 31
0.0
 0
TEXT
 8
PARTS
 10
  7.3900
 20
  6.9750
 30
0.0
 40
  0.0500
 1
D3
 0
TEXT
 8
PARTS
 10
  7.2000
 20
  7.0300
 30
0.0
 40
  0.0500
 1
5
 0
LINE
 8
PARTS
 10
  7.0000
 20
  6.9000
 30
0.0
 11
  7.3000
 21
  6.9000
 31
0.0
 0
TEXT
 8
PARTS
 10
  7.3900
 20
  6.8750
 30
0.0
 40
  0.0500
 1
D4
 0
TEXT
 8
PARTS
 10
  7.2000
 20
  6.9300
 30
0.0
 40
  0.0500
 1
6
 0
LINE
 8
PARTS
 10
  7.0000
 20
  6.8000
 30
0.0
 11
  7.3000
 21
  6.8000
 31
0.0
 0
TEXT
 8
PARTS
 10
  7.3900
 20
  6.7750
 30
0.0
 40
  0.0500
 1
D5
 0
TEXT
 8
PARTS
 10
  7.2000
 20
  6.8300
 30
0.0
 40
  0.0500
 1
7
 0
LINE
 8
PARTS
 10
  7.0000
 20
  6.7000
 30
0.0
 11
  7.3000
 21
  6.7000
 31
0.0
 0
TEXT
 8
PARTS
 10
  7.3900
 20
  6.6750
 30
0.0
 40
  0.0500
 1
D6
 0
TEXT
 8
PARTS
 10
  7.2000
 20
  6.7300
 30
0.0
 40
  0.0500
 1
8
 0
LINE
 8
PARTS
 10
  7.0000
 20
  6.6000
 30
0.0
 11
  7.3000
 21
  6.6000
 31
0.0
 0
TEXT
 8
PARTS
 10
  7.3900
 20
  6.5750
 30
0.0
 40
  0.0500
 1
D7
 0
TEXT
 8
PARTS
 10
  7.2000
 20
  6.6300
 30
0.0
 40
  0.0500
 1
9
 0
LINE
 8
PARTS
 10
  8.3000
 20
  6.6000
 30
0.0
 11
  8.0000
 21
  6.6000
 31
0.0
 0
TEXT
 8
PARTS
 10
  7.7900
 20
  6.5750
 30
0.0
 40
  0.0500
 1
RCO
 0
TEXT
 8
PARTS
 10
  8.0600
 20
  6.6300
 30
0.0
 40
  0.0500
 1
15
 0
LINE
 8
PARTS
 10
  7.0000
 20
  6.4000
 30
0.0
 11
  7.3000
 21
  6.4000
 31
0.0
 0
TEXT
 8
PARTS
 10
  7.3900
 20
  6.3750
 30
0.0
 40
  0.0500
 1
ENT
 0
TEXT
 8
PARTS
 10
  7.1600
 20
  6.4300
 30
0.0
 40
  0.0500
 1
11
 0
LINE
 8
PARTS
 10
  7.0000
 20
  6.3000
 30
0.0
 11
  7.3000
 21
  6.3000
 31
0.0
 0
TEXT
 8
PARTS
 10
  7.3900
 20
  6.2750
 30
0.0
 40
  0.0500
 1
ENP
 0
TEXT
 8
PARTS
 10
  7.1600
 20
  6.3300
 30
0.0
 40
  0.0500
 1
13
 0
LINE
 8
PARTS
 10
  7.0000
 20
  6.2000
 30
0.0
 11
  7.3000
 21
  6.2000
 31
0.0
 0
TEXT
 8
PARTS
 10
  7.3900
 20
  6.1750
 30
0.0
 40
  0.0500
 1
%%oCLR%%o
 0
TEXT
 8
PARTS
 10
  7.1600
 20
  6.2300
 30
0.0
 40
  0.0500
 1
14
 0
LINE
 8
PARTS
 10
  7.0000
 20
  6.5000
 30
0.0
 11
  7.3000
 21
  6.5000
 31
0.0
 0
TEXT
 8
PARTS
 10
  7.3900
 20
  6.4750
 30
0.0
 40
  0.0500
 1
LD
 0
TEXT
 8
PARTS
 10
  7.1600
 20
  6.5300
 30
0.0
 40
  0.0500
 1
10
 0
POLYLINE
 8
PARTS
 66
1
 70
1
 10
0.0
 20
0.0
 30
0.0
 0
VERTEX
 8
PARTS
 10
  7.3000
 20
  7.5000
 30
0.0
 0
VERTEX
 8
PARTS
 10
  8.0000
 20
  7.5000
 30
0.0
 0
VERTEX
 8
PARTS
 10
  8.0000
 20
  6.1000
 30
0.0
 0
VERTEX
 8
PARTS
 10
  7.3000
 20
  6.1000
 30
0.0
 0
SEQEND
 8
PARTS
 0
TEXT
 8
PARTTEXT
 10
 11.7500
 20
  7.3086
 30
0.0
 40
  0.0514
 1
J4B
 0
TEXT
 8
PARTTEXT
 10
 11.7500
 20
  6.8086
 30
0.0
 40
  0.0514
 1
74ALS00
 0
LINE
 8
PARTS
 10
 11.4000
 20
  7.2000
 30
0.0
 11
 11.7000
 21
  7.2000
 31
0.0
 0
TEXT
 8
PARTS
 10
 11.6000
 20
  7.2300
 30
0.0
 40
  0.0500
 1
4
 0
LINE
 8
PARTS
 10
 11.4000
 20
  7.0000
 30
0.0
 11
 11.7000
 21
  7.0000
 31
0.0
 0
TEXT
 8
PARTS
 10
 11.6000
 20
  7.0300
 30
0.0
 40
  0.0500
 1
5
 0
CIRCLE
 8
PARTS
 10
 12.3300
 20
  7.1000
 30
0.0
 40
  0.0300
 0
LINE
 8
PARTS
 10
 12.6000
 20
  7.1000
 30
0.0
 11
 12.3600
 21
  7.1000
 31
0.0
 0
TEXT
 8
PARTS
 10
 12.3600
 20
  7.1300
 30
0.0
 40
  0.0500
 1
6
 0
POLYLINE
 8
PARTS
 66
1
 10
0.0
 20
0.0
 30
0.0
 0
VERTEX
 8
PARTS
 10
 12.1000
 20
  7.3000
 30
0.0
 0
VERTEX
 8
PARTS
 10
 11.7000
 20
  7.3000
 30
0.0
 0
SEQEND
 8
PARTS
 0
POLYLINE
 8
PARTS
 66
1
 10
0.0
 20
0.0
 30
0.0
 0
VERTEX
 8
PARTS
 10
 11.7000
 20
  7.3000
 30
0.0
 0
VERTEX
 8
PARTS
 10
 11.7000
 20
  6.9000
 30
0.0
 0
SEQEND
 8
PARTS
 0
POLYLINE
 8
PARTS
 66
1
 10
0.0
 20
0.0
 30
0.0
 0
VERTEX
 8
PARTS
 10
 11.7000
 20
  6.9000
 30
0.0
 0
VERTEX
 8
PARTS
 10
 12.1000
 20
  6.9000
 30
0.0
 0
SEQEND
 8
PARTS
 0
POLYLINE
 8
PARTS
 66
1
 10
0.0
 20
0.0
 30
0.0
 0
VERTEX
 8
PARTS
 10
 12.3000
 20
  7.1000
 30
0.0
 42
  0.4142
 0
VERTEX
 8
PARTS
 10
 12.1000
 20
  7.3000
 30
0.0
 0
SEQEND
 8
PARTS
 0
POLYLINE
 8
PARTS
 66
1
 10
0.0
 20
0.0
 30
0.0
 0
VERTEX
 8
PARTS
 10
 12.1000
 20
  6.9000
 30
0.0
 42
  0.4142
 0
VERTEX
 8
PARTS
 10
 12.3000
 20
  7.1000
 30
0.0
 0
SEQEND
 8
PARTS
 0
TEXT
 8
PARTTEXT
 10
 10.2500
 20
  7.7086
 30
0.0
 40
  0.0514
 1
J5
 0
TEXT
 8
PARTTEXT
 10
 10.2500
 20
  7.0086
 30
0.0
 40
  0.0514
 1
DS1000-100
 0
LINE
 8
PARTS
 10
  9.9000
 20
  7.6000
 30
0.0
 11
 10.2000
 21
  7.6000
 31
0.0
 0
TEXT
 8
PARTS
 10
 10.2900
 20
  7.5750
 30
0.0
 40
  0.0500
 1
IN
 0
TEXT
 8
PARTS
 10
 10.1000
 20
  7.6300
 30
0.0
 40
  0.0500
 1
1
 0
LINE
 8
PARTS
 10
 11.3000
 20
  7.6000
 30
0.0
 11
 11.0000
 21
  7.6000
 31
0.0
 0
TEXT
 8
PARTS
 10
 10.7500
 20
  7.5750
 30
0.0
 40
  0.0500
 1
TAP1
 0
TEXT
 8
PARTS
 10
 11.0600
 20
  7.6300
 30
0.0
 40
  0.0500
 1
12
 0
LINE
 8
PARTS
 10
 11.3000
 20
  7.5000
 30
0.0
 11
 11.0000
 21
  7.5000
 31
0.0
 0
TEXT
 8
PARTS
 10
 10.7500
 20
  7.4750
 30
0.0
 40
  0.0500
 1
TAP2
 0
TEXT
 8
PARTS
 10
 11.0600
 20
  7.5300
 30
0.0
 40
  0.0500
 1
4
 0
LINE
 8
PARTS
 10
 11.3000
 20
  7.4000
 30
0.0
 11
 11.0000
 21
  7.4000
 31
0.0
 0
TEXT
 8
PARTS
 10
 10.7500
 20
  7.3750
 30
0.0
 40
  0.0500
 1
TAP3
 0
TEXT
 8
PARTS
 10
 11.0600
 20
  7.4300
 30
0.0
 40
  0.0500
 1
10
 0
LINE
 8
PARTS
 10
 11.3000
 20
  7.3000
 30
0.0
 11
 11.0000
 21
  7.3000
 31
0.0
 0
TEXT
 8
PARTS
 10
 10.7500
 20
  7.2750
 30
0.0
 40
  0.0500
 1
TAP4
 0
TEXT
 8
PARTS
 10
 11.0600
 20
  7.3300
 30
0.0
 40
  0.0500
 1
6
 0
LINE
 8
PARTS
 10
 11.3000
 20
  7.2000
 30
0.0
 11
 11.0000
 21
  7.2000
 31
0.0
 0
TEXT
 8
PARTS
 10
 10.7500
 20
  7.1750
 30
0.0
 40
  0.0500
 1
TAP5
 0
TEXT
 8
PARTS
 10
 11.0600
 20
  7.2300
 30
0.0
 40
  0.0500
 1
8
 0
POLYLINE
 8
PARTS
 66
1
 70
1
 10
0.0
 20
0.0
 30
0.0
 0
VERTEX
 8
PARTS
 10
 10.2000
 20
  7.7000
 30
0.0
 0
VERTEX
 8
PARTS
 10
 11.0000
 20
  7.7000
 30
0.0
 0
VERTEX
 8
PARTS
 10
 11.0000
 20
  7.1000
 30
0.0
 0
VERTEX
 8
PARTS
 10
 10.2000
 20
  7.1000
 30
0.0
 0
SEQEND
 8
PARTS
 0
POLYLINE
 8
WIRE
 66
1
 10
0.0
 20
0.0
 30
0.0
 0
VERTEX
 8
WIRE
 10
 12.5000
 20
  9.3000
 30
0.0
 0
VERTEX
 8
WIRE
 10
 12.6000
 20
  9.3000
 30
0.0
 0
SEQEND
 8
WIRE
 0
POLYLINE
 8
WIRE
 66
1
 70
1
 10
0.0
 20
0.0
 30
0.0
 40
  0.0200
 41
  0.0200
 0
VERTEX
 8
WIRE
 10
 12.5900
 20
  9.3000
 30
0.0
 42
1.0
 0
VERTEX
 8
WIRE
 10
 12.6100
 20
  9.3000
 30
0.0
 42
1.0
 0
SEQEND
 8
WIRE
 0
POLYLINE
 8
WIRE
 66
1
 10
0.0
 20
0.0
 30
0.0
 0
VERTEX
 8
WIRE
 10
 13.6000
 20
  9.3000
 30
0.0
 0
VERTEX
 8
WIRE
 10
 14.1000
 20
  9.3000
 30
0.0
 0
SEQEND
 8
WIRE
 0
TEXT
 8
WIRETEXT
 10
 13.6000
 20
  9.3300
 30
0.0
 40
  0.0514
 1
SysClk
 0
POLYLINE
 8
WIRE
 66
1
 10
0.0
 20
0.0
 30
0.0
 0
VERTEX
 8
WIRE
 10
  5.7000
 20
  9.2000
 30
0.0
 0
VERTEX
 8
WIRE
 10
  6.4000
 20
  9.2000
 30
0.0
 0
SEQEND
 8
WIRE
 0
TEXT
 8
WIRETEXT
 10
  5.7000
 20
  9.2300
 30
0.0
 40
  0.0514
 1
SysClk1
 0
POLYLINE
 8
WIRE
 66
1
 10
0.0
 20
0.0
 30
0.0
 0
VERTEX
 8
WIRE
 10
  4.0000
 20
  9.1000
 30
0.0
 0
VERTEX
 8
WIRE
 10
  4.4000
 20
  9.1000
 30
0.0
 0
SEQEND
 8
WIRE
 0
TEXT
 8
WIRETEXT
 10
  4.1000
 20
  9.1300
 30
0.0
 40
  0.0514
 1
D0
 0
POLYLINE
 8
WIRE
 66
1
 10
0.0
 20
0.0
 30
0.0
 0
VERTEX
 8
WIRE
 10
  5.6000
 20
  9.1000
 30
0.0
 0
VERTEX
 8
WIRE
 10
  7.0000
 20
  9.1000
 30
0.0
 0
SEQEND
 8
WIRE
 0
POLYLINE
 8
WIRE
 66
1
 10
0.0
 20
0.0
 30
0.0
 0
VERTEX
 8
WIRE
 10
  4.0000
 20
  9.0000
 30
0.0
 0
VERTEX
 8
WIRE
 10
  4.4000
 20
  9.0000
 30
0.0
 0
SEQEND
 8
WIRE
 0
TEXT
 8
WIRETEXT
 10
  4.1000
 20
  9.0300
 30
0.0
 40
  0.0514
 1
D1
 0
POLYLINE
 8
WIRE
 66
1
 10
0.0
 20
0.0
 30
0.0
 0
VERTEX
 8
WIRE
 10
  5.6000
 20
  9.0000
 30
0.0
 0
VERTEX
 8
WIRE
 10
  7.0000
 20
  9.0000
 30
0.0
 0
SEQEND
 8
WIRE
 0
POLYLINE
 8
WIRE
 66
1
 10
0.0
 20
0.0
 30
0.0
 0
VERTEX
 8
WIRE
 10
  4.0000
 20
  8.9000
 30
0.0
 0
VERTEX
 8
WIRE
 10
  4.4000
 20
  8.9000
 30
0.0
 0
SEQEND
 8
WIRE
 0
TEXT
 8
WIRETEXT
 10
  4.1000
 20
  8.9300
 30
0.0
 40
  0.0514
 1
D2
 0
POLYLINE
 8
WIRE
 66
1
 10
0.0
 20
0.0
 30
0.0
 0
VERTEX
 8
WIRE
 10
  5.6000
 20
  8.9000
 30
0.0
 0
VERTEX
 8
WIRE
 10
  7.0000
 20
  8.9000
 30
0.0
 0
SEQEND
 8
WIRE
 0
POLYLINE
 8
WIRE
 66
1
 10
0.0
 20
0.0
 30
0.0
 0
VERTEX
 8
WIRE
 10
  4.0000
 20
  8.8000
 30
0.0
 0
VERTEX
 8
WIRE
 10
  4.4000
 20
  8.8000
 30
0.0
 0
SEQEND
 8
WIRE
 0
TEXT
 8
WIRETEXT
 10
  4.1000
 20
  8.8300
 30
0.0
 40
  0.0514
 1
D3
 0
POLYLINE
 8
WIRE
 66
1
 10
0.0
 20
0.0
 30
0.0
 0
VERTEX
 8
WIRE
 10
  5.6000
 20
  8.8000
 30
0.0
 0
VERTEX
 8
WIRE
 10
  7.0000
 20
  8.8000
 30
0.0
 0
SEQEND
 8
WIRE
 0
POLYLINE
 8
WIRE
 66
1
 10
0.0
 20
0.0
 30
0.0
 0
VERTEX
 8
WIRE
 10
  4.0000
 20
  8.7000
 30
0.0
 0
VERTEX
 8
WIRE
 10
  4.4000
 20
  8.7000
 30
0.0
 0
SEQEND
 8
WIRE
 0
TEXT
 8
WIRETEXT
 10
  4.1000
 20
  8.7300
 30
0.0
 40
  0.0514
 1
D4
 0
POLYLINE
 8
WIRE
 66
1
 10
0.0
 20
0.0
 30
0.0
 0
VERTEX
 8
WIRE
 10
  5.6000
 20
  8.7000
 30
0.0
 0
VERTEX
 8
WIRE
 10
  7.0000
 20
  8.7000
 30
0.0
 0
SEQEND
 8
WIRE
 0
POLYLINE
 8
WIRE
 66
1
 10
0.0
 20
0.0
 30
0.0
 0
VERTEX
 8
WIRE
 10
  4.0000
 20
  8.6000
 30
0.0
 0
VERTEX
 8
WIRE
 10
  4.4000
 20
  8.6000
 30
0.0
 0
SEQEND
 8
WIRE
 0
TEXT
 8
WIRETEXT
 10
  4.1000
 20
  8.6300
 30
0.0
 40
  0.0514
 1
D5
 0
POLYLINE
 8
WIRE
 66
1
 10
0.0
 20
0.0
 30
0.0
 0
VERTEX
 8
WIRE
 10
  5.6000
 20
  8.6000
 30
0.0
 0
VERTEX
 8
WIRE
 10
  7.0000
 20
  8.6000
 30
0.0
 0
SEQEND
 8
WIRE
 0
POLYLINE
 8
WIRE
 66
1
 10
0.0
 20
0.0
 30
0.0
 0
VERTEX
 8
WIRE
 10
 13.6000
 20
  8.6000
 30
0.0
 0
VERTEX
 8
WIRE
 10
 14.1000
 20
  8.6000
 30
0.0
 0
SEQEND
 8
WIRE
 0
TEXT
 8
WIRETEXT
 10
 13.6000
 20
  8.6300
 30
0.0
 40
  0.0514
 1
SysClk1
 0
POLYLINE
 8
WIRE
 66
1
 10
0.0
 20
0.0
 30
0.0
 0
VERTEX
 8
WIRE
 10
  4.0000
 20
  8.5000
 30
0.0
 0
VERTEX
 8
WIRE
 10
  4.4000
 20
  8.5000
 30
0.0
 0
SEQEND
 8
WIRE
 0
TEXT
 8
WIRETEXT
 10
  4.1000
 20
  8.5300
 30
0.0
 40
  0.0514
 1
D6
 0
POLYLINE
 8
WIRE
 66
1
 10
0.0
 20
0.0
 30
0.0
 0
VERTEX
 8
WIRE
 10
  5.6000
 20
  8.5000
 30
0.0
 0
VERTEX
 8
WIRE
 10
  7.0000
 20
  8.5000
 30
0.0
 0
SEQEND
 8
WIRE
 0
POLYLINE
 8
WIRE
 66
1
 10
0.0
 20
0.0
 30
0.0
 0
VERTEX
 8
WIRE
 10
  4.0000
 20
  8.4000
 30
0.0
 0
VERTEX
 8
WIRE
 10
  4.4000
 20
  8.4000
 30
0.0
 0
SEQEND
 8
WIRE
 0
TEXT
 8
WIRETEXT
 10
  4.1000
 20
  8.4300
 30
0.0
 40
  0.0514
 1
D7
 0
POLYLINE
 8
WIRE
 66
1
 10
0.0
 20
0.0
 30
0.0
 0
VERTEX
 8
WIRE
 10
  5.6000
 20
  8.4000
 30
0.0
 0
VERTEX
 8
WIRE
 10
  7.0000
 20
  8.4000
 30
0.0
 0
SEQEND
 8
WIRE
 0
POLYLINE
 8
WIRE
 66
1
 10
0.0
 20
0.0
 30
0.0
 0
VERTEX
 8
WIRE
 10
  8.3000
 20
  8.4000
 30
0.0
 0
VERTEX
 8
WIRE
 10
  8.6000
 20
  8.4000
 30
0.0
 0
SEQEND
 8
WIRE
 0
POLYLINE
 8
WIRE
 66
1
 10
0.0
 20
0.0
 30
0.0
 0
VERTEX
 8
WIRE
 10
  6.6000
 20
  8.3000
 30
0.0
 0
VERTEX
 8
WIRE
 10
  7.0000
 20
  8.3000
 30
0.0
 0
SEQEND
 8
WIRE
 0
POLYLINE
 8
WIRE
 66
1
 10
0.0
 20
0.0
 30
0.0
 0
VERTEX
 8
WIRE
 10
  3.6000
 20
  8.2000
 30
0.0
 0
VERTEX
 8
WIRE
 10
  3.8000
 20
  8.2000
 30
0.0
 0
SEQEND
 8
WIRE
 0
POLYLINE
 8
WIRE
 66
1
 10
0.0
 20
0.0
 30
0.0
 0
VERTEX
 8
WIRE
 10
  6.8000
 20
  8.2000
 30
0.0
 0
VERTEX
 8
WIRE
 10
  7.0000
 20
  8.2000
 30
0.0
 0
SEQEND
 8
WIRE
 0
TEXT
 8
WIRETEXT
 10
  6.8000
 20
  8.2300
 30
0.0
 40
  0.0514
 1
PU
 0
POLYLINE
 8
WIRE
 66
1
 10
0.0
 20
0.0
 30
0.0
 0
VERTEX
 8
WIRE
 10
  1.1000
 20
  8.1000
 30
0.0
 0
VERTEX
 8
WIRE
 10
  1.5000
 20
  8.1000
 30
0.0
 0
SEQEND
 8
WIRE
 0
TEXT
 8
WIRETEXT
 10
  1.2000
 20
  8.1300
 30
0.0
 40
  0.0514
 1
D8
 0
POLYLINE
 8
WIRE
 66
1
 10
0.0
 20
0.0
 30
0.0
 0
VERTEX
 8
WIRE
 10
  2.8000
 20
  8.1000
 30
0.0
 0
VERTEX
 8
WIRE
 10
  4.4000
 20
  8.1000
 30
0.0
 0
SEQEND
 8
WIRE
 0
POLYLINE
 8
WIRE
 66
1
 10
0.0
 20
0.0
 30
0.0
 0
VERTEX
 8
WIRE
 10
  6.8000
 20
  8.1000
 30
0.0
 0
VERTEX
 8
WIRE
 10
  7.0000
 20
  8.1000
 30
0.0
 0
SEQEND
 8
WIRE
 0
TEXT
 8
WIRETEXT
 10
  6.8000
 20
  8.1300
 30
0.0
 40
  0.0514
 1
PU
 0
POLYLINE
 8
WIRE
 66
1
 10
0.0
 20
0.0
 30
0.0
 0
VERTEX
 8
WIRE
 10
  1.1000
 20
  8.0000
 30
0.0
 0
VERTEX
 8
WIRE
 10
  1.5000
 20
  8.0000
 30
0.0
 0
SEQEND
 8
WIRE
 0
TEXT
 8
WIRETEXT
 10
  1.2000
 20
  8.0300
 30
0.0
 40
  0.0514
 1
D9
 0
POLYLINE
 8
WIRE
 66
1
 10
0.0
 20
0.0
 30
0.0
 0
VERTEX
 8
WIRE
 10
  2.8000
 20
  8.0000
 30
0.0
 0
VERTEX
 8
WIRE
 10
  3.7000
 20
  8.0000
 30
0.0
 0
SEQEND
 8
WIRE
 0
POLYLINE
 8
WIRE
 66
1
 10
0.0
 20
0.0
 30
0.0
 0
VERTEX
 8
WIRE
 10
  6.5000
 20
  8.0000
 30
0.0
 0
VERTEX
 8
WIRE
 10
  7.0000
 20
  8.0000
 30
0.0
 0
SEQEND
 8
WIRE
 0
POLYLINE
 8
WIRE
 66
1
 10
0.0
 20
0.0
 30
0.0
 0
VERTEX
 8
WIRE
 10
  2.8000
 20
  7.9000
 30
0.0
 0
VERTEX
 8
WIRE
 10
  3.6000
 20
  7.9000
 30
0.0
 0
SEQEND
 8
WIRE
 0
POLYLINE
 8
WIRE
 66
1
 10
0.0
 20
0.0
 30
0.0
 0
VERTEX
 8
WIRE
 10
  9.9000
 20
  7.9000
 30
0.0
 0
VERTEX
 8
WIRE
 10
 12.6000
 20
  7.9000
 30
0.0
 0
SEQEND
 8
WIRE
 0
POLYLINE
 8
WIRE
 66
1
 10
0.0
 20
0.0
 30
0.0
 0
VERTEX
 8
WIRE
 10
  2.8000
 20
  7.8000
 30
0.0
 0
VERTEX
 8
WIRE
 10
  3.5000
 20
  7.8000
 30
0.0
 0
SEQEND
 8
WIRE
 0
POLYLINE
 8
WIRE
 66
1
 10
0.0
 20
0.0
 30
0.0
 0
VERTEX
 8
WIRE
 10
  6.7000
 20
  7.7000
 30
0.0
 0
VERTEX
 8
WIRE
 10
  8.6000
 20
  7.7000
 30
0.0
 0
SEQEND
 8
WIRE
 0
POLYLINE
 8
WIRE
 66
1
 10
0.0
 20
0.0
 30
0.0
 0
VERTEX
 8
WIRE
 10
 13.8000
 20
  7.7000
 30
0.0
 0
VERTEX
 8
WIRE
 10
 13.9000
 20
  7.7000
 30
0.0
 0
SEQEND
 8
WIRE
 0
POLYLINE
 8
WIRE
 66
1
 10
0.0
 20
0.0
 30
0.0
 0
VERTEX
 8
WIRE
 10
  1.1000
 20
  7.6000
 30
0.0
 0
VERTEX
 8
WIRE
 10
  1.5000
 20
  7.6000
 30
0.0
 0
SEQEND
 8
WIRE
 0
TEXT
 8
WIRETEXT
 10
  1.2000
 20
  7.6300
 30
0.0
 40
  0.0514
 1
D15
 0
POLYLINE
 8
WIRE
 66
1
 10
0.0
 20
0.0
 30
0.0
 0
VERTEX
 8
WIRE
 10
  1.1000
 20
  7.5000
 30
0.0
 0
VERTEX
 8
WIRE
 10
  1.5000
 20
  7.5000
 30
0.0
 0
SEQEND
 8
WIRE
 0
TEXT
 8
WIRETEXT
 10
  1.2000
 20
  7.5300
 30
0.0
 40
  0.0514
 1
D14
 0
POLYLINE
 8
WIRE
 66
1
 10
0.0
 20
0.0
 30
0.0
 0
VERTEX
 8
WIRE
 10
  1.1000
 20
  7.4000
 30
0.0
 0
VERTEX
 8
WIRE
 10
  1.5000
 20
  7.4000
 30
0.0
 0
SEQEND
 8
WIRE
 0
TEXT
 8
WIRETEXT
 10
  1.2000
 20
  7.4300
 30
0.0
 40
  0.0514
 1
D13
 0
POLYLINE
 8
WIRE
 66
1
 10
0.0
 20
0.0
 30
0.0
 0
VERTEX
 8
WIRE
 10
  6.4000
 20
  7.4000
 30
0.0
 0
VERTEX
 8
WIRE
 10
  7.0000
 20
  7.4000
 30
0.0
 0
SEQEND
 8
WIRE
 0
POLYLINE
 8
WIRE
 66
1
 10
0.0
 20
0.0
 30
0.0
 0
VERTEX
 8
WIRE
 10
  4.0000
 20
  7.3000
 30
0.0
 0
VERTEX
 8
WIRE
 10
  4.4000
 20
  7.3000
 30
0.0
 0
SEQEND
 8
WIRE
 0
TEXT
 8
WIRETEXT
 10
  4.1000
 20
  7.3300
 30
0.0
 40
  0.0514
 1
D0
 0
POLYLINE
 8
WIRE
 66
1
 10
0.0
 20
0.0
 30
0.0
 0
VERTEX
 8
WIRE
 10
  5.6000
 20
  7.3000
 30
0.0
 0
VERTEX
 8
WIRE
 10
  7.0000
 20
  7.3000
 30
0.0
 0
SEQEND
 8
WIRE
 0
POLYLINE
 8
WIRE
 66
1
 10
0.0
 20
0.0
 30
0.0
 0
VERTEX
 8
WIRE
 10
  4.0000
 20
  7.2000
 30
0.0
 0
VERTEX
 8
WIRE
 10
  4.4000
 20
  7.2000
 30
0.0
 0
SEQEND
 8
WIRE
 0
TEXT
 8
WIRETEXT
 10
  4.1000
 20
  7.2300
 30
0.0
 40
  0.0514
 1
D1
 0
POLYLINE
 8
WIRE
 66
1
 10
0.0
 20
0.0
 30
0.0
 0
VERTEX
 8
WIRE
 10
  5.6000
 20
  7.2000
 30
0.0
 0
VERTEX
 8
WIRE
 10
  7.0000
 20
  7.2000
 30
0.0
 0
SEQEND
 8
WIRE
 0
POLYLINE
 8
WIRE
 66
1
 10
0.0
 20
0.0
 30
0.0
 0
VERTEX
 8
WIRE
 10
 11.3000
 20
  7.2000
 30
0.0
 0
VERTEX
 8
WIRE
 10
 11.4000
 20
  7.2000
 30
0.0
 0
SEQEND
 8
WIRE
 0
POLYLINE
 8
WIRE
 66
1
 70
1
 10
0.0
 20
0.0
 30
0.0
 40
  0.0200
 41
  0.0200
 0
VERTEX
 8
WIRE
 10
 11.3900
 20
  7.2000
 30
0.0
 42
1.0
 0
VERTEX
 8
WIRE
 10
 11.4100
 20
  7.2000
 30
0.0
 42
1.0
 0
SEQEND
 8
WIRE
 0
POLYLINE
 8
WIRE
 66
1
 10
0.0
 20
0.0
 30
0.0
 0
VERTEX
 8
WIRE
 10
  4.0000
 20
  7.1000
 30
0.0
 0
VERTEX
 8
WIRE
 10
  4.4000
 20
  7.1000
 30
0.0
 0
SEQEND
 8
WIRE
 0
TEXT
 8
WIRETEXT
 10
  4.1000
 20
  7.1300
 30
0.0
 40
  0.0514
 1
D2
 0
POLYLINE
 8
WIRE
 66
1
 10
0.0
 20
0.0
 30
0.0
 0
VERTEX
 8
WIRE
 10
  5.6000
 20
  7.1000
 30
0.0
 0
VERTEX
 8
WIRE
 10
  7.0000
 20
  7.1000
 30
0.0
 0
SEQEND
 8
WIRE
 0
POLYLINE
 8
WIRE
 66
1
 10
0.0
 20
0.0
 30
0.0
 0
VERTEX
 8
WIRE
 10
  4.0000
 20
  7.0000
 30
0.0
 0
VERTEX
 8
WIRE
 10
  4.4000
 20
  7.0000
 30
0.0
 0
SEQEND
 8
WIRE
 0
TEXT
 8
WIRETEXT
 10
  4.1000
 20
  7.0300
 30
0.0
 40
  0.0514
 1
D3
 0
POLYLINE
 8
WIRE
 66
1
 10
0.0
 20
0.0
 30
0.0
 0
VERTEX
 8
WIRE
 10
  5.6000
 20
  7.0000
 30
0.0
 0
VERTEX
 8
WIRE
 10
  7.0000
 20
  7.0000
 30
0.0
 0
SEQEND
 8
WIRE
 0
POLYLINE
 8
WIRE
 66
1
 10
0.0
 20
0.0
 30
0.0
 0
VERTEX
 8
WIRE
 10
  4.0000
 20
  6.9000
 30
0.0
 0
VERTEX
 8
WIRE
 10
  4.4000
 20
  6.9000
 30
0.0
 0
SEQEND
 8
WIRE
 0
TEXT
 8
WIRETEXT
 10
  4.1000
 20
  6.9300
 30
0.0
 40
  0.0514
 1
D4
 0
POLYLINE
 8
WIRE
 66
1
 10
0.0
 20
0.0
 30
0.0
 0
VERTEX
 8
WIRE
 10
  5.6000
 20
  6.9000
 30
0.0
 0
VERTEX
 8
WIRE
 10
  7.0000
 20
  6.9000
 30
0.0
 0
SEQEND
 8
WIRE
 0
POLYLINE
 8
WIRE
 66
1
 10
0.0
 20
0.0
 30
0.0
 0
VERTEX
 8
WIRE
 10
  4.0000
 20
  6.8000
 30
0.0
 0
VERTEX
 8
WIRE
 10
  4.4000
 20
  6.8000
 30
0.0
 0
SEQEND
 8
WIRE
 0
TEXT
 8
WIRETEXT
 10
  4.1000
 20
  6.8300
 30
0.0
 40
  0.0514
 1
D5
 0
POLYLINE
 8
WIRE
 66
1
 10
0.0
 20
0.0
 30
0.0
 0
VERTEX
 8
WIRE
 10
  5.6000
 20
  6.8000
 30
0.0
 0
VERTEX
 8
WIRE
 10
  7.0000
 20
  6.8000
 30
0.0
 0
SEQEND
 8
WIRE
 0
POLYLINE
 8
WIRE
 66
1
 10
0.0
 20
0.0
 30
0.0
 0
VERTEX
 8
WIRE
 10
  4.0000
 20
  6.7000
 30
0.0
 0
VERTEX
 8
WIRE
 10
  4.4000
 20
  6.7000
 30
0.0
 0
SEQEND
 8
WIRE
 0
TEXT
 8
WIRETEXT
 10
  4.1000
 20
  6.7300
 30
0.0
 40
  0.0514
 1
D6
 0
POLYLINE
 8
WIRE
 66
1
 10
0.0
 20
0.0
 30
0.0
 0
VERTEX
 8
WIRE
 10
  5.6000
 20
  6.7000
 30
0.0
 0
VERTEX
 8
WIRE
 10
  7.0000
 20
  6.7000
 30
0.0
 0
SEQEND
 8
WIRE
 0
POLYLINE
 8
WIRE
 66
1
 10
0.0
 20
0.0
 30
0.0
 0
VERTEX
 8
WIRE
 10
  4.0000
 20
  6.6000
 30
0.0
 0
VERTEX
 8
WIRE
 10
  4.4000
 20
  6.6000
 30
0.0
 0
SEQEND
 8
WIRE
 0
TEXT
 8
WIRETEXT
 10
  4.1000
 20
  6.6300
 30
0.0
 40
  0.0514
 1
D7
 0
POLYLINE
 8
WIRE
 66
1
 10
0.0
 20
0.0
 30
0.0
 0
VERTEX
 8
WIRE
 10
  5.6000
 20
  6.6000
 30
0.0
 0
VERTEX
 8
WIRE
 10
  7.0000
 20
  6.6000
 30
0.0
 0
SEQEND
 8
WIRE
 0
POLYLINE
 8
WIRE
 66
1
 10
0.0
 20
0.0
 30
0.0
 0
VERTEX
 8
WIRE
 10
  8.3000
 20
  6.6000
 30
0.0
 0
VERTEX
 8
WIRE
 10
  8.7000
 20
  6.6000
 30
0.0
 0
SEQEND
 8
WIRE
 0
POLYLINE
 8
WIRE
 66
1
 10
0.0
 20
0.0
 30
0.0
 0
VERTEX
 8
WIRE
 10
 10.2000
 20
  6.6000
 30
0.0
 0
VERTEX
 8
WIRE
 10
 12.6000
 20
  6.6000
 30
0.0
 0
SEQEND
 8
WIRE
 0
POLYLINE
 8
WIRE
 66
1
 10
0.0
 20
0.0
 30
0.0
 0
VERTEX
 8
WIRE
 10
  6.6000
 20
  6.5000
 30
0.0
 0
VERTEX
 8
WIRE
 10
  7.0000
 20
  6.5000
 30
0.0
 0
SEQEND
 8
WIRE
 0
POLYLINE
 8
WIRE
 66
1
 10
0.0
 20
0.0
 30
0.0
 0
VERTEX
 8
WIRE
 10
 13.8000
 20
  6.5000
 30
0.0
 0
VERTEX
 8
WIRE
 10
 13.9000
 20
  6.5000
 30
0.0
 0
SEQEND
 8
WIRE
 0
POLYLINE
 8
WIRE
 66
1
 10
0.0
 20
0.0
 30
0.0
 0
VERTEX
 8
WIRE
 10
  3.8000
 20
  6.4000
 30
0.0
 0
VERTEX
 8
WIRE
 10
  4.4000
 20
  6.4000
 30
0.0
 0
SEQEND
 8
WIRE
 0
POLYLINE
 8
WIRE
 66
1
 10
0.0
 20
0.0
 30
0.0
 0
VERTEX
 8
WIRE
 10
  6.8000
 20
  6.4000
 30
0.0
 0
VERTEX
 8
WIRE
 10
  7.0000
 20
  6.4000
 30
0.0
 0
SEQEND
 8
WIRE
 0
TEXT
 8
WIRETEXT
 10
  6.8000
 20
  6.4300
 30
0.0
 40
  0.0514
 1
PU
 0
POLYLINE
 8
WIRE
 66
1
 10
0.0
 20
0.0
 30
0.0
 0
VERTEX
 8
WIRE
 10
  3.7000
 20
  6.3000
 30
0.0
 0
VERTEX
 8
WIRE
 10
  4.4000
 20
  6.3000
 30
0.0
 0
SEQEND
 8
WIRE
 0
POLYLINE
 8
WIRE
 66
1
 10
0.0
 20
0.0
 30
0.0
 0
VERTEX
 8
WIRE
 10
  6.7000
 20
  6.3000
 30
0.0
 0
VERTEX
 8
WIRE
 10
  7.0000
 20
  6.3000
 30
0.0
 0
SEQEND
 8
WIRE
 0
POLYLINE
 8
WIRE
 66
1
 10
0.0
 20
0.0
 30
0.0
 0
VERTEX
 8
WIRE
 10
  6.5000
 20
  6.2000
 30
0.0
 0
VERTEX
 8
WIRE
 10
  7.0000
 20
  6.2000
 30
0.0
 0
SEQEND
 8
WIRE
 0
POLYLINE
 8
WIRE
 66
1
 10
0.0
 20
0.0
 30
0.0
 0
VERTEX
 8
WIRE
 10
  6.8000
 20
  5.9000
 30
0.0
 0
VERTEX
 8
WIRE
 10
  8.7000
 20
  5.9000
 30
0.0
 0
SEQEND
 8
WIRE
 0
POLYLINE
 8
WIRE
 66
1
 10
0.0
 20
0.0
 30
0.0
 0
VERTEX
 8
WIRE
 10
  6.4000
 20
  5.6000
 30
0.0
 0
VERTEX
 8
WIRE
 10
  7.0000
 20
  5.6000
 30
0.0
 0
SEQEND
 8
WIRE
 0
POLYLINE
 8
WIRE
 66
1
 10
0.0
 20
0.0
 30
0.0
 0
VERTEX
 8
WIRE
 10
 10.2000
 20
  5.6000
 30
0.0
 0
VERTEX
 8
WIRE
 10
 12.1000
 20
  5.6000
 30
0.0
 0
SEQEND
 8
WIRE
 0
POLYLINE
 8
WIRE
 66
1
 10
0.0
 20
0.0
 30
0.0
 0
VERTEX
 8
WIRE
 10
  4.0000
 20
  5.5000
 30
0.0
 0
VERTEX
 8
WIRE
 10
  4.4000
 20
  5.5000
 30
0.0
 0
SEQEND
 8
WIRE
 0
TEXT
 8
WIRETEXT
 10
  4.1000
 20
  5.5300
 30
0.0
 40
  0.0514
 1
D0
 0
POLYLINE
 8
WIRE
 66
1
 10
0.0
 20
0.0
 30
0.0
 0
VERTEX
 8
WIRE
 10
  5.6000
 20
  5.5000
 30
0.0
 0
VERTEX
 8
WIRE
 10
  7.0000
 20
  5.5000
 30
0.0
 0
SEQEND
 8
WIRE
 0
POLYLINE
 8
WIRE
 66
1
 10
0.0
 20
0.0
 30
0.0
 0
VERTEX
 8
WIRE
 10
  9.9000
 20
  5.5000
 30
0.0
 0
VERTEX
 8
WIRE
 10
 12.0000
 20
  5.5000
 30
0.0
 0
SEQEND
 8
WIRE
 0
POLYLINE
 8
WIRE
 66
1
 10
0.0
 20
0.0
 30
0.0
 0
VERTEX
 8
WIRE
 10
  4.0000
 20
  5.4000
 30
0.0
 0
VERTEX
 8
WIRE
 10
  4.4000
 20
  5.4000
 30
0.0
 0
SEQEND
 8
WIRE
 0
TEXT
 8
WIRETEXT
 10
  4.1000
 20
  5.4300
 30
0.0
 40
  0.0514
 1
D1
 0
POLYLINE
 8
WIRE
 66
1
 10
0.0
 20
0.0
 30
0.0
 0
VERTEX
 8
WIRE
 10
  5.6000
 20
  5.4000
 30
0.0
 0
VERTEX
 8
WIRE
 10
  7.0000
 20
  5.4000
 30
0.0
 0
SEQEND
 8
WIRE
 0
POLYLINE
 8
WIRE
 66
1
 10
0.0
 20
0.0
 30
0.0
 0
VERTEX
 8
WIRE
 10
  4.0000
 20
  5.3000
 30
0.0
 0
VERTEX
 8
WIRE
 10
  4.4000
 20
  5.3000
 30
0.0
 0
SEQEND
 8
WIRE
 0
TEXT
 8
WIRETEXT
 10
  4.1000
 20
  5.3300
 30
0.0
 40
  0.0514
 1
D2
 0
POLYLINE
 8
WIRE
 66
1
 10
0.0
 20
0.0
 30
0.0
 0
VERTEX
 8
WIRE
 10
  5.6000
 20
  5.3000
 30
0.0
 0
VERTEX
 8
WIRE
 10
  7.0000
 20
  5.3000
 30
0.0
 0
SEQEND
 8
WIRE
 0
POLYLINE
 8
WIRE
 66
1
 10
0.0
 20
0.0
 30
0.0
 0
VERTEX
 8
WIRE
 10
 10.1000
 20
  5.3000
 30
0.0
 0
VERTEX
 8
WIRE
 10
 10.2000
 20
  5.3000
 30
0.0
 0
SEQEND
 8
WIRE
 0
POLYLINE
 8
WIRE
 66
1
 10
0.0
 20
0.0
 30
0.0
 0
VERTEX
 8
WIRE
 10
  4.0000
 20
  5.2000
 30
0.0
 0
VERTEX
 8
WIRE
 10
  4.4000
 20
  5.2000
 30
0.0
 0
SEQEND
 8
WIRE
 0
TEXT
 8
WIRETEXT
 10
  4.1000
 20
  5.2300
 30
0.0
 40
  0.0514
 1
D3
 0
POLYLINE
 8
WIRE
 66
1
 10
0.0
 20
0.0
 30
0.0
 0
VERTEX
 8
WIRE
 10
  5.6000
 20
  5.2000
 30
0.0
 0
VERTEX
 8
WIRE
 10
  7.0000
 20
  5.2000
 30
0.0
 0
SEQEND
 8
WIRE
 0
POLYLINE
 8
WIRE
 66
1
 10
0.0
 20
0.0
 30
0.0
 0
VERTEX
 8
WIRE
 10
  4.0000
 20
  5.1000
 30
0.0
 0
VERTEX
 8
WIRE
 10
  4.4000
 20
  5.1000
 30
0.0
 0
SEQEND
 8
WIRE
 0
TEXT
 8
WIRETEXT
 10
  4.1000
 20
  5.1300
 30
0.0
 40
  0.0514
 1
D4
 0
POLYLINE
 8
WIRE
 66
1
 10
0.0
 20
0.0
 30
0.0
 0
VERTEX
 8
WIRE
 10
  5.6000
 20
  5.1000
 30
0.0
 0
VERTEX
 8
WIRE
 10
  7.0000
 20
  5.1000
 30
0.0
 0
SEQEND
 8
WIRE
 0
POLYLINE
 8
WIRE
 66
1
 10
0.0
 20
0.0
 30
0.0
 0
VERTEX
 8
WIRE
 10
  4.0000
 20
  5.0000
 30
0.0
 0
VERTEX
 8
WIRE
 10
  4.4000
 20
  5.0000
 30
0.0
 0
SEQEND
 8
WIRE
 0
TEXT
 8
WIRETEXT
 10
  4.1000
 20
  5.0300
 30
0.0
 40
  0.0514
 1
D5
 0
POLYLINE
 8
WIRE
 66
1
 10
0.0
 20
0.0
 30
0.0
 0
VERTEX
 8
WIRE
 10
  5.6000
 20
  5.0000
 30
0.0
 0
VERTEX
 8
WIRE
 10
  7.0000
 20
  5.0000
 30
0.0
 0
SEQEND
 8
WIRE
 0
POLYLINE
 8
WIRE
 66
1
 10
0.0
 20
0.0
 30
0.0
 0
VERTEX
 8
WIRE
 10
  9.4000
 20
  5.0000
 30
0.0
 0
VERTEX
 8
WIRE
 10
 10.2000
 20
  5.0000
 30
0.0
 0
SEQEND
 8
WIRE
 0
TEXT
 8
WIRETEXT
 10
  9.8000
 20
  5.0300
 30
0.0
 40
  0.0514
 1
D12
 0
POLYLINE
 8
WIRE
 66
1
 10
0.0
 20
0.0
 30
0.0
 0
VERTEX
 8
WIRE
 10
 12.0000
 20
  5.0000
 30
0.0
 0
VERTEX
 8
WIRE
 10
 12.1000
 20
  5.0000
 30
0.0
 0
SEQEND
 8
WIRE
 0
POLYLINE
 8
WIRE
 66
1
 10
0.0
 20
0.0
 30
0.0
 0
VERTEX
 8
WIRE
 10
  4.0000
 20
  4.9000
 30
0.0
 0
VERTEX
 8
WIRE
 10
  4.4000
 20
  4.9000
 30
0.0
 0
SEQEND
 8
WIRE
 0
TEXT
 8
WIRETEXT
 10
  4.1000
 20
  4.9300
 30
0.0
 40
  0.0514
 1
D6
 0
POLYLINE
 8
WIRE
 66
1
 10
0.0
 20
0.0
 30
0.0
 0
VERTEX
 8
WIRE
 10
  5.6000
 20
  4.9000
 30
0.0
 0
VERTEX
 8
WIRE
 10
  7.0000
 20
  4.9000
 30
0.0
 0
SEQEND
 8
WIRE
 0
POLYLINE
 8
WIRE
 66
1
 10
0.0
 20
0.0
 30
0.0
 0
VERTEX
 8
WIRE
 10
  9.4000
 20
  4.9000
 30
0.0
 0
VERTEX
 8
WIRE
 10
 10.2000
 20
  4.9000
 30
0.0
 0
SEQEND
 8
WIRE
 0
TEXT
 8
WIRETEXT
 10
  9.8000
 20
  4.9300
 30
0.0
 40
  0.0514
 1
D13
 0
POLYLINE
 8
WIRE
 66
1
 10
0.0
 20
0.0
 30
0.0
 0
VERTEX
 8
WIRE
 10
 12.0000
 20
  4.9000
 30
0.0
 0
VERTEX
 8
WIRE
 10
 13.2000
 20
  4.9000
 30
0.0
 0
SEQEND
 8
WIRE
 0
POLYLINE
 8
WIRE
 66
1
 10
0.0
 20
0.0
 30
0.0
 0
VERTEX
 8
WIRE
 10
  4.0000
 20
  4.8000
 30
0.0
 0
VERTEX
 8
WIRE
 10
  4.4000
 20
  4.8000
 30
0.0
 0
SEQEND
 8
WIRE
 0
TEXT
 8
WIRETEXT
 10
  4.1000
 20
  4.8300
 30
0.0
 40
  0.0514
 1
D7
 0
POLYLINE
 8
WIRE
 66
1
 10
0.0
 20
0.0
 30
0.0
 0
VERTEX
 8
WIRE
 10
  5.6000
 20
  4.8000
 30
0.0
 0
VERTEX
 8
WIRE
 10
  7.0000
 20
  4.8000
 30
0.0
 0
SEQEND
 8
WIRE
 0
POLYLINE
 8
WIRE
 66
1
 10
0.0
 20
0.0
 30
0.0
 0
VERTEX
 8
WIRE
 10
  8.3000
 20
  4.8000
 30
0.0
 0
VERTEX
 8
WIRE
 10
  8.7000
 20
  4.8000
 30
0.0
 0
SEQEND
 8
WIRE
 0
POLYLINE
 8
WIRE
 66
1
 10
0.0
 20
0.0
 30
0.0
 0
VERTEX
 8
WIRE
 10
  9.4000
 20
  4.8000
 30
0.0
 0
VERTEX
 8
WIRE
 10
 10.2000
 20
  4.8000
 30
0.0
 0
SEQEND
 8
WIRE
 0
TEXT
 8
WIRETEXT
 10
  9.8000
 20
  4.8300
 30
0.0
 40
  0.0514
 1
D14
 0
POLYLINE
 8
WIRE
 66
1
 10
0.0
 20
0.0
 30
0.0
 0
VERTEX
 8
WIRE
 10
  6.6000
 20
  4.7000
 30
0.0
 0
VERTEX
 8
WIRE
 10
  7.0000
 20
  4.7000
 30
0.0
 0
SEQEND
 8
WIRE
 0
POLYLINE
 8
WIRE
 66
1
 10
0.0
 20
0.0
 30
0.0
 0
VERTEX
 8
WIRE
 10
  9.4000
 20
  4.7000
 30
0.0
 0
VERTEX
 8
WIRE
 10
 10.2000
 20
  4.7000
 30
0.0
 0
SEQEND
 8
WIRE
 0
TEXT
 8
WIRETEXT
 10
  9.8000
 20
  4.7300
 30
0.0
 40
  0.0514
 1
D15
 0
POLYLINE
 8
WIRE
 66
1
 10
0.0
 20
0.0
 30
0.0
 0
VERTEX
 8
WIRE
 10
  3.8000
 20
  4.6000
 30
0.0
 0
VERTEX
 8
WIRE
 10
  4.4000
 20
  4.6000
 30
0.0
 0
SEQEND
 8
WIRE
 0
POLYLINE
 8
WIRE
 66
1
 10
0.0
 20
0.0
 30
0.0
 0
VERTEX
 8
WIRE
 10
  6.8000
 20
  4.6000
 30
0.0
 0
VERTEX
 8
WIRE
 10
  7.0000
 20
  4.6000
 30
0.0
 0
SEQEND
 8
WIRE
 0
POLYLINE
 8
WIRE
 66
1
 10
0.0
 20
0.0
 30
0.0
 0
VERTEX
 8
WIRE
 10
  3.6000
 20
  4.5000
 30
0.0
 0
VERTEX
 8
WIRE
 10
  4.4000
 20
  4.5000
 30
0.0
 0
SEQEND
 8
WIRE
 0
POLYLINE
 8
WIRE
 66
1
 10
0.0
 20
0.0
 30
0.0
 0
VERTEX
 8
WIRE
 10
  6.7000
 20
  4.5000
 30
0.0
 0
VERTEX
 8
WIRE
 10
  7.0000
 20
  4.5000
 30
0.0
 0
SEQEND
 8
WIRE
 0
POLYLINE
 8
WIRE
 66
1
 10
0.0
 20
0.0
 30
0.0
 0
VERTEX
 8
WIRE
 10
  9.7000
 20
  4.5000
 30
0.0
 0
VERTEX
 8
WIRE
 10
 10.2000
 20
  4.5000
 30
0.0
 0
SEQEND
 8
WIRE
 0
TEXT
 8
WIRETEXT
 10
  9.7000
 20
  4.5300
 30
0.0
 40
  0.0514
 1
SysClk
 0
POLYLINE
 8
WIRE
 66
1
 10
0.0
 20
0.0
 30
0.0
 0
VERTEX
 8
WIRE
 10
 12.0000
 20
  4.5000
 30
0.0
 0
VERTEX
 8
WIRE
 10
 12.7000
 20
  4.5000
 30
0.0
 0
SEQEND
 8
WIRE
 0
TEXT
 8
WIRETEXT
 10
 12.0000
 20
  4.5300
 30
0.0
 40
  0.0514
 1
ArmTrig*
 0
POLYLINE
 8
WIRE
 66
1
 10
0.0
 20
0.0
 30
0.0
 0
VERTEX
 8
WIRE
 10
  6.5000
 20
  4.4000
 30
0.0
 0
VERTEX
 8
WIRE
 10
  7.0000
 20
  4.4000
 30
0.0
 0
SEQEND
 8
WIRE
 0
POLYLINE
 8
WIRE
 66
1
 10
0.0
 20
0.0
 30
0.0
 0
VERTEX
 8
WIRE
 10
 12.0000
 20
  4.4000
 30
0.0
 0
VERTEX
 8
WIRE
 10
 12.7000
 20
  4.4000
 30
0.0
 0
SEQEND
 8
WIRE
 0
TEXT
 8
WIRETEXT
 10
 12.0000
 20
  4.4300
 30
0.0
 40
  0.0514
 1
StartIm*
 0
POLYLINE
 8
WIRE
 66
1
 10
0.0
 20
0.0
 30
0.0
 0
VERTEX
 8
WIRE
 10
 10.1000
 20
  4.2000
 30
0.0
 0
VERTEX
 8
WIRE
 10
 10.2000
 20
  4.2000
 30
0.0
 0
SEQEND
 8
WIRE
 0
POLYLINE
 8
WIRE
 66
1
 10
0.0
 20
0.0
 30
0.0
 0
VERTEX
 8
WIRE
 10
  6.8000
 20
  4.1000
 30
0.0
 0
VERTEX
 8
WIRE
 10
  8.7000
 20
  4.1000
 30
0.0
 0
SEQEND
 8
WIRE
 0
POLYLINE
 8
WIRE
 66
1
 10
0.0
 20
0.0
 30
0.0
 0
VERTEX
 8
WIRE
 10
  6.4000
 20
  3.8000
 30
0.0
 0
VERTEX
 8
WIRE
 10
  7.0000
 20
  3.8000
 30
0.0
 0
SEQEND
 8
WIRE
 0
POLYLINE
 8
WIRE
 66
1
 10
0.0
 20
0.0
 30
0.0
 0
VERTEX
 8
WIRE
 10
  4.0000
 20
  3.7000
 30
0.0
 0
VERTEX
 8
WIRE
 10
  4.4000
 20
  3.7000
 30
0.0
 0
SEQEND
 8
WIRE
 0
TEXT
 8
WIRETEXT
 10
  4.1000
 20
  3.7300
 30
0.0
 40
  0.0514
 1
D0
 0
POLYLINE
 8
WIRE
 66
1
 10
0.0
 20
0.0
 30
0.0
 0
VERTEX
 8
WIRE
 10
  5.6000
 20
  3.7000
 30
0.0
 0
VERTEX
 8
WIRE
 10
  7.0000
 20
  3.7000
 30
0.0
 0
SEQEND
 8
WIRE
 0
POLYLINE
 8
WIRE
 66
1
 10
0.0
 20
0.0
 30
0.0
 0
VERTEX
 8
WIRE
 10
  4.0000
 20
  3.6000
 30
0.0
 0
VERTEX
 8
WIRE
 10
  4.4000
 20
  3.6000
 30
0.0
 0
SEQEND
 8
WIRE
 0
TEXT
 8
WIRETEXT
 10
  4.1000
 20
  3.6300
 30
0.0
 40
  0.0514
 1
D1
 0
POLYLINE
 8
WIRE
 66
1
 10
0.0
 20
0.0
 30
0.0
 0
VERTEX
 8
WIRE
 10
  5.6000
 20
  3.6000
 30
0.0
 0
VERTEX
 8
WIRE
 10
  7.0000
 20
  3.6000
 30
0.0
 0
SEQEND
 8
WIRE
 0
POLYLINE
 8
WIRE
 66
1
 10
0.0
 20
0.0
 30
0.0
 0
VERTEX
 8
WIRE
 10
  4.0000
 20
  3.5000
 30
0.0
 0
VERTEX
 8
WIRE
 10
  4.4000
 20
  3.5000
 30
0.0
 0
SEQEND
 8
WIRE
 0
TEXT
 8
WIRETEXT
 10
  4.1000
 20
  3.5300
 30
0.0
 40
  0.0514
 1
D2
 0
POLYLINE
 8
WIRE
 66
1
 10
0.0
 20
0.0
 30
0.0
 0
VERTEX
 8
WIRE
 10
  5.6000
 20
  3.5000
 30
0.0
 0
VERTEX
 8
WIRE
 10
  7.0000
 20
  3.5000
 30
0.0
 0
SEQEND
 8
WIRE
 0
POLYLINE
 8
WIRE
 66
1
 10
0.0
 20
0.0
 30
0.0
 0
VERTEX
 8
WIRE
 10
 14.4000
 20
  3.5000
 30
0.0
 0
VERTEX
 8
WIRE
 10
 14.7000
 20
  3.5000
 30
0.0
 0
SEQEND
 8
WIRE
 0
POLYLINE
 8
WIRE
 66
1
 10
0.0
 20
0.0
 30
0.0
 0
VERTEX
 8
WIRE
 10
  4.0000
 20
  3.4000
 30
0.0
 0
VERTEX
 8
WIRE
 10
  4.4000
 20
  3.4000
 30
0.0
 0
SEQEND
 8
WIRE
 0
TEXT
 8
WIRETEXT
 10
  4.1000
 20
  3.4300
 30
0.0
 40
  0.0514
 1
D3
 0
POLYLINE
 8
WIRE
 66
1
 10
0.0
 20
0.0
 30
0.0
 0
VERTEX
 8
WIRE
 10
  5.6000
 20
  3.4000
 30
0.0
 0
VERTEX
 8
WIRE
 10
  7.0000
 20
  3.4000
 30
0.0
 0
SEQEND
 8
WIRE
 0
POLYLINE
 8
WIRE
 66
1
 10
0.0
 20
0.0
 30
0.0
 0
VERTEX
 8
WIRE
 10
  4.0000
 20
  3.3000
 30
0.0
 0
VERTEX
 8
WIRE
 10
  4.4000
 20
  3.3000
 30
0.0
 0
SEQEND
 8
WIRE
 0
TEXT
 8
WIRETEXT
 10
  4.1000
 20
  3.3300
 30
0.0
 40
  0.0514
 1
D4
 0
POLYLINE
 8
WIRE
 66
1
 10
0.0
 20
0.0
 30
0.0
 0
VERTEX
 8
WIRE
 10
  5.6000
 20
  3.3000
 30
0.0
 0
VERTEX
 8
WIRE
 10
  7.0000
 20
  3.3000
 30
0.0
 0
SEQEND
 8
WIRE
 0
POLYLINE
 8
WIRE
 66
1
 10
0.0
 20
0.0
 30
0.0
 0
VERTEX
 8
WIRE
 10
 12.8000
 20
  3.3000
 30
0.0
 0
VERTEX
 8
WIRE
 10
 13.2000
 20
  3.3000
 30
0.0
 0
SEQEND
 8
WIRE
 0
TEXT
 8
WIRETEXT
 10
 12.8000
 20
  3.3300
 30
0.0
 40
  0.0514
 1
SysClk
 0
POLYLINE
 8
WIRE
 66
1
 10
0.0
 20
0.0
 30
0.0
 0
VERTEX
 8
WIRE
 10
  4.0000
 20
  3.2000
 30
0.0
 0
VERTEX
 8
WIRE
 10
  4.4000
 20
  3.2000
 30
0.0
 0
SEQEND
 8
WIRE
 0
TEXT
 8
WIRETEXT
 10
  4.1000
 20
  3.2300
 30
0.0
 40
  0.0514
 1
D5
 0
POLYLINE
 8
WIRE
 66
1
 10
0.0
 20
0.0
 30
0.0
 0
VERTEX
 8
WIRE
 10
  5.6000
 20
  3.2000
 30
0.0
 0
VERTEX
 8
WIRE
 10
  7.0000
 20
  3.2000
 30
0.0
 0
SEQEND
 8
WIRE
 0
POLYLINE
 8
WIRE
 66
1
 10
0.0
 20
0.0
 30
0.0
 0
VERTEX
 8
WIRE
 10
  4.0000
 20
  3.1000
 30
0.0
 0
VERTEX
 8
WIRE
 10
  4.4000
 20
  3.1000
 30
0.0
 0
SEQEND
 8
WIRE
 0
TEXT
 8
WIRETEXT
 10
  4.1000
 20
  3.1300
 30
0.0
 40
  0.0514
 1
D6
 0
POLYLINE
 8
WIRE
 66
1
 10
0.0
 20
0.0
 30
0.0
 0
VERTEX
 8
WIRE
 10
  5.6000
 20
  3.1000
 30
0.0
 0
VERTEX
 8
WIRE
 10
  7.0000
 20
  3.1000
 30
0.0
 0
SEQEND
 8
WIRE
 0
POLYLINE
 8
WIRE
 66
1
 10
0.0
 20
0.0
 30
0.0
 0
VERTEX
 8
WIRE
 10
  4.0000
 20
  3.0000
 30
0.0
 0
VERTEX
 8
WIRE
 10
  4.4000
 20
  3.0000
 30
0.0
 0
SEQEND
 8
WIRE
 0
TEXT
 8
WIRETEXT
 10
  4.1000
 20
  3.0300
 30
0.0
 40
  0.0514
 1
D7
 0
POLYLINE
 8
WIRE
 66
1
 10
0.0
 20
0.0
 30
0.0
 0
VERTEX
 8
WIRE
 10
  5.6000
 20
  3.0000
 30
0.0
 0
VERTEX
 8
WIRE
 10
  7.0000
 20
  3.0000
 30
0.0
 0
SEQEND
 8
WIRE
 0
POLYLINE
 8
WIRE
 66
1
 10
0.0
 20
0.0
 30
0.0
 0
VERTEX
 8
WIRE
 10
  8.3000
 20
  3.0000
 30
0.0
 0
VERTEX
 8
WIRE
 10
  8.5000
 20
  3.0000
 30
0.0
 0
SEQEND
 8
WIRE
 0
POLYLINE
 8
WIRE
 66
1
 10
0.0
 20
0.0
 30
0.0
 0
VERTEX
 8
WIRE
 10
  6.6000
 20
  2.9000
 30
0.0
 0
VERTEX
 8
WIRE
 10
  7.0000
 20
  2.9000
 30
0.0
 0
SEQEND
 8
WIRE
 0
POLYLINE
 8
WIRE
 66
1
 10
0.0
 20
0.0
 30
0.0
 0
VERTEX
 8
WIRE
 10
  3.8000
 20
  2.8000
 30
0.0
 0
VERTEX
 8
WIRE
 10
  4.4000
 20
  2.8000
 30
0.0
 0
SEQEND
 8
WIRE
 0
POLYLINE
 8
WIRE
 66
1
 10
0.0
 20
0.0
 30
0.0
 0
VERTEX
 8
WIRE
 10
  6.8000
 20
  2.8000
 30
0.0
 0
VERTEX
 8
WIRE
 10
  7.0000
 20
  2.8000
 30
0.0
 0
SEQEND
 8
WIRE
 0
POLYLINE
 8
WIRE
 66
1
 10
0.0
 20
0.0
 30
0.0
 0
VERTEX
 8
WIRE
 10
  3.5000
 20
  2.7000
 30
0.0
 0
VERTEX
 8
WIRE
 10
  4.4000
 20
  2.7000
 30
0.0
 0
SEQEND
 8
WIRE
 0
POLYLINE
 8
WIRE
 66
1
 10
0.0
 20
0.0
 30
0.0
 0
VERTEX
 8
WIRE
 10
  6.7000
 20
  2.7000
 30
0.0
 0
VERTEX
 8
WIRE
 10
  7.0000
 20
  2.7000
 30
0.0
 0
SEQEND
 8
WIRE
 0
POLYLINE
 8
WIRE
 66
1
 10
0.0
 20
0.0
 30
0.0
 0
VERTEX
 8
WIRE
 10
 10.1000
 20
  2.7000
 30
0.0
 0
VERTEX
 8
WIRE
 10
 13.8000
 20
  2.7000
 30
0.0
 0
SEQEND
 8
WIRE
 0
POLYLINE
 8
WIRE
 66
1
 70
1
 10
0.0
 20
0.0
 30
0.0
 40
  0.0200
 41
  0.0200
 0
VERTEX
 8
WIRE
 10
 10.0900
 20
  2.7000
 30
0.0
 42
1.0
 0
VERTEX
 8
WIRE
 10
 10.1100
 20
  2.7000
 30
0.0
 42
1.0
 0
SEQEND
 8
WIRE
 0
POLYLINE
 8
WIRE
 66
1
 10
0.0
 20
0.0
 30
0.0
 0
VERTEX
 8
WIRE
 10
  6.5000
 20
  2.6000
 30
0.0
 0
VERTEX
 8
WIRE
 10
  7.0000
 20
  2.6000
 30
0.0
 0
SEQEND
 8
WIRE
 0
POLYLINE
 8
WIRE
 66
1
 10
0.0
 20
0.0
 30
0.0
 0
VERTEX
 8
WIRE
 10
 10.2000
 20
  2.6000
 30
0.0
 0
VERTEX
 8
WIRE
 10
 14.7000
 20
  2.6000
 30
0.0
 0
SEQEND
 8
WIRE
 0
POLYLINE
 8
WIRE
 66
1
 10
0.0
 20
0.0
 30
0.0
 0
VERTEX
 8
WIRE
 10
  6.7000
 20
  2.3000
 30
0.0
 0
VERTEX
 8
WIRE
 10
  8.5000
 20
  2.3000
 30
0.0
 0
SEQEND
 8
WIRE
 0
POLYLINE
 8
WIRE
 66
1
 10
0.0
 20
0.0
 30
0.0
 0
VERTEX
 8
WIRE
 10
  6.6000
 20
  2.1000
 30
0.0
 0
VERTEX
 8
WIRE
 10
  9.7000
 20
  2.1000
 30
0.0
 0
SEQEND
 8
WIRE
 0
POLYLINE
 8
WIRE
 66
1
 70
1
 10
0.0
 20
0.0
 30
0.0
 40
  0.0200
 41
  0.0200
 0
VERTEX
 8
WIRE
 10
  6.5900
 20
  2.1000
 30
0.0
 42
1.0
 0
VERTEX
 8
WIRE
 10
  6.6100
 20
  2.1000
 30
0.0
 42
1.0
 0
SEQEND
 8
WIRE
 0
POLYLINE
 8
WIRE
 66
1
 10
0.0
 20
0.0
 30
0.0
 0
VERTEX
 8
WIRE
 10
  3.9000
 20
  2.0000
 30
0.0
 0
VERTEX
 8
WIRE
 10
  5.3000
 20
  2.0000
 30
0.0
 0
SEQEND
 8
WIRE
 0
POLYLINE
 8
WIRE
 66
1
 10
0.0
 20
0.0
 30
0.0
 0
VERTEX
 8
WIRE
 10
  2.0000
 20
  1.9000
 30
0.0
 0
VERTEX
 8
WIRE
 10
  2.1000
 20
  1.9000
 30
0.0
 0
SEQEND
 8
WIRE
 0
POLYLINE
 8
WIRE
 66
1
 10
0.0
 20
0.0
 30
0.0
 0
VERTEX
 8
WIRE
 10
  0.6000
 20
  1.7000
 30
0.0
 0
VERTEX
 8
WIRE
 10
  1.3000
 20
  1.7000
 30
0.0
 0
SEQEND
 8
WIRE
 0
TEXT
 8
WIRETEXT
 10
  0.6000
 20
  1.7300
 30
0.0
 40
  0.0514
 1
StartIm*
 0
POLYLINE
 8
WIRE
 66
1
 10
0.0
 20
0.0
 30
0.0
 0
VERTEX
 8
WIRE
 10
 12.9000
 20
  1.7000
 30
0.0
 0
VERTEX
 8
WIRE
 10
 13.1000
 20
  1.7000
 30
0.0
 0
SEQEND
 8
WIRE
 0
TEXT
 8
WIRETEXT
 10
 12.9000
 20
  1.7300
 30
0.0
 40
  0.0514
 1
PU
 0
POLYLINE
 8
WIRE
 66
1
 10
0.0
 20
0.0
 30
0.0
 0
VERTEX
 8
WIRE
 10
 10.0000
 20
  1.4000
 30
0.0
 0
VERTEX
 8
WIRE
 10
 10.1000
 20
  1.4000
 30
0.0
 0
SEQEND
 8
WIRE
 0
POLYLINE
 8
WIRE
 66
1
 10
0.0
 20
0.0
 30
0.0
 0
VERTEX
 8
WIRE
 10
  0.5000
 20
  1.3000
 30
0.0
 0
VERTEX
 8
WIRE
 10
  0.7000
 20
  1.3000
 30
0.0
 0
SEQEND
 8
WIRE
 0
TEXT
 8
WIRETEXT
 10
  0.5000
 20
  1.3300
 30
0.0
 40
  0.0514
 1
PU
 0
POLYLINE
 8
WIRE
 66
1
 10
0.0
 20
0.0
 30
0.0
 0
VERTEX
 8
WIRE
 10
  1.9000
 20
  1.3000
 30
0.0
 0
VERTEX
 8
WIRE
 10
  2.3000
 20
  1.3000
 30
0.0
 0
SEQEND
 8
WIRE
 0
POLYLINE
 8
WIRE
 66
1
 10
0.0
 20
0.0
 30
0.0
 0
VERTEX
 8
WIRE
 10
  3.5000
 20
  1.3000
 30
0.0
 0
VERTEX
 8
WIRE
 10
  3.9000
 20
  1.3000
 30
0.0
 0
SEQEND
 8
WIRE
 0
POLYLINE
 8
WIRE
 66
1
 70
1
 10
0.0
 20
0.0
 30
0.0
 40
  0.0200
 41
  0.0200
 0
VERTEX
 8
WIRE
 10
  3.8900
 20
  1.3000
 30
0.0
 42
1.0
 0
VERTEX
 8
WIRE
 10
  3.9100
 20
  1.3000
 30
0.0
 42
1.0
 0
SEQEND
 8
WIRE
 0
POLYLINE
 8
WIRE
 66
1
 10
0.0
 20
0.0
 30
0.0
 0
VERTEX
 8
WIRE
 10
  5.1000
 20
  1.3000
 30
0.0
 0
VERTEX
 8
WIRE
 10
  6.6000
 20
  1.3000
 30
0.0
 0
SEQEND
 8
WIRE
 0
POLYLINE
 8
WIRE
 66
1
 10
0.0
 20
0.0
 30
0.0
 0
VERTEX
 8
WIRE
 10
  7.7000
 20
  1.2000
 30
0.0
 0
VERTEX
 8
WIRE
 10
  7.8000
 20
  1.2000
 30
0.0
 0
SEQEND
 8
WIRE
 0
POLYLINE
 8
WIRE
 66
1
 10
0.0
 20
0.0
 30
0.0
 0
VERTEX
 8
WIRE
 10
  2.1000
 20
  1.1000
 30
0.0
 0
VERTEX
 8
WIRE
 10
  2.3000
 20
  1.1000
 30
0.0
 0
SEQEND
 8
WIRE
 0
POLYLINE
 8
WIRE
 66
1
 10
0.0
 20
0.0
 30
0.0
 0
VERTEX
 8
WIRE
 10
  3.7000
 20
  1.1000
 30
0.0
 0
VERTEX
 8
WIRE
 10
  3.9000
 20
  1.1000
 30
0.0
 0
SEQEND
 8
WIRE
 0
POLYLINE
 8
WIRE
 66
1
 10
0.0
 20
0.0
 30
0.0
 0
VERTEX
 8
WIRE
 10
  5.1000
 20
  0.9000
 30
0.0
 0
VERTEX
 8
WIRE
 10
  5.3000
 20
  0.9000
 30
0.0
 0
SEQEND
 8
WIRE
 0
POLYLINE
 8
WIRE
 66
1
 10
0.0
 20
0.0
 30
0.0
 0
VERTEX
 8
WIRE
 10
  7.1000
 20
  0.9000
 30
0.0
 0
VERTEX
 8
WIRE
 10
  7.7000
 20
  0.9000
 30
0.0
 0
SEQEND
 8
WIRE
 0
TEXT
 8
WIRETEXT
 10
  7.1000
 20
  0.9300
 30
0.0
 40
  0.0514
 1
SysClk
 0
POLYLINE
 8
WIRE
 66
1
 10
0.0
 20
0.0
 30
0.0
 0
VERTEX
 8
WIRE
 10
  6.5000
 20
  0.6000
 30
0.0
 0
VERTEX
 8
WIRE
 10
  8.4000
 20
  0.6000
 30
0.0
 0
SEQEND
 8
WIRE
 0
POLYLINE
 8
WIRE
 66
1
 10
0.0
 20
0.0
 30
0.0
 0
VERTEX
 8
WIRE
 10
  0.6000
 20
  0.5000
 30
0.0
 0
VERTEX
 8
WIRE
 10
  1.3000
 20
  0.5000
 30
0.0
 0
SEQEND
 8
WIRE
 0
POLYLINE
 8
WIRE
 66
1
 70
1
 10
0.0
 20
0.0
 30
0.0
 40
  0.0200
 41
  0.0200
 0
VERTEX
 8
WIRE
 10
  1.2900
 20
  0.5000
 30
0.0
 42
1.0
 0
VERTEX
 8
WIRE
 10
  1.3100
 20
  0.5000
 30
0.0
 42
1.0
 0
SEQEND
 8
WIRE
 0
TEXT
 8
WIRETEXT
 10
  0.6000
 20
  0.5300
 30
0.0
 40
  0.0514
 1
ArmTrig*
 0
POLYLINE
 8
WIRE
 66
1
 10
0.0
 20
0.0
 30
0.0
 0
VERTEX
 8
WIRE
 10
  1.5000
 20
  7.9000
 30
0.0
 0
VERTEX
 8
WIRE
 10
  1.5000
 20
  7.8000
 30
0.0
 0
SEQEND
 8
WIRE
 0
POLYLINE
 8
WIRE
 66
1
 10
0.0
 20
0.0
 30
0.0
 0
VERTEX
 8
WIRE
 10
  2.1000
 20
  1.9000
 30
0.0
 0
VERTEX
 8
WIRE
 10
  2.1000
 20
  1.1000
 30
0.0
 0
SEQEND
 8
WIRE
 0
POLYLINE
 8
WIRE
 66
1
 70
1
 10
0.0
 20
0.0
 30
0.0
 40
  0.0200
 41
  0.0200
 0
VERTEX
 8
WIRE
 10
  2.0900
 20
  1.9000
 30
0.0
 42
1.0
 0
VERTEX
 8
WIRE
 10
  2.1100
 20
  1.9000
 30
0.0
 42
1.0
 0
SEQEND
 8
WIRE
 0
POLYLINE
 8
WIRE
 66
1
 10
0.0
 20
0.0
 30
0.0
 0
VERTEX
 8
WIRE
 10
  3.5000
 20
  7.8000
 30
0.0
 0
VERTEX
 8
WIRE
 10
  3.5000
 20
  2.7000
 30
0.0
 0
SEQEND
 8
WIRE
 0
POLYLINE
 8
WIRE
 66
1
 10
0.0
 20
0.0
 30
0.0
 0
VERTEX
 8
WIRE
 10
  3.6000
 20
  7.9000
 30
0.0
 0
VERTEX
 8
WIRE
 10
  3.6000
 20
  4.5000
 30
0.0
 0
SEQEND
 8
WIRE
 0
POLYLINE
 8
WIRE
 66
1
 10
0.0
 20
0.0
 30
0.0
 0
VERTEX
 8
WIRE
 10
  3.7000
 20
  8.0000
 30
0.0
 0
VERTEX
 8
WIRE
 10
  3.7000
 20
  6.3000
 30
0.0
 0
SEQEND
 8
WIRE
 0
POLYLINE
 8
WIRE
 66
1
 10
0.0
 20
0.0
 30
0.0
 0
VERTEX
 8
WIRE
 10
  3.7000
 20
  1.9000
 30
0.0
 0
VERTEX
 8
WIRE
 10
  3.7000
 20
  1.1000
 30
0.0
 0
SEQEND
 8
WIRE
 0
POLYLINE
 8
WIRE
 66
1
 10
0.0
 20
0.0
 30
0.0
 0
VERTEX
 8
WIRE
 10
  3.8000
 20
  8.2000
 30
0.0
 0
VERTEX
 8
WIRE
 10
  3.8000
 20
  6.4000
 30
0.0
 0
SEQEND
 8
WIRE
 0
POLYLINE
 8
WIRE
 66
1
 70
1
 10
0.0
 20
0.0
 30
0.0
 40
  0.0200
 41
  0.0200
 0
VERTEX
 8
WIRE
 10
  3.7900
 20
  8.2000
 30
0.0
 42
1.0
 0
VERTEX
 8
WIRE
 10
  3.8100
 20
  8.2000
 30
0.0
 42
1.0
 0
SEQEND
 8
WIRE
 0
POLYLINE
 8
WIRE
 66
1
 70
1
 10
0.0
 20
0.0
 30
0.0
 40
  0.0200
 41
  0.0200
 0
VERTEX
 8
WIRE
 10
  3.7900
 20
  6.4000
 30
0.0
 42
1.0
 0
VERTEX
 8
WIRE
 10
  3.8100
 20
  6.4000
 30
0.0
 42
1.0
 0
SEQEND
 8
WIRE
 0
POLYLINE
 8
WIRE
 66
1
 10
0.0
 20
0.0
 30
0.0
 0
VERTEX
 8
WIRE
 10
  3.9000
 20
  2.0000
 30
0.0
 0
VERTEX
 8
WIRE
 10
  3.9000
 20
  1.3000
 30
0.0
 0
SEQEND
 8
WIRE
 0
POLYLINE
 8
WIRE
 66
1
 10
0.0
 20
0.0
 30
0.0
 0
VERTEX
 8
WIRE
 10
  4.5000
 20
  0.5000
 30
0.0
 0
VERTEX
 8
WIRE
 10
  4.5000
 20
  0.4000
 30
0.0
 0
SEQEND
 8
WIRE
 0
TEXT
 8
WIRETEXT
 10
  4.5000
 20
  0.4300
 30
0.0
 40
  0.0514
 1
PU
 0
POLYLINE
 8
WIRE
 66
1
 10
0.0
 20
0.0
 30
0.0
 0
VERTEX
 8
WIRE
 10
  5.3000
 20
  1.8000
 30
0.0
 0
VERTEX
 8
WIRE
 10
  5.3000
 20
  0.9000
 30
0.0
 0
SEQEND
 8
WIRE
 0
POLYLINE
 8
WIRE
 66
1
 10
0.0
 20
0.0
 30
0.0
 0
VERTEX
 8
WIRE
 10
  6.4000
 20
  9.2000
 30
0.0
 0
VERTEX
 8
WIRE
 10
  6.4000
 20
  7.4000
 30
0.0
 0
SEQEND
 8
WIRE
 0
POLYLINE
 8
WIRE
 66
1
 70
1
 10
0.0
 20
0.0
 30
0.0
 40
  0.0200
 41
  0.0200
 0
VERTEX
 8
WIRE
 10
  6.3900
 20
  9.2000
 30
0.0
 42
1.0
 0
VERTEX
 8
WIRE
 10
  6.4100
 20
  9.2000
 30
0.0
 42
1.0
 0
SEQEND
 8
WIRE
 0
POLYLINE
 8
WIRE
 66
1
 70
1
 10
0.0
 20
0.0
 30
0.0
 40
  0.0200
 41
  0.0200
 0
VERTEX
 8
WIRE
 10
  6.3900
 20
  7.4000
 30
0.0
 42
1.0
 0
VERTEX
 8
WIRE
 10
  6.4100
 20
  7.4000
 30
0.0
 42
1.0
 0
SEQEND
 8
WIRE
 0
POLYLINE
 8
WIRE
 66
1
 10
0.0
 20
0.0
 30
0.0
 0
VERTEX
 8
WIRE
 10
  6.5000
 20
  8.0000
 30
0.0
 0
VERTEX
 8
WIRE
 10
  6.5000
 20
  6.2000
 30
0.0
 0
SEQEND
 8
WIRE
 0
POLYLINE
 8
WIRE
 66
1
 70
1
 10
0.0
 20
0.0
 30
0.0
 40
  0.0200
 41
  0.0200
 0
VERTEX
 8
WIRE
 10
  6.4900
 20
  6.2000
 30
0.0
 42
1.0
 0
VERTEX
 8
WIRE
 10
  6.5100
 20
  6.2000
 30
0.0
 42
1.0
 0
SEQEND
 8
WIRE
 0
POLYLINE
 8
WIRE
 66
1
 10
0.0
 20
0.0
 30
0.0
 0
VERTEX
 8
WIRE
 10
  6.6000
 20
  8.3000
 30
0.0
 0
VERTEX
 8
WIRE
 10
  6.6000
 20
  6.5000
 30
0.0
 0
SEQEND
 8
WIRE
 0
POLYLINE
 8
WIRE
 66
1
 70
1
 10
0.0
 20
0.0
 30
0.0
 40
  0.0200
 41
  0.0200
 0
VERTEX
 8
WIRE
 10
  6.5900
 20
  6.5000
 30
0.0
 42
1.0
 0
VERTEX
 8
WIRE
 10
  6.6100
 20
  6.5000
 30
0.0
 42
1.0
 0
SEQEND
 8
WIRE
 0
POLYLINE
 8
WIRE
 66
1
 10
0.0
 20
0.0
 30
0.0
 0
VERTEX
 8
WIRE
 10
  6.7000
 20
  7.7000
 30
0.0
 0
VERTEX
 8
WIRE
 10
  6.7000
 20
  6.3000
 30
0.0
 0
SEQEND
 8
WIRE
 0
POLYLINE
 8
WIRE
 66
1
 70
1
 10
0.0
 20
0.0
 30
0.0
 40
  0.0200
 41
  0.0200
 0
VERTEX
 8
WIRE
 10
  6.6900
 20
  6.3000
 30
0.0
 42
1.0
 0
VERTEX
 8
WIRE
 10
  6.7100
 20
  6.3000
 30
0.0
 42
1.0
 0
SEQEND
 8
WIRE
 0
POLYLINE
 8
WIRE
 66
1
 10
0.0
 20
0.0
 30
0.0
 0
VERTEX
 8
WIRE
 10
  6.8000
 20
  5.9000
 30
0.0
 0
VERTEX
 8
WIRE
 10
  6.8000
 20
  4.6000
 30
0.0
 0
SEQEND
 8
WIRE
 0
POLYLINE
 8
WIRE
 66
1
 10
0.0
 20
0.0
 30
0.0
 0
VERTEX
 8
WIRE
 10
  6.8000
 20
  4.1000
 30
0.0
 0
VERTEX
 8
WIRE
 10
  6.8000
 20
  2.8000
 30
0.0
 0
SEQEND
 8
WIRE
 0
POLYLINE
 8
WIRE
 66
1
 10
0.0
 20
0.0
 30
0.0
 0
VERTEX
 8
WIRE
 10
  7.7000
 20
  1.2000
 30
0.0
 0
VERTEX
 8
WIRE
 10
  7.7000
 20
  0.9000
 30
0.0
 0
SEQEND
 8
WIRE
 0
POLYLINE
 8
WIRE
 66
1
 10
0.0
 20
0.0
 30
0.0
 0
VERTEX
 8
WIRE
 10
  8.4000
 20
  1.9000
 30
0.0
 0
VERTEX
 8
WIRE
 10
  8.4000
 20
  1.8000
 30
0.0
 0
SEQEND
 8
WIRE
 0
TEXT
 8
WIRETEXT
 10
  8.4000
 20
  1.8300
 30
0.0
 40
  0.0514
 1
PU
 0
POLYLINE
 8
WIRE
 66
1
 10
0.0
 20
0.0
 30
0.0
 0
VERTEX
 8
WIRE
 10
  8.5000
 20
  2.8000
 30
0.0
 0
VERTEX
 8
WIRE
 10
  8.5000
 20
  2.3000
 30
0.0
 0
SEQEND
 8
WIRE
 0
POLYLINE
 8
WIRE
 66
1
 10
0.0
 20
0.0
 30
0.0
 0
VERTEX
 8
WIRE
 10
  8.6000
 20
  8.4000
 30
0.0
 0
VERTEX
 8
WIRE
 10
  8.6000
 20
  7.7000
 30
0.0
 0
SEQEND
 8
WIRE
 0
POLYLINE
 8
WIRE
 66
1
 10
0.0
 20
0.0
 30
0.0
 0
VERTEX
 8
WIRE
 10
  8.7000
 20
  6.6000
 30
0.0
 0
VERTEX
 8
WIRE
 10
  8.7000
 20
  5.9000
 30
0.0
 0
SEQEND
 8
WIRE
 0
POLYLINE
 8
WIRE
 66
1
 10
0.0
 20
0.0
 30
0.0
 0
VERTEX
 8
WIRE
 10
  8.7000
 20
  4.8000
 30
0.0
 0
VERTEX
 8
WIRE
 10
  8.7000
 20
  4.1000
 30
0.0
 0
SEQEND
 8
WIRE
 0
POLYLINE
 8
WIRE
 66
1
 10
0.0
 20
0.0
 30
0.0
 0
VERTEX
 8
WIRE
 10
  9.7000
 20
  2.9000
 30
0.0
 0
VERTEX
 8
WIRE
 10
  9.7000
 20
  2.1000
 30
0.0
 0
SEQEND
 8
WIRE
 0
POLYLINE
 8
WIRE
 66
1
 10
0.0
 20
0.0
 30
0.0
 0
VERTEX
 8
WIRE
 10
  9.9000
 20
  7.9000
 30
0.0
 0
VERTEX
 8
WIRE
 10
  9.9000
 20
  7.6000
 30
0.0
 0
SEQEND
 8
WIRE
 0
POLYLINE
 8
WIRE
 66
1
 70
1
 10
0.0
 20
0.0
 30
0.0
 40
  0.0200
 41
  0.0200
 0
VERTEX
 8
WIRE
 10
  9.8900
 20
  7.6000
 30
0.0
 42
1.0
 0
VERTEX
 8
WIRE
 10
  9.9100
 20
  7.6000
 30
0.0
 42
1.0
 0
SEQEND
 8
WIRE
 0
POLYLINE
 8
WIRE
 66
1
 10
0.0
 20
0.0
 30
0.0
 0
VERTEX
 8
WIRE
 10
 10.1000
 20
  4.2000
 30
0.0
 0
VERTEX
 8
WIRE
 10
 10.1000
 20
  2.7000
 30
0.0
 0
SEQEND
 8
WIRE
 0
POLYLINE
 8
WIRE
 66
1
 10
0.0
 20
0.0
 30
0.0
 0
VERTEX
 8
WIRE
 10
 10.2000
 20
  6.6000
 30
0.0
 0
VERTEX
 8
WIRE
 10
 10.2000
 20
  6.3000
 30
0.0
 0
SEQEND
 8
WIRE
 0
POLYLINE
 8
WIRE
 66
1
 70
1
 10
0.0
 20
0.0
 30
0.0
 40
  0.0200
 41
  0.0200
 0
VERTEX
 8
WIRE
 10
 10.1900
 20
  6.3000
 30
0.0
 42
1.0
 0
VERTEX
 8
WIRE
 10
 10.2100
 20
  6.3000
 30
0.0
 42
1.0
 0
SEQEND
 8
WIRE
 0
POLYLINE
 8
WIRE
 66
1
 10
0.0
 20
0.0
 30
0.0
 0
VERTEX
 8
WIRE
 10
 10.2000
 20
  5.3000
 30
0.0
 0
VERTEX
 8
WIRE
 10
 10.2000
 20
  5.1000
 30
0.0
 0
SEQEND
 8
WIRE
 0
POLYLINE
 8
WIRE
 66
1
 10
0.0
 20
0.0
 30
0.0
 0
VERTEX
 8
WIRE
 10
 10.2000
 20
  4.0000
 30
0.0
 0
VERTEX
 8
WIRE
 10
 10.2000
 20
  2.6000
 30
0.0
 0
SEQEND
 8
WIRE
 0
POLYLINE
 8
WIRE
 66
1
 10
0.0
 20
0.0
 30
0.0
 0
VERTEX
 8
WIRE
 10
 11.4000
 20
  7.2000
 30
0.0
 0
VERTEX
 8
WIRE
 10
 11.4000
 20
  7.0000
 30
0.0
 0
SEQEND
 8
WIRE
 0
POLYLINE
 8
WIRE
 66
1
 10
0.0
 20
0.0
 30
0.0
 0
VERTEX
 8
WIRE
 10
 12.0000
 20
  5.5000
 30
0.0
 0
VERTEX
 8
WIRE
 10
 12.0000
 20
  5.1000
 30
0.0
 0
SEQEND
 8
WIRE
 0
POLYLINE
 8
WIRE
 66
1
 10
0.0
 20
0.0
 30
0.0
 0
VERTEX
 8
WIRE
 10
 12.1000
 20
  5.6000
 30
0.0
 0
VERTEX
 8
WIRE
 10
 12.1000
 20
  5.0000
 30
0.0
 0
SEQEND
 8
WIRE
 0
POLYLINE
 8
WIRE
 66
1
 10
0.0
 20
0.0
 30
0.0
 0
VERTEX
 8
WIRE
 10
 12.6000
 20
  9.3000
 30
0.0
 0
VERTEX
 8
WIRE
 10
 12.6000
 20
  8.6000
 30
0.0
 0
SEQEND
 8
WIRE
 0
POLYLINE
 8
WIRE
 66
1
 10
0.0
 20
0.0
 30
0.0
 0
VERTEX
 8
WIRE
 10
 12.6000
 20
  7.9000
 30
0.0
 0
VERTEX
 8
WIRE
 10
 12.6000
 20
  7.8000
 30
0.0
 0
SEQEND
 8
WIRE
 0
POLYLINE
 8
WIRE
 66
1
 10
0.0
 20
0.0
 30
0.0
 0
VERTEX
 8
WIRE
 10
 12.6000
 20
  7.6000
 30
0.0
 0
VERTEX
 8
WIRE
 10
 12.6000
 20
  7.1000
 30
0.0
 0
SEQEND
 8
WIRE
 0
POLYLINE
 8
WIRE
 66
1
 10
0.0
 20
0.0
 30
0.0
 0
VERTEX
 8
WIRE
 10
 12.6000
 20
  6.4000
 30
0.0
 0
VERTEX
 8
WIRE
 10
 12.6000
 20
  5.9000
 30
0.0
 0
SEQEND
 8
WIRE
 0
POLYLINE
 8
WIRE
 66
1
 10
0.0
 20
0.0
 30
0.0
 0
VERTEX
 8
WIRE
 10
 13.2000
 20
  4.9000
 30
0.0
 0
VERTEX
 8
WIRE
 10
 13.2000
 20
  3.5000
 30
0.0
 0
SEQEND
 8
WIRE
 0
POLYLINE
 8
WIRE
 66
1
 10
0.0
 20
0.0
 30
0.0
 0
VERTEX
 8
WIRE
 10
 13.8000
 20
  4.0000
 30
0.0
 0
VERTEX
 8
WIRE
 10
 13.8000
 20
  3.9000
 30
0.0
 0
SEQEND
 8
WIRE
 0
TEXT
 8
WIRETEXT
 10
 13.8000
 20
  3.9300
 30
0.0
 40
  0.0514
 1
PU
 0
POLYLINE
 8
WIRE
 66
1
 10
0.0
 20
0.0
 30
0.0
 0
VERTEX
 8
WIRE
 10
 14.7000
 20
  3.5000
 30
0.0
 0
VERTEX
 8
WIRE
 10
 14.7000
 20
  2.6000
 30
0.0
 0
SEQEND
 8
WIRE
 0
POLYLINE
 8
WIRE
 66
1
 10
0.0
 20
0.0
 30
0.0
 40
  0.0200
 41
  0.0200
 0
VERTEX
 8
WIRE
 10
  1.0000
 20
  8.3000
 30
0.0
 0
VERTEX
 8
WIRE
 10
  1.0000
 20
  7.5000
 30
0.0
 0
SEQEND
 8
WIRE
 0
POLYLINE
 8
WIRE
 66
1
 10
0.0
 20
0.0
 30
0.0
 40
  0.0200
 41
  0.0200
 0
VERTEX
 8
WIRE
 10
  9.3000
 20
  5.3000
 30
0.0
 0
VERTEX
 8
WIRE
 10
  9.3000
 20
  4.9000
 30
0.0
 0
SEQEND
 8
WIRE
 0
POLYLINE
 8
WIRE
 66
1
 10
0.0
 20
0.0
 30
0.0
 0
VERTEX
 8
WIRE
 10
  6.4000
 20
  9.2000
 30
0.0
 0
VERTEX
 8
WIRE
 10
  7.0000
 20
  9.2000
 30
0.0
 0
SEQEND
 8
WIRE
 0
POLYLINE
 8
WIRE
 66
1
 10
0.0
 20
0.0
 30
0.0
 0
VERTEX
 8
WIRE
 10
  9.9000
 20
  7.6000
 30
0.0
 0
VERTEX
 8
WIRE
 10
  9.9000
 20
  5.5000
 30
0.0
 0
SEQEND
 8
WIRE
 0
POLYLINE
 8
WIRE
 66
1
 10
0.0
 20
0.0
 30
0.0
 0
VERTEX
 8
WIRE
 10
  6.4000
 20
  7.4000
 30
0.0
 0
VERTEX
 8
WIRE
 10
  6.4000
 20
  5.6000
 30
0.0
 0
SEQEND
 8
WIRE
 0
POLYLINE
 8
WIRE
 66
1
 70
1
 10
0.0
 20
0.0
 30
0.0
 40
  0.0200
 41
  0.0200
 0
VERTEX
 8
WIRE
 10
  6.3900
 20
  5.6000
 30
0.0
 42
1.0
 0
VERTEX
 8
WIRE
 10
  6.4100
 20
  5.6000
 30
0.0
 42
1.0
 0
SEQEND
 8
WIRE
 0
POLYLINE
 8
WIRE
 66
1
 10
0.0
 20
0.0
 30
0.0
 0
VERTEX
 8
WIRE
 10
  6.6000
 20
  6.5000
 30
0.0
 0
VERTEX
 8
WIRE
 10
  6.6000
 20
  4.7000
 30
0.0
 0
SEQEND
 8
WIRE
 0
POLYLINE
 8
WIRE
 66
1
 70
1
 10
0.0
 20
0.0
 30
0.0
 40
  0.0200
 41
  0.0200
 0
VERTEX
 8
WIRE
 10
  6.5900
 20
  4.7000
 30
0.0
 42
1.0
 0
VERTEX
 8
WIRE
 10
  6.6100
 20
  4.7000
 30
0.0
 42
1.0
 0
SEQEND
 8
WIRE
 0
POLYLINE
 8
WIRE
 66
1
 10
0.0
 20
0.0
 30
0.0
 0
VERTEX
 8
WIRE
 10
  6.7000
 20
  6.3000
 30
0.0
 0
VERTEX
 8
WIRE
 10
  6.7000
 20
  4.5000
 30
0.0
 0
SEQEND
 8
WIRE
 0
POLYLINE
 8
WIRE
 66
1
 70
1
 10
0.0
 20
0.0
 30
0.0
 40
  0.0200
 41
  0.0200
 0
VERTEX
 8
WIRE
 10
  6.6900
 20
  4.5000
 30
0.0
 42
1.0
 0
VERTEX
 8
WIRE
 10
  6.7100
 20
  4.5000
 30
0.0
 42
1.0
 0
SEQEND
 8
WIRE
 0
POLYLINE
 8
WIRE
 66
1
 10
0.0
 20
0.0
 30
0.0
 0
VERTEX
 8
WIRE
 10
 10.2000
 20
  6.3000
 30
0.0
 0
VERTEX
 8
WIRE
 10
 10.2000
 20
  5.6000
 30
0.0
 0
SEQEND
 8
WIRE
 0
POLYLINE
 8
WIRE
 66
1
 10
0.0
 20
0.0
 30
0.0
 0
VERTEX
 8
WIRE
 10
  6.5000
 20
  6.2000
 30
0.0
 0
VERTEX
 8
WIRE
 10
  6.5000
 20
  4.4000
 30
0.0
 0
SEQEND
 8
WIRE
 0
POLYLINE
 8
WIRE
 66
1
 70
1
 10
0.0
 20
0.0
 30
0.0
 40
  0.0200
 41
  0.0200
 0
VERTEX
 8
WIRE
 10
  6.4900
 20
  4.4000
 30
0.0
 42
1.0
 0
VERTEX
 8
WIRE
 10
  6.5100
 20
  4.4000
 30
0.0
 42
1.0
 0
SEQEND
 8
WIRE
 0
POLYLINE
 8
WIRE
 66
1
 10
0.0
 20
0.0
 30
0.0
 0
VERTEX
 8
WIRE
 10
  6.4000
 20
  5.6000
 30
0.0
 0
VERTEX
 8
WIRE
 10
  6.4000
 20
  3.8000
 30
0.0
 0
SEQEND
 8
WIRE
 0
POLYLINE
 8
WIRE
 66
1
 10
0.0
 20
0.0
 30
0.0
 0
VERTEX
 8
WIRE
 10
  6.6000
 20
  4.7000
 30
0.0
 0
VERTEX
 8
WIRE
 10
  6.6000
 20
  2.9000
 30
0.0
 0
SEQEND
 8
WIRE
 0
POLYLINE
 8
WIRE
 66
1
 70
1
 10
0.0
 20
0.0
 30
0.0
 40
  0.0200
 41
  0.0200
 0
VERTEX
 8
WIRE
 10
  6.5900
 20
  2.9000
 30
0.0
 42
1.0
 0
VERTEX
 8
WIRE
 10
  6.6100
 20
  2.9000
 30
0.0
 42
1.0
 0
SEQEND
 8
WIRE
 0
POLYLINE
 8
WIRE
 66
1
 10
0.0
 20
0.0
 30
0.0
 0
VERTEX
 8
WIRE
 10
  6.7000
 20
  4.5000
 30
0.0
 0
VERTEX
 8
WIRE
 10
  6.7000
 20
  2.7000
 30
0.0
 0
SEQEND
 8
WIRE
 0
POLYLINE
 8
WIRE
 66
1
 70
1
 10
0.0
 20
0.0
 30
0.0
 40
  0.0200
 41
  0.0200
 0
VERTEX
 8
WIRE
 10
  6.6900
 20
  2.7000
 30
0.0
 42
1.0
 0
VERTEX
 8
WIRE
 10
  6.7100
 20
  2.7000
 30
0.0
 42
1.0
 0
SEQEND
 8
WIRE
 0
POLYLINE
 8
WIRE
 66
1
 10
0.0
 20
0.0
 30
0.0
 0
VERTEX
 8
WIRE
 10
  6.5000
 20
  4.4000
 30
0.0
 0
VERTEX
 8
WIRE
 10
  6.5000
 20
  2.6000
 30
0.0
 0
SEQEND
 8
WIRE
 0
POLYLINE
 8
WIRE
 66
1
 70
1
 10
0.0
 20
0.0
 30
0.0
 40
  0.0200
 41
  0.0200
 0
VERTEX
 8
WIRE
 10
  6.4900
 20
  2.6000
 30
0.0
 42
1.0
 0
VERTEX
 8
WIRE
 10
  6.5100
 20
  2.6000
 30
0.0
 42
1.0
 0
SEQEND
 8
WIRE
 0
POLYLINE
 8
WIRE
 66
1
 10
0.0
 20
0.0
 30
0.0
 0
VERTEX
 8
WIRE
 10
  6.6000
 20
  2.9000
 30
0.0
 0
VERTEX
 8
WIRE
 10
  6.6000
 20
  2.1000
 30
0.0
 0
SEQEND
 8
WIRE
 0
POLYLINE
 8
WIRE
 66
1
 10
0.0
 20
0.0
 30
0.0
 0
VERTEX
 8
WIRE
 10
 10.1000
 20
  2.7000
 30
0.0
 0
VERTEX
 8
WIRE
 10
 10.1000
 20
  1.4000
 30
0.0
 0
SEQEND
 8
WIRE
 0
POLYLINE
 8
WIRE
 66
1
 70
1
 10
0.0
 20
0.0
 30
0.0
 40
  0.0200
 41
  0.0200
 0
VERTEX
 8
WIRE
 10
 10.0900
 20
  1.4000
 30
0.0
 42
1.0
 0
VERTEX
 8
WIRE
 10
 10.1100
 20
  1.4000
 30
0.0
 42
1.0
 0
SEQEND
 8
WIRE
 0
POLYLINE
 8
WIRE
 66
1
 10
0.0
 20
0.0
 30
0.0
 0
VERTEX
 8
WIRE
 10
  6.5000
 20
  2.6000
 30
0.0
 0
VERTEX
 8
WIRE
 10
  6.5000
 20
  1.9000
 30
0.0
 0
SEQEND
 8
WIRE
 0
POLYLINE
 8
WIRE
 66
1
 70
1
 10
0.0
 20
0.0
 30
0.0
 40
  0.0200
 41
  0.0200
 0
VERTEX
 8
WIRE
 10
  6.4900
 20
  1.9000
 30
0.0
 42
1.0
 0
VERTEX
 8
WIRE
 10
  6.5100
 20
  1.9000
 30
0.0
 42
1.0
 0
SEQEND
 8
WIRE
 0
POLYLINE
 8
WIRE
 66
1
 10
0.0
 20
0.0
 30
0.0
 0
VERTEX
 8
WIRE
 10
  6.6000
 20
  2.1000
 30
0.0
 0
VERTEX
 8
WIRE
 10
  6.6000
 20
  1.5000
 30
0.0
 0
SEQEND
 8
WIRE
 0
POLYLINE
 8
WIRE
 66
1
 10
0.0
 20
0.0
 30
0.0
 0
VERTEX
 8
WIRE
 10
  6.5000
 20
  1.9000
 30
0.0
 0
VERTEX
 8
WIRE
 10
  6.5000
 20
  0.6000
 30
0.0
 0
SEQEND
 8
WIRE
 0
POLYLINE
 8
WIRE
 66
1
 10
0.0
 20
0.0
 30
0.0
 40
  0.0200
 41
  0.0200
 0
VERTEX
 8
WIRE
 10
  3.9000
 20
  9.3000
 30
0.0
 0
VERTEX
 8
WIRE
 10
  3.8000
 20
  9.4000
 30
0.0
 0
SEQEND
 8
WIRE
 0
POLYLINE
 8
WIRE
 66
1
 10
0.0
 20
0.0
 30
0.0
 40
  0.0200
 41
  0.0200
 0
VERTEX
 8
WIRE
 10
  1.0000
 20
  8.3000
 30
0.0
 0
VERTEX
 8
WIRE
 10
  0.9000
 20
  8.4000
 30
0.0
 0
SEQEND
 8
WIRE
 0
POLYLINE
 8
WIRE
 66
1
 10
0.0
 20
0.0
 30
0.0
 40
  0.0200
 41
  0.0200
 0
VERTEX
 8
WIRE
 10
  9.3000
 20
  5.3000
 30
0.0
 0
VERTEX
 8
WIRE
 10
  9.2000
 20
  5.4000
 30
0.0
 0
SEQEND
 8
WIRE
 0
POLYLINE
 8
WIRE
 66
1
 10
0.0
 20
0.0
 30
0.0
 40
  0.0200
 41
  0.0200
 0
VERTEX
 8
WIRE
 10
  3.9000
 20
  5.4000
 30
0.0
 0
VERTEX
 8
WIRE
 10
  3.9000
 20
  3.1000
 30
0.0
 0
SEQEND
 8
WIRE
 0
POLYLINE
 8
WIRE
 66
1
 10
0.0
 20
0.0
 30
0.0
 40
  0.0200
 41
  0.0200
 0
VERTEX
 8
WIRE
 10
  3.9000
 20
  8.9000
 30
0.0
 0
VERTEX
 8
WIRE
 10
  3.9000
 20
  5.4000
 30
0.0
 0
SEQEND
 8
WIRE
 0
POLYLINE
 8
WIRE
 66
1
 10
0.0
 20
0.0
 30
0.0
 40
  0.0200
 41
  0.0200
 0
VERTEX
 8
WIRE
 10
  3.9000
 20
  9.3000
 30
0.0
 0
VERTEX
 8
WIRE
 10
  3.9000
 20
  8.9000
 30
0.0
 0
SEQEND
 8
WIRE
 0
POLYLINE
 8
WIRE
 66
1
 10
0.0
 20
0.0
 30
0.0
 40
  0.0200
 41
  0.0200
 0
VERTEX
 8
WIRE
 10
  9.3000
 20
  4.9000
 30
0.0
 0
VERTEX
 8
WIRE
 10
  9.3000
 20
  4.8000
 30
0.0
 0
SEQEND
 8
WIRE
 0
POLYLINE
 8
WIRE
 66
1
 10
0.0
 20
0.0
 30
0.0
 0
VERTEX
 8
WIRE
 10
  3.8000
 20
  6.4000
 30
0.0
 0
VERTEX
 8
WIRE
 10
  3.8000
 20
  4.6000
 30
0.0
 0
SEQEND
 8
WIRE
 0
POLYLINE
 8
WIRE
 66
1
 70
1
 10
0.0
 20
0.0
 30
0.0
 40
  0.0200
 41
  0.0200
 0
VERTEX
 8
WIRE
 10
  3.7900
 20
  4.6000
 30
0.0
 42
1.0
 0
VERTEX
 8
WIRE
 10
  3.8100
 20
  4.6000
 30
0.0
 42
1.0
 0
SEQEND
 8
WIRE
 0
POLYLINE
 8
WIRE
 66
1
 10
0.0
 20
0.0
 30
0.0
 0
VERTEX
 8
WIRE
 10
  3.8000
 20
  4.6000
 30
0.0
 0
VERTEX
 8
WIRE
 10
  3.8000
 20
  2.8000
 30
0.0
 0
SEQEND
 8
WIRE
 0
POLYLINE
 8
WIRE
 66
1
 10
0.0
 20
0.0
 30
0.0
 0
VERTEX
 8
WIRE
 10
  6.7000
 20
  2.7000
 30
0.0
 0
VERTEX
 8
WIRE
 10
  6.7000
 20
  2.3000
 30
0.0
 0
SEQEND
 8
WIRE
 0
POLYLINE
 8
WIRE
 66
1
 10
0.0
 20
0.0
 30
0.0
 0
VERTEX
 8
WIRE
 10
  2.1000
 20
  1.9000
 30
0.0
 0
VERTEX
 8
WIRE
 10
  3.7000
 20
  1.9000
 30
0.0
 0
SEQEND
 8
WIRE
 0
TEXT
 8
WIRETEXT
 10
  2.2000
 20
  1.9300
 30
0.0
 40
  0.0514
 1
SysClk
 0
POLYLINE
 8
WIRE
 66
1
 10
0.0
 20
0.0
 30
0.0
 0
VERTEX
 8
WIRE
 10
  3.8000
 20
  8.2000
 30
0.0
 0
VERTEX
 8
WIRE
 10
  4.4000
 20
  8.2000
 30
0.0
 0
SEQEND
 8
WIRE
 0
POLYLINE
 8
WIRE
 66
1
 10
0.0
 20
0.0
 30
0.0
 0
VERTEX
 8
WIRE
 10
 10.1000
 20
  1.4000
 30
0.0
 0
VERTEX
 8
WIRE
 10
 10.3000
 20
  1.4000
 30
0.0
 0
SEQEND
 8
WIRE
 0
POLYLINE
 8
WIRE
 66
1
 10
0.0
 20
0.0
 30
0.0
 0
VERTEX
 8
WIRE
 10
  1.3000
 20
  0.5000
 30
0.0
 0
VERTEX
 8
WIRE
 10
  2.9000
 20
  0.5000
 30
0.0
 0
SEQEND
 8
WIRE
 0
POLYLINE
 8
PARTS
 66
1
 10
0.0
 20
0.0
 30
0.0
 0
VERTEX
 8
PARTS
 10
  1.4000
 20
  7.8000
 30
0.0
 0
VERTEX
 8
PARTS
 10
  1.6000
 20
  7.8000
 30
0.0
 0
SEQEND
 8
PARTS
 0
POLYLINE
 8
PARTS
 66
1
 10
0.0
 20
0.0
 30
0.0
 0
VERTEX
 8
PARTS
 10
  1.4300
 20
  7.7700
 30
0.0
 0
VERTEX
 8
PARTS
 10
  1.5700
 20
  7.7700
 30
0.0
 0
SEQEND
 8
PARTS
 0
POLYLINE
 8
PARTS
 66
1
 10
0.0
 20
0.0
 30
0.0
 0
VERTEX
 8
PARTS
 10
  1.5400
 20
  7.7400
 30
0.0
 0
VERTEX
 8
PARTS
 10
  1.4600
 20
  7.7400
 30
0.0
 0
SEQEND
 8
PARTS
 0
POLYLINE
 8
PARTS
 66
1
 10
0.0
 20
0.0
 30
0.0
 0
VERTEX
 8
PARTS
 10
  1.4900
 20
  7.7100
 30
0.0
 0
VERTEX
 8
PARTS
 10
  1.5100
 20
  7.7100
 30
0.0
 0
SEQEND
 8
PARTS
 0
TEXT
 8
PARTTEXT
 10
  2.8900
 20
  8.1586
 30
0.0
 40
  0.0514
 1
STROBE
 0
POLYLINE
 8
PARTS
 66
1
 10
0.0
 20
0.0
 30
0.0
 0
VERTEX
 8
PARTS
 10
  3.3000
 20
  8.2500
 30
0.0
 0
VERTEX
 8
PARTS
 10
  3.5000
 20
  8.2500
 30
0.0
 0
SEQEND
 8
PARTS
 0
POLYLINE
 8
PARTS
 66
1
 10
0.0
 20
0.0
 30
0.0
 0
VERTEX
 8
PARTS
 10
  3.5000
 20
  8.2500
 30
0.0
 0
VERTEX
 8
PARTS
 10
  3.6000
 20
  8.2000
 30
0.0
 0
SEQEND
 8
PARTS
 0
POLYLINE
 8
PARTS
 66
1
 10
0.0
 20
0.0
 30
0.0
 0
VERTEX
 8
PARTS
 10
  3.6000
 20
  8.2000
 30
0.0
 0
VERTEX
 8
PARTS
 10
  3.5000
 20
  8.1500
 30
0.0
 0
SEQEND
 8
PARTS
 0
POLYLINE
 8
PARTS
 66
1
 10
0.0
 20
0.0
 30
0.0
 0
VERTEX
 8
PARTS
 10
  3.5000
 20
  8.1500
 30
0.0
 0
VERTEX
 8
PARTS
 10
  3.3000
 20
  8.1500
 30
0.0
 0
SEQEND
 8
PARTS
 0
POLYLINE
 8
PARTS
 66
1
 10
0.0
 20
0.0
 30
0.0
 0
VERTEX
 8
PARTS
 10
  3.3000
 20
  8.1500
 30
0.0
 0
VERTEX
 8
PARTS
 10
  3.3000
 20
  8.2500
 30
0.0
 0
SEQEND
 8
PARTS
 0
TEXT
 8
PARTTEXT
 10
  3.1400
 20
  9.3686
 30
0.0
 40
  0.0514
 1
D[0..15]
 0
POLYLINE
 8
PARTS
 66
1
 10
0.0
 20
0.0
 30
0.0
 0
VERTEX
 8
PARTS
 10
  3.8000
 20
  9.4500
 30
0.0
 0
VERTEX
 8
PARTS
 10
  3.6000
 20
  9.4500
 30
0.0
 0
SEQEND
 8
PARTS
 0
POLYLINE
 8
PARTS
 66
1
 10
0.0
 20
0.0
 30
0.0
 0
VERTEX
 8
PARTS
 10
  3.6000
 20
  9.4500
 30
0.0
 0
VERTEX
 8
PARTS
 10
  3.5000
 20
  9.4000
 30
0.0
 0
SEQEND
 8
PARTS
 0
POLYLINE
 8
PARTS
 66
1
 10
0.0
 20
0.0
 30
0.0
 0
VERTEX
 8
PARTS
 10
  3.5000
 20
  9.4000
 30
0.0
 0
VERTEX
 8
PARTS
 10
  3.6000
 20
  9.3500
 30
0.0
 0
SEQEND
 8
PARTS
 0
POLYLINE
 8
PARTS
 66
1
 10
0.0
 20
0.0
 30
0.0
 0
VERTEX
 8
PARTS
 10
  3.6000
 20
  9.3500
 30
0.0
 0
VERTEX
 8
PARTS
 10
  3.8000
 20
  9.3500
 30
0.0
 0
SEQEND
 8
PARTS
 0
POLYLINE
 8
PARTS
 66
1
 10
0.0
 20
0.0
 30
0.0
 0
VERTEX
 8
PARTS
 10
  3.8000
 20
  9.3500
 30
0.0
 0
VERTEX
 8
PARTS
 10
  3.8000
 20
  9.4500
 30
0.0
 0
SEQEND
 8
PARTS
 0
TEXT
 8
PARTTEXT
 10
  0.2400
 20
  8.3686
 30
0.0
 40
  0.0514
 1
D[0..15]
 0
POLYLINE
 8
PARTS
 66
1
 10
0.0
 20
0.0
 30
0.0
 0
VERTEX
 8
PARTS
 10
  0.9000
 20
  8.4500
 30
0.0
 0
VERTEX
 8
PARTS
 10
  0.7000
 20
  8.4500
 30
0.0
 0
SEQEND
 8
PARTS
 0
POLYLINE
 8
PARTS
 66
1
 10
0.0
 20
0.0
 30
0.0
 0
VERTEX
 8
PARTS
 10
  0.7000
 20
  8.4500
 30
0.0
 0
VERTEX
 8
PARTS
 10
  0.6000
 20
  8.4000
 30
0.0
 0
SEQEND
 8
PARTS
 0
POLYLINE
 8
PARTS
 66
1
 10
0.0
 20
0.0
 30
0.0
 0
VERTEX
 8
PARTS
 10
  0.6000
 20
  8.4000
 30
0.0
 0
VERTEX
 8
PARTS
 10
  0.7000
 20
  8.3500
 30
0.0
 0
SEQEND
 8
PARTS
 0
POLYLINE
 8
PARTS
 66
1
 10
0.0
 20
0.0
 30
0.0
 0
VERTEX
 8
PARTS
 10
  0.7000
 20
  8.3500
 30
0.0
 0
VERTEX
 8
PARTS
 10
  0.9000
 20
  8.3500
 30
0.0
 0
SEQEND
 8
PARTS
 0
POLYLINE
 8
PARTS
 66
1
 10
0.0
 20
0.0
 30
0.0
 0
VERTEX
 8
PARTS
 10
  0.9000
 20
  8.3500
 30
0.0
 0
VERTEX
 8
PARTS
 10
  0.9000
 20
  8.4500
 30
0.0
 0
SEQEND
 8
PARTS
 0
TEXT
 8
PARTTEXT
 10
  9.3900
 20
  5.2586
 30
0.0
 40
  0.0514
 1
STROBE
 0
POLYLINE
 8
PARTS
 66
1
 10
0.0
 20
0.0
 30
0.0
 0
VERTEX
 8
PARTS
 10
  9.8000
 20
  5.3500
 30
0.0
 0
VERTEX
 8
PARTS
 10
 10.0000
 20
  5.3500
 30
0.0
 0
SEQEND
 8
PARTS
 0
POLYLINE
 8
PARTS
 66
1
 10
0.0
 20
0.0
 30
0.0
 0
VERTEX
 8
PARTS
 10
 10.0000
 20
  5.3500
 30
0.0
 0
VERTEX
 8
PARTS
 10
 10.1000
 20
  5.3000
 30
0.0
 0
SEQEND
 8
PARTS
 0
POLYLINE
 8
PARTS
 66
1
 10
0.0
 20
0.0
 30
0.0
 0
VERTEX
 8
PARTS
 10
 10.1000
 20
  5.3000
 30
0.0
 0
VERTEX
 8
PARTS
 10
 10.0000
 20
  5.2500
 30
0.0
 0
SEQEND
 8
PARTS
 0
POLYLINE
 8
PARTS
 66
1
 10
0.0
 20
0.0
 30
0.0
 0
VERTEX
 8
PARTS
 10
 10.0000
 20
  5.2500
 30
0.0
 0
VERTEX
 8
PARTS
 10
  9.8000
 20
  5.2500
 30
0.0
 0
SEQEND
 8
PARTS
 0
POLYLINE
 8
PARTS
 66
1
 10
0.0
 20
0.0
 30
0.0
 0
VERTEX
 8
PARTS
 10
  9.8000
 20
  5.2500
 30
0.0
 0
VERTEX
 8
PARTS
 10
  9.8000
 20
  5.3500
 30
0.0
 0
SEQEND
 8
PARTS
 0
TEXT
 8
PARTTEXT
 10
  8.5400
 20
  5.3686
 30
0.0
 40
  0.0514
 1
D[0..15]
 0
POLYLINE
 8
PARTS
 66
1
 10
0.0
 20
0.0
 30
0.0
 0
VERTEX
 8
PARTS
 10
  9.2000
 20
  5.4500
 30
0.0
 0
VERTEX
 8
PARTS
 10
  9.0000
 20
  5.4500
 30
0.0
 0
SEQEND
 8
PARTS
 0
POLYLINE
 8
PARTS
 66
1
 10
0.0
 20
0.0
 30
0.0
 0
VERTEX
 8
PARTS
 10
  9.0000
 20
  5.4500
 30
0.0
 0
VERTEX
 8
PARTS
 10
  8.9000
 20
  5.4000
 30
0.0
 0
SEQEND
 8
PARTS
 0
POLYLINE
 8
PARTS
 66
1
 10
0.0
 20
0.0
 30
0.0
 0
VERTEX
 8
PARTS
 10
  8.9000
 20
  5.4000
 30
0.0
 0
VERTEX
 8
PARTS
 10
  9.0000
 20
  5.3500
 30
0.0
 0
SEQEND
 8
PARTS
 0
POLYLINE
 8
PARTS
 66
1
 10
0.0
 20
0.0
 30
0.0
 0
VERTEX
 8
PARTS
 10
  9.0000
 20
  5.3500
 30
0.0
 0
VERTEX
 8
PARTS
 10
  9.2000
 20
  5.3500
 30
0.0
 0
SEQEND
 8
PARTS
 0
POLYLINE
 8
PARTS
 66
1
 10
0.0
 20
0.0
 30
0.0
 0
VERTEX
 8
PARTS
 10
  9.2000
 20
  5.3500
 30
0.0
 0
VERTEX
 8
PARTS
 10
  9.2000
 20
  5.4500
 30
0.0
 0
SEQEND
 8
PARTS
 0
TEXT
 8
PARTTEXT
 10
 11.6900
 20
  9.2586
 30
0.0
 40
  0.0514
 1
SystemClk
 0
POLYLINE
 8
PARTS
 66
1
 10
0.0
 20
0.0
 30
0.0
 0
VERTEX
 8
PARTS
 10
 12.2000
 20
  9.3500
 30
0.0
 0
VERTEX
 8
PARTS
 10
 12.4000
 20
  9.3500
 30
0.0
 0
SEQEND
 8
PARTS
 0
POLYLINE
 8
PARTS
 66
1
 10
0.0
 20
0.0
 30
0.0
 0
VERTEX
 8
PARTS
 10
 12.4000
 20
  9.3500
 30
0.0
 0
VERTEX
 8
PARTS
 10
 12.5000
 20
  9.3000
 30
0.0
 0
SEQEND
 8
PARTS
 0
POLYLINE
 8
PARTS
 66
1
 10
0.0
 20
0.0
 30
0.0
 0
VERTEX
 8
PARTS
 10
 12.5000
 20
  9.3000
 30
0.0
 0
VERTEX
 8
PARTS
 10
 12.4000
 20
  9.2500
 30
0.0
 0
SEQEND
 8
PARTS
 0
POLYLINE
 8
PARTS
 66
1
 10
0.0
 20
0.0
 30
0.0
 0
VERTEX
 8
PARTS
 10
 12.4000
 20
  9.2500
 30
0.0
 0
VERTEX
 8
PARTS
 10
 12.2000
 20
  9.2500
 30
0.0
 0
SEQEND
 8
PARTS
 0
POLYLINE
 8
PARTS
 66
1
 10
0.0
 20
0.0
 30
0.0
 0
VERTEX
 8
PARTS
 10
 12.2000
 20
  9.2500
 30
0.0
 0
VERTEX
 8
PARTS
 10
 12.2000
 20
  9.3500
 30
0.0
 0
SEQEND
 8
PARTS
 0
TEXT
 8
PARTTEXT
 10
  0.2100
 20
  1.0586
 30
0.0
 40
  0.0514
 1
Trig
 0
POLYLINE
 8
PARTS
 66
1
 10
0.0
 20
0.0
 30
0.0
 0
VERTEX
 8
PARTS
 10
  0.4000
 20
  1.1500
 30
0.0
 0
VERTEX
 8
PARTS
 10
  0.6000
 20
  1.1500
 30
0.0
 0
SEQEND
 8
PARTS
 0
POLYLINE
 8
PARTS
 66
1
 10
0.0
 20
0.0
 30
0.0
 0
VERTEX
 8
PARTS
 10
  0.6000
 20
  1.1500
 30
0.0
 0
VERTEX
 8
PARTS
 10
  0.7000
 20
  1.1000
 30
0.0
 0
SEQEND
 8
PARTS
 0
POLYLINE
 8
PARTS
 66
1
 10
0.0
 20
0.0
 30
0.0
 0
VERTEX
 8
PARTS
 10
  0.7000
 20
  1.1000
 30
0.0
 0
VERTEX
 8
PARTS
 10
  0.6000
 20
  1.0500
 30
0.0
 0
SEQEND
 8
PARTS
 0
POLYLINE
 8
PARTS
 66
1
 10
0.0
 20
0.0
 30
0.0
 0
VERTEX
 8
PARTS
 10
  0.6000
 20
  1.0500
 30
0.0
 0
VERTEX
 8
PARTS
 10
  0.4000
 20
  1.0500
 30
0.0
 0
SEQEND
 8
PARTS
 0
POLYLINE
 8
PARTS
 66
1
 10
0.0
 20
0.0
 30
0.0
 0
VERTEX
 8
PARTS
 10
  0.4000
 20
  1.0500
 30
0.0
 0
VERTEX
 8
PARTS
 10
  0.4000
 20
  1.1500
 30
0.0
 0
SEQEND
 8
PARTS
 0
TEXT
 8
PARTTEXT
 10
 12.3200
 20
  4.6686
 30
0.0
 40
  0.0514
 1
IPPEnbld
 0
POLYLINE
 8
PARTS
 66
1
 10
0.0
 20
0.0
 30
0.0
 0
VERTEX
 8
PARTS
 10
 12.0000
 20
  4.7000
 30
0.0
 0
VERTEX
 8
PARTS
 10
 12.1000
 20
  4.7500
 30
0.0
 0
SEQEND
 8
PARTS
 0
POLYLINE
 8
PARTS
 66
1
 10
0.0
 20
0.0
 30
0.0
 0
VERTEX
 8
PARTS
 10
 12.1000
 20
  4.7500
 30
0.0
 0
VERTEX
 8
PARTS
 10
 12.3000
 20
  4.7500
 30
0.0
 0
SEQEND
 8
PARTS
 0
POLYLINE
 8
PARTS
 66
1
 10
0.0
 20
0.0
 30
0.0
 0
VERTEX
 8
PARTS
 10
 12.3000
 20
  4.7500
 30
0.0
 0
VERTEX
 8
PARTS
 10
 12.3000
 20
  4.6500
 30
0.0
 0
SEQEND
 8
PARTS
 0
POLYLINE
 8
PARTS
 66
1
 10
0.0
 20
0.0
 30
0.0
 0
VERTEX
 8
PARTS
 10
 12.3000
 20
  4.6500
 30
0.0
 0
VERTEX
 8
PARTS
 10
 12.1000
 20
  4.6500
 30
0.0
 0
SEQEND
 8
PARTS
 0
POLYLINE
 8
PARTS
 66
1
 10
0.0
 20
0.0
 30
0.0
 0
VERTEX
 8
PARTS
 10
 12.1000
 20
  4.6500
 30
0.0
 0
VERTEX
 8
PARTS
 10
 12.0000
 20
  4.7000
 30
0.0
 0
SEQEND
 8
PARTS
 0
TEXT
 8
PARTTEXT
 10
 10.6200
 20
  1.3686
 30
0.0
 40
  0.0514
 1
UPDSTB*
 0
POLYLINE
 8
PARTS
 66
1
 10
0.0
 20
0.0
 30
0.0
 0
VERTEX
 8
PARTS
 10
 10.3000
 20
  1.4000
 30
0.0
 0
VERTEX
 8
PARTS
 10
 10.4000
 20
  1.4500
 30
0.0
 0
SEQEND
 8
PARTS
 0
POLYLINE
 8
PARTS
 66
1
 10
0.0
 20
0.0
 30
0.0
 0
VERTEX
 8
PARTS
 10
 10.4000
 20
  1.4500
 30
0.0
 0
VERTEX
 8
PARTS
 10
 10.6000
 20
  1.4500
 30
0.0
 0
SEQEND
 8
PARTS
 0
POLYLINE
 8
PARTS
 66
1
 10
0.0
 20
0.0
 30
0.0
 0
VERTEX
 8
PARTS
 10
 10.6000
 20
  1.4500
 30
0.0
 0
VERTEX
 8
PARTS
 10
 10.6000
 20
  1.3500
 30
0.0
 0
SEQEND
 8
PARTS
 0
POLYLINE
 8
PARTS
 66
1
 10
0.0
 20
0.0
 30
0.0
 0
VERTEX
 8
PARTS
 10
 10.6000
 20
  1.3500
 30
0.0
 0
VERTEX
 8
PARTS
 10
 10.4000
 20
  1.3500
 30
0.0
 0
SEQEND
 8
PARTS
 0
POLYLINE
 8
PARTS
 66
1
 10
0.0
 20
0.0
 30
0.0
 0
VERTEX
 8
PARTS
 10
 10.4000
 20
  1.3500
 30
0.0
 0
VERTEX
 8
PARTS
 10
 10.3000
 20
  1.4000
 30
0.0
 0
SEQEND
 8
PARTS
 0
TEXT
 8
PARTTEXT
 10
 12.4300
 20
  1.6586
 30
0.0
 40
  0.0514
 1
PU
 0
POLYLINE
 8
PARTS
 66
1
 10
0.0
 20
0.0
 30
0.0
 0
VERTEX
 8
PARTS
 10
 12.6000
 20
  1.7500
 30
0.0
 0
VERTEX
 8
PARTS
 10
 12.8000
 20
  1.7500
 30
0.0
 0
SEQEND
 8
PARTS
 0
POLYLINE
 8
PARTS
 66
1
 10
0.0
 20
0.0
 30
0.0
 0
VERTEX
 8
PARTS
 10
 12.8000
 20
  1.7500
 30
0.0
 0
VERTEX
 8
PARTS
 10
 12.9000
 20
  1.7000
 30
0.0
 0
SEQEND
 8
PARTS
 0
POLYLINE
 8
PARTS
 66
1
 10
0.0
 20
0.0
 30
0.0
 0
VERTEX
 8
PARTS
 10
 12.9000
 20
  1.7000
 30
0.0
 0
VERTEX
 8
PARTS
 10
 12.8000
 20
  1.6500
 30
0.0
 0
SEQEND
 8
PARTS
 0
POLYLINE
 8
PARTS
 66
1
 10
0.0
 20
0.0
 30
0.0
 0
VERTEX
 8
PARTS
 10
 12.8000
 20
  1.6500
 30
0.0
 0
VERTEX
 8
PARTS
 10
 12.6000
 20
  1.6500
 30
0.0
 0
SEQEND
 8
PARTS
 0
POLYLINE
 8
PARTS
 66
1
 10
0.0
 20
0.0
 30
0.0
 0
VERTEX
 8
PARTS
 10
 12.6000
 20
  1.6500
 30
0.0
 0
VERTEX
 8
PARTS
 10
 12.6000
 20
  1.7500
 30
0.0
 0
SEQEND
 8
PARTS
 0
TEXT
 8
PARTTEXT
 10
 14.2200
 20
  6.4686
 30
0.0
 40
  0.0514
 1
RES*
 0
POLYLINE
 8
PARTS
 66
1
 10
0.0
 20
0.0
 30
0.0
 0
VERTEX
 8
PARTS
 10
 13.9000
 20
  6.5000
 30
0.0
 0
VERTEX
 8
PARTS
 10
 14.0000
 20
  6.5500
 30
0.0
 0
SEQEND
 8
PARTS
 0
POLYLINE
 8
PARTS
 66
1
 10
0.0
 20
0.0
 30
0.0
 0
VERTEX
 8
PARTS
 10
 14.0000
 20
  6.5500
 30
0.0
 0
VERTEX
 8
PARTS
 10
 14.2000
 20
  6.5500
 30
0.0
 0
SEQEND
 8
PARTS
 0
POLYLINE
 8
PARTS
 66
1
 10
0.0
 20
0.0
 30
0.0
 0
VERTEX
 8
PARTS
 10
 14.2000
 20
  6.5500
 30
0.0
 0
VERTEX
 8
PARTS
 10
 14.2000
 20
  6.4500
 30
0.0
 0
SEQEND
 8
PARTS
 0
POLYLINE
 8
PARTS
 66
1
 10
0.0
 20
0.0
 30
0.0
 0
VERTEX
 8
PARTS
 10
 14.2000
 20
  6.4500
 30
0.0
 0
VERTEX
 8
PARTS
 10
 14.0000
 20
  6.4500
 30
0.0
 0
SEQEND
 8
PARTS
 0
POLYLINE
 8
PARTS
 66
1
 10
0.0
 20
0.0
 30
0.0
 0
VERTEX
 8
PARTS
 10
 14.0000
 20
  6.4500
 30
0.0
 0
VERTEX
 8
PARTS
 10
 13.9000
 20
  6.5000
 30
0.0
 0
SEQEND
 8
PARTS
 0
TEXT
 8
PARTTEXT
 10
 14.2200
 20
  7.6686
 30
0.0
 40
  0.0514
 1
DDS_RES*
 0
POLYLINE
 8
PARTS
 66
1
 10
0.0
 20
0.0
 30
0.0
 0
VERTEX
 8
PARTS
 10
 13.9000
 20
  7.7000
 30
0.0
 0
VERTEX
 8
PARTS
 10
 14.0000
 20
  7.7500
 30
0.0
 0
SEQEND
 8
PARTS
 0
POLYLINE
 8
PARTS
 66
1
 10
0.0
 20
0.0
 30
0.0
 0
VERTEX
 8
PARTS
 10
 14.0000
 20
  7.7500
 30
0.0
 0
VERTEX
 8
PARTS
 10
 14.2000
 20
  7.7500
 30
0.0
 0
SEQEND
 8
PARTS
 0
POLYLINE
 8
PARTS
 66
1
 10
0.0
 20
0.0
 30
0.0
 0
VERTEX
 8
PARTS
 10
 14.2000
 20
  7.7500
 30
0.0
 0
VERTEX
 8
PARTS
 10
 14.2000
 20
  7.6500
 30
0.0
 0
SEQEND
 8
PARTS
 0
POLYLINE
 8
PARTS
 66
1
 10
0.0
 20
0.0
 30
0.0
 0
VERTEX
 8
PARTS
 10
 14.2000
 20
  7.6500
 30
0.0
 0
VERTEX
 8
PARTS
 10
 14.0000
 20
  7.6500
 30
0.0
 0
SEQEND
 8
PARTS
 0
POLYLINE
 8
PARTS
 66
1
 10
0.0
 20
0.0
 30
0.0
 0
VERTEX
 8
PARTS
 10
 14.0000
 20
  7.6500
 30
0.0
 0
VERTEX
 8
PARTS
 10
 13.9000
 20
  7.7000
 30
0.0
 0
SEQEND
 8
PARTS
 0
POLYLINE
 8
WIRE
 66
1
 10
0.0
 20
0.0
 30
0.0
 0
VERTEX
 8
WIRE
 10
  4.0000
 20
  9.1000
 30
0.0
 0
VERTEX
 8
WIRE
 10
  3.9000
 20
  9.2000
 30
0.0
 0
SEQEND
 8
WIRE
 0
POLYLINE
 8
WIRE
 66
1
 10
0.0
 20
0.0
 30
0.0
 0
VERTEX
 8
WIRE
 10
  4.0000
 20
  9.0000
 30
0.0
 0
VERTEX
 8
WIRE
 10
  3.9000
 20
  9.1000
 30
0.0
 0
SEQEND
 8
WIRE
 0
POLYLINE
 8
WIRE
 66
1
 10
0.0
 20
0.0
 30
0.0
 0
VERTEX
 8
WIRE
 10
  4.0000
 20
  8.9000
 30
0.0
 0
VERTEX
 8
WIRE
 10
  3.9000
 20
  9.0000
 30
0.0
 0
SEQEND
 8
WIRE
 0
POLYLINE
 8
WIRE
 66
1
 10
0.0
 20
0.0
 30
0.0
 0
VERTEX
 8
WIRE
 10
  4.0000
 20
  8.8000
 30
0.0
 0
VERTEX
 8
WIRE
 10
  3.9000
 20
  8.9000
 30
0.0
 0
SEQEND
 8
WIRE
 0
POLYLINE
 8
WIRE
 66
1
 10
0.0
 20
0.0
 30
0.0
 0
VERTEX
 8
WIRE
 10
  4.0000
 20
  8.7000
 30
0.0
 0
VERTEX
 8
WIRE
 10
  3.9000
 20
  8.8000
 30
0.0
 0
SEQEND
 8
WIRE
 0
POLYLINE
 8
WIRE
 66
1
 10
0.0
 20
0.0
 30
0.0
 0
VERTEX
 8
WIRE
 10
  4.0000
 20
  8.6000
 30
0.0
 0
VERTEX
 8
WIRE
 10
  3.9000
 20
  8.7000
 30
0.0
 0
SEQEND
 8
WIRE
 0
POLYLINE
 8
WIRE
 66
1
 10
0.0
 20
0.0
 30
0.0
 0
VERTEX
 8
WIRE
 10
  4.0000
 20
  8.5000
 30
0.0
 0
VERTEX
 8
WIRE
 10
  3.9000
 20
  8.6000
 30
0.0
 0
SEQEND
 8
WIRE
 0
POLYLINE
 8
WIRE
 66
1
 10
0.0
 20
0.0
 30
0.0
 0
VERTEX
 8
WIRE
 10
  4.0000
 20
  8.4000
 30
0.0
 0
VERTEX
 8
WIRE
 10
  3.9000
 20
  8.5000
 30
0.0
 0
SEQEND
 8
WIRE
 0
POLYLINE
 8
WIRE
 66
1
 10
0.0
 20
0.0
 30
0.0
 0
VERTEX
 8
WIRE
 10
  4.0000
 20
  7.3000
 30
0.0
 0
VERTEX
 8
WIRE
 10
  3.9000
 20
  7.4000
 30
0.0
 0
SEQEND
 8
WIRE
 0
POLYLINE
 8
WIRE
 66
1
 10
0.0
 20
0.0
 30
0.0
 0
VERTEX
 8
WIRE
 10
  4.0000
 20
  7.2000
 30
0.0
 0
VERTEX
 8
WIRE
 10
  3.9000
 20
  7.3000
 30
0.0
 0
SEQEND
 8
WIRE
 0
POLYLINE
 8
WIRE
 66
1
 10
0.0
 20
0.0
 30
0.0
 0
VERTEX
 8
WIRE
 10
  4.0000
 20
  7.1000
 30
0.0
 0
VERTEX
 8
WIRE
 10
  3.9000
 20
  7.2000
 30
0.0
 0
SEQEND
 8
WIRE
 0
POLYLINE
 8
WIRE
 66
1
 10
0.0
 20
0.0
 30
0.0
 0
VERTEX
 8
WIRE
 10
  4.0000
 20
  7.0000
 30
0.0
 0
VERTEX
 8
WIRE
 10
  3.9000
 20
  7.1000
 30
0.0
 0
SEQEND
 8
WIRE
 0
POLYLINE
 8
WIRE
 66
1
 10
0.0
 20
0.0
 30
0.0
 0
VERTEX
 8
WIRE
 10
  4.0000
 20
  6.9000
 30
0.0
 0
VERTEX
 8
WIRE
 10
  3.9000
 20
  7.0000
 30
0.0
 0
SEQEND
 8
WIRE
 0
POLYLINE
 8
WIRE
 66
1
 10
0.0
 20
0.0
 30
0.0
 0
VERTEX
 8
WIRE
 10
  4.0000
 20
  6.8000
 30
0.0
 0
VERTEX
 8
WIRE
 10
  3.9000
 20
  6.9000
 30
0.0
 0
SEQEND
 8
WIRE
 0
POLYLINE
 8
WIRE
 66
1
 10
0.0
 20
0.0
 30
0.0
 0
VERTEX
 8
WIRE
 10
  4.0000
 20
  6.7000
 30
0.0
 0
VERTEX
 8
WIRE
 10
  3.9000
 20
  6.8000
 30
0.0
 0
SEQEND
 8
WIRE
 0
POLYLINE
 8
WIRE
 66
1
 10
0.0
 20
0.0
 30
0.0
 0
VERTEX
 8
WIRE
 10
  4.0000
 20
  6.6000
 30
0.0
 0
VERTEX
 8
WIRE
 10
  3.9000
 20
  6.7000
 30
0.0
 0
SEQEND
 8
WIRE
 0
POLYLINE
 8
WIRE
 66
1
 10
0.0
 20
0.0
 30
0.0
 0
VERTEX
 8
WIRE
 10
  4.0000
 20
  5.5000
 30
0.0
 0
VERTEX
 8
WIRE
 10
  3.9000
 20
  5.6000
 30
0.0
 0
SEQEND
 8
WIRE
 0
POLYLINE
 8
WIRE
 66
1
 10
0.0
 20
0.0
 30
0.0
 0
VERTEX
 8
WIRE
 10
  4.0000
 20
  5.4000
 30
0.0
 0
VERTEX
 8
WIRE
 10
  3.9000
 20
  5.5000
 30
0.0
 0
SEQEND
 8
WIRE
 0
POLYLINE
 8
WIRE
 66
1
 10
0.0
 20
0.0
 30
0.0
 0
VERTEX
 8
WIRE
 10
  4.0000
 20
  5.3000
 30
0.0
 0
VERTEX
 8
WIRE
 10
  3.9000
 20
  5.4000
 30
0.0
 0
SEQEND
 8
WIRE
 0
POLYLINE
 8
WIRE
 66
1
 10
0.0
 20
0.0
 30
0.0
 0
VERTEX
 8
WIRE
 10
  4.0000
 20
  5.2000
 30
0.0
 0
VERTEX
 8
WIRE
 10
  3.9000
 20
  5.3000
 30
0.0
 0
SEQEND
 8
WIRE
 0
POLYLINE
 8
WIRE
 66
1
 10
0.0
 20
0.0
 30
0.0
 0
VERTEX
 8
WIRE
 10
  4.0000
 20
  5.1000
 30
0.0
 0
VERTEX
 8
WIRE
 10
  3.9000
 20
  5.2000
 30
0.0
 0
SEQEND
 8
WIRE
 0
POLYLINE
 8
WIRE
 66
1
 10
0.0
 20
0.0
 30
0.0
 0
VERTEX
 8
WIRE
 10
  4.0000
 20
  5.0000
 30
0.0
 0
VERTEX
 8
WIRE
 10
  3.9000
 20
  5.1000
 30
0.0
 0
SEQEND
 8
WIRE
 0
POLYLINE
 8
WIRE
 66
1
 10
0.0
 20
0.0
 30
0.0
 0
VERTEX
 8
WIRE
 10
  4.0000
 20
  4.9000
 30
0.0
 0
VERTEX
 8
WIRE
 10
  3.9000
 20
  5.0000
 30
0.0
 0
SEQEND
 8
WIRE
 0
POLYLINE
 8
WIRE
 66
1
 10
0.0
 20
0.0
 30
0.0
 0
VERTEX
 8
WIRE
 10
  4.0000
 20
  4.8000
 30
0.0
 0
VERTEX
 8
WIRE
 10
  3.9000
 20
  4.9000
 30
0.0
 0
SEQEND
 8
WIRE
 0
POLYLINE
 8
WIRE
 66
1
 10
0.0
 20
0.0
 30
0.0
 0
VERTEX
 8
WIRE
 10
  1.1000
 20
  8.1000
 30
0.0
 0
VERTEX
 8
WIRE
 10
  1.0000
 20
  8.2000
 30
0.0
 0
SEQEND
 8
WIRE
 0
POLYLINE
 8
WIRE
 66
1
 10
0.0
 20
0.0
 30
0.0
 0
VERTEX
 8
WIRE
 10
  1.1000
 20
  8.0000
 30
0.0
 0
VERTEX
 8
WIRE
 10
  1.0000
 20
  8.1000
 30
0.0
 0
SEQEND
 8
WIRE
 0
POLYLINE
 8
WIRE
 66
1
 10
0.0
 20
0.0
 30
0.0
 0
VERTEX
 8
WIRE
 10
  4.0000
 20
  3.7000
 30
0.0
 0
VERTEX
 8
WIRE
 10
  3.9000
 20
  3.8000
 30
0.0
 0
SEQEND
 8
WIRE
 0
POLYLINE
 8
WIRE
 66
1
 10
0.0
 20
0.0
 30
0.0
 0
VERTEX
 8
WIRE
 10
  4.0000
 20
  3.6000
 30
0.0
 0
VERTEX
 8
WIRE
 10
  3.9000
 20
  3.7000
 30
0.0
 0
SEQEND
 8
WIRE
 0
POLYLINE
 8
WIRE
 66
1
 10
0.0
 20
0.0
 30
0.0
 0
VERTEX
 8
WIRE
 10
  4.0000
 20
  3.5000
 30
0.0
 0
VERTEX
 8
WIRE
 10
  3.9000
 20
  3.6000
 30
0.0
 0
SEQEND
 8
WIRE
 0
POLYLINE
 8
WIRE
 66
1
 10
0.0
 20
0.0
 30
0.0
 0
VERTEX
 8
WIRE
 10
  4.0000
 20
  3.4000
 30
0.0
 0
VERTEX
 8
WIRE
 10
  3.9000
 20
  3.5000
 30
0.0
 0
SEQEND
 8
WIRE
 0
POLYLINE
 8
WIRE
 66
1
 10
0.0
 20
0.0
 30
0.0
 0
VERTEX
 8
WIRE
 10
  4.0000
 20
  3.3000
 30
0.0
 0
VERTEX
 8
WIRE
 10
  3.9000
 20
  3.4000
 30
0.0
 0
SEQEND
 8
WIRE
 0
POLYLINE
 8
WIRE
 66
1
 10
0.0
 20
0.0
 30
0.0
 0
VERTEX
 8
WIRE
 10
  4.0000
 20
  3.2000
 30
0.0
 0
VERTEX
 8
WIRE
 10
  3.9000
 20
  3.3000
 30
0.0
 0
SEQEND
 8
WIRE
 0
POLYLINE
 8
WIRE
 66
1
 10
0.0
 20
0.0
 30
0.0
 0
VERTEX
 8
WIRE
 10
  4.0000
 20
  3.1000
 30
0.0
 0
VERTEX
 8
WIRE
 10
  3.9000
 20
  3.2000
 30
0.0
 0
SEQEND
 8
WIRE
 0
POLYLINE
 8
WIRE
 66
1
 10
0.0
 20
0.0
 30
0.0
 0
VERTEX
 8
WIRE
 10
  4.0000
 20
  3.0000
 30
0.0
 0
VERTEX
 8
WIRE
 10
  3.9000
 20
  3.1000
 30
0.0
 0
SEQEND
 8
WIRE
 0
POLYLINE
 8
WIRE
 66
1
 10
0.0
 20
0.0
 30
0.0
 0
VERTEX
 8
WIRE
 10
  1.1000
 20
  7.6000
 30
0.0
 0
VERTEX
 8
WIRE
 10
  1.0000
 20
  7.7000
 30
0.0
 0
SEQEND
 8
WIRE
 0
POLYLINE
 8
WIRE
 66
1
 10
0.0
 20
0.0
 30
0.0
 0
VERTEX
 8
WIRE
 10
  9.4000
 20
  5.0000
 30
0.0
 0
VERTEX
 8
WIRE
 10
  9.3000
 20
  5.1000
 30
0.0
 0
SEQEND
 8
WIRE
 0
POLYLINE
 8
WIRE
 66
1
 10
0.0
 20
0.0
 30
0.0
 0
VERTEX
 8
WIRE
 10
  9.4000
 20
  4.9000
 30
0.0
 0
VERTEX
 8
WIRE
 10
  9.3000
 20
  5.0000
 30
0.0
 0
SEQEND
 8
WIRE
 0
POLYLINE
 8
WIRE
 66
1
 10
0.0
 20
0.0
 30
0.0
 0
VERTEX
 8
WIRE
 10
  9.4000
 20
  4.8000
 30
0.0
 0
VERTEX
 8
WIRE
 10
  9.3000
 20
  4.9000
 30
0.0
 0
SEQEND
 8
WIRE
 0
POLYLINE
 8
WIRE
 66
1
 10
0.0
 20
0.0
 30
0.0
 0
VERTEX
 8
WIRE
 10
  1.1000
 20
  7.5000
 30
0.0
 0
VERTEX
 8
WIRE
 10
  1.0000
 20
  7.6000
 30
0.0
 0
SEQEND
 8
WIRE
 0
POLYLINE
 8
WIRE
 66
1
 10
0.0
 20
0.0
 30
0.0
 0
VERTEX
 8
WIRE
 10
  1.1000
 20
  7.4000
 30
0.0
 0
VERTEX
 8
WIRE
 10
  1.0000
 20
  7.5000
 30
0.0
 0
SEQEND
 8
WIRE
 0
POLYLINE
 8
WIRE
 66
1
 10
0.0
 20
0.0
 30
0.0
 0
VERTEX
 8
WIRE
 10
  9.4000
 20
  4.7000
 30
0.0
 0
VERTEX
 8
WIRE
 10
  9.3000
 20
  4.8000
 30
0.0
 0
SEQEND
 8
WIRE
 0
TEXT
 8
COMMENTS
 10
 12.7000
 20
  2.4186
 30
0.0
 40
  0.0514
 1
D1A is wired, but not used.
 0
TEXT
 8
COMMENTS
 10
  2.9000
 20
  1.7186
 30
0.0
 40
  0.0514
 1
PU
 0
TEXT
 8
COMMENTS
 10
  4.5000
 20
  1.7186
 30
0.0
 40
  0.0514
 1
PU
 0
ENDSEC
 0
EOF
