 0
SECTION
 2
HEADER
 9
$ACADVER
 1
AC1009
 0
ENDSEC
 0
SECTION
 2
ENTITIES
 0
POLYLINE
 8
TITLE
 66
1
 70
1
 10
0.0
 20
0.0
 30
0.0
 0
VERTEX
 8
TITLE
 10
 -0.1000
 20
  0.1000
 30
0.0
 0
VERTEX
 8
TITLE
 10
 15.1000
 20
  0.1000
 30
0.0
 0
VERTEX
 8
TITLE
 10
 15.1000
 20
  9.8000
 30
0.0
 0
VERTEX
 8
TITLE
 10
 -0.1000
 20
  9.8000
 30
0.0
 0
SEQEND
 8
TITLE
 0
POLYLINE
 8
TITLE
 66
1
 70
1
 10
0.0
 20
0.0
 30
0.0
 0
VERTEX
 8
TITLE
 10
  0.0000
 20
  0.2000
 30
0.0
 0
VERTEX
 8
TITLE
 10
 15.0000
 20
  0.2000
 30
0.0
 0
VERTEX
 8
TITLE
 10
 15.0000
 20
  9.7000
 30
0.0
 0
VERTEX
 8
TITLE
 10
  0.0000
 20
  9.7000
 30
0.0
 0
SEQEND
 8
TITLE
 0
POLYLINE
 8
TITLE
 66
1
 10
0.0
 20
0.0
 30
0.0
 0
VERTEX
 8
TITLE
 10
  2.0500
 20
  0.2000
 30
0.0
 0
VERTEX
 8
TITLE
 10
  2.0500
 20
  0.1000
 30
0.0
 0
SEQEND
 8
TITLE
 0
POLYLINE
 8
TITLE
 66
1
 10
0.0
 20
0.0
 30
0.0
 0
VERTEX
 8
TITLE
 10
  2.0500
 20
  9.7000
 30
0.0
 0
VERTEX
 8
TITLE
 10
  2.0500
 20
  9.8000
 30
0.0
 0
SEQEND
 8
TITLE
 0
SOLID
 8
TITLE
 10
  7.6000
 20
  0.2000
 30
0.0
 11
  7.5800
 21
  0.1500
 31
0.0
 12
  7.6200
 22
  0.1500
 32
0.0
 13
  7.6000
 23
  0.1500
 33
0.0
 0
SOLID
 8
TITLE
 10
  7.6000
 20
  9.7000
 30
0.0
 11
  7.5800
 21
  9.7500
 31
0.0
 12
  7.6200
 22
  9.7500
 32
0.0
 13
  7.6000
 23
  9.7500
 33
0.0
 0
POLYLINE
 8
TITLE
 66
1
 10
0.0
 20
0.0
 30
0.0
 0
VERTEX
 8
TITLE
 10
  3.9000
 20
  0.2000
 30
0.0
 0
VERTEX
 8
TITLE
 10
  3.9000
 20
  0.1000
 30
0.0
 0
SEQEND
 8
TITLE
 0
POLYLINE
 8
TITLE
 66
1
 10
0.0
 20
0.0
 30
0.0
 0
VERTEX
 8
TITLE
 10
  3.9000
 20
  9.7000
 30
0.0
 0
VERTEX
 8
TITLE
 10
  3.9000
 20
  9.8000
 30
0.0
 0
SEQEND
 8
TITLE
 0
SOLID
 8
TITLE
 10
  7.6000
 20
  0.2000
 30
0.0
 11
  7.5800
 21
  0.1500
 31
0.0
 12
  7.6200
 22
  0.1500
 32
0.0
 13
  7.6000
 23
  0.1500
 33
0.0
 0
SOLID
 8
TITLE
 10
  7.6000
 20
  9.7000
 30
0.0
 11
  7.5800
 21
  9.7500
 31
0.0
 12
  7.6200
 22
  9.7500
 32
0.0
 13
  7.6000
 23
  9.7500
 33
0.0
 0
POLYLINE
 8
TITLE
 66
1
 10
0.0
 20
0.0
 30
0.0
 0
VERTEX
 8
TITLE
 10
  5.7500
 20
  0.2000
 30
0.0
 0
VERTEX
 8
TITLE
 10
  5.7500
 20
  0.1000
 30
0.0
 0
SEQEND
 8
TITLE
 0
POLYLINE
 8
TITLE
 66
1
 10
0.0
 20
0.0
 30
0.0
 0
VERTEX
 8
TITLE
 10
  5.7500
 20
  9.7000
 30
0.0
 0
VERTEX
 8
TITLE
 10
  5.7500
 20
  9.8000
 30
0.0
 0
SEQEND
 8
TITLE
 0
SOLID
 8
TITLE
 10
  7.6000
 20
  0.2000
 30
0.0
 11
  7.5800
 21
  0.1500
 31
0.0
 12
  7.6200
 22
  0.1500
 32
0.0
 13
  7.6000
 23
  0.1500
 33
0.0
 0
SOLID
 8
TITLE
 10
  7.6000
 20
  9.7000
 30
0.0
 11
  7.5800
 21
  9.7500
 31
0.0
 12
  7.6200
 22
  9.7500
 32
0.0
 13
  7.6000
 23
  9.7500
 33
0.0
 0
POLYLINE
 8
TITLE
 66
1
 10
0.0
 20
0.0
 30
0.0
 0
VERTEX
 8
TITLE
 10
  7.6000
 20
  0.2000
 30
0.0
 0
VERTEX
 8
TITLE
 10
  7.6000
 20
  0.1000
 30
0.0
 0
SEQEND
 8
TITLE
 0
POLYLINE
 8
TITLE
 66
1
 10
0.0
 20
0.0
 30
0.0
 0
VERTEX
 8
TITLE
 10
  7.6000
 20
  9.7000
 30
0.0
 0
VERTEX
 8
TITLE
 10
  7.6000
 20
  9.8000
 30
0.0
 0
SEQEND
 8
TITLE
 0
SOLID
 8
TITLE
 10
  7.6000
 20
  0.2000
 30
0.0
 11
  7.5800
 21
  0.1500
 31
0.0
 12
  7.6200
 22
  0.1500
 32
0.0
 13
  7.6000
 23
  0.1500
 33
0.0
 0
SOLID
 8
TITLE
 10
  7.6000
 20
  9.7000
 30
0.0
 11
  7.5800
 21
  9.7500
 31
0.0
 12
  7.6200
 22
  9.7500
 32
0.0
 13
  7.6000
 23
  9.7500
 33
0.0
 0
POLYLINE
 8
TITLE
 66
1
 10
0.0
 20
0.0
 30
0.0
 0
VERTEX
 8
TITLE
 10
  9.4500
 20
  0.2000
 30
0.0
 0
VERTEX
 8
TITLE
 10
  9.4500
 20
  0.1000
 30
0.0
 0
SEQEND
 8
TITLE
 0
POLYLINE
 8
TITLE
 66
1
 10
0.0
 20
0.0
 30
0.0
 0
VERTEX
 8
TITLE
 10
  9.4500
 20
  9.7000
 30
0.0
 0
VERTEX
 8
TITLE
 10
  9.4500
 20
  9.8000
 30
0.0
 0
SEQEND
 8
TITLE
 0
SOLID
 8
TITLE
 10
  7.6000
 20
  0.2000
 30
0.0
 11
  7.5800
 21
  0.1500
 31
0.0
 12
  7.6200
 22
  0.1500
 32
0.0
 13
  7.6000
 23
  0.1500
 33
0.0
 0
SOLID
 8
TITLE
 10
  7.6000
 20
  9.7000
 30
0.0
 11
  7.5800
 21
  9.7500
 31
0.0
 12
  7.6200
 22
  9.7500
 32
0.0
 13
  7.6000
 23
  9.7500
 33
0.0
 0
POLYLINE
 8
TITLE
 66
1
 10
0.0
 20
0.0
 30
0.0
 0
VERTEX
 8
TITLE
 10
 11.3000
 20
  0.2000
 30
0.0
 0
VERTEX
 8
TITLE
 10
 11.3000
 20
  0.1000
 30
0.0
 0
SEQEND
 8
TITLE
 0
POLYLINE
 8
TITLE
 66
1
 10
0.0
 20
0.0
 30
0.0
 0
VERTEX
 8
TITLE
 10
 11.3000
 20
  9.7000
 30
0.0
 0
VERTEX
 8
TITLE
 10
 11.3000
 20
  9.8000
 30
0.0
 0
SEQEND
 8
TITLE
 0
SOLID
 8
TITLE
 10
  7.6000
 20
  0.2000
 30
0.0
 11
  7.5800
 21
  0.1500
 31
0.0
 12
  7.6200
 22
  0.1500
 32
0.0
 13
  7.6000
 23
  0.1500
 33
0.0
 0
SOLID
 8
TITLE
 10
  7.6000
 20
  9.7000
 30
0.0
 11
  7.5800
 21
  9.7500
 31
0.0
 12
  7.6200
 22
  9.7500
 32
0.0
 13
  7.6000
 23
  9.7500
 33
0.0
 0
POLYLINE
 8
TITLE
 66
1
 10
0.0
 20
0.0
 30
0.0
 0
VERTEX
 8
TITLE
 10
 13.1500
 20
  0.2000
 30
0.0
 0
VERTEX
 8
TITLE
 10
 13.1500
 20
  0.1000
 30
0.0
 0
SEQEND
 8
TITLE
 0
POLYLINE
 8
TITLE
 66
1
 10
0.0
 20
0.0
 30
0.0
 0
VERTEX
 8
TITLE
 10
 13.1500
 20
  9.7000
 30
0.0
 0
VERTEX
 8
TITLE
 10
 13.1500
 20
  9.8000
 30
0.0
 0
SEQEND
 8
TITLE
 0
SOLID
 8
TITLE
 10
  7.6000
 20
  0.2000
 30
0.0
 11
  7.5800
 21
  0.1500
 31
0.0
 12
  7.6200
 22
  0.1500
 32
0.0
 13
  7.6000
 23
  0.1500
 33
0.0
 0
SOLID
 8
TITLE
 10
  7.6000
 20
  9.7000
 30
0.0
 11
  7.5800
 21
  9.7500
 31
0.0
 12
  7.6200
 22
  9.7500
 32
0.0
 13
  7.6000
 23
  9.7500
 33
0.0
 0
TEXT
 8
TITLE
 10
  1.1200
 20
  0.1200
 30
0.0
 40
  0.0500
 1
8
 0
TEXT
 8
TITLE
 10
  1.1200
 20
  9.7200
 30
0.0
 40
  0.0500
 1
8
 0
TEXT
 8
TITLE
 10
  2.9700
 20
  0.1200
 30
0.0
 40
  0.0500
 1
7
 0
TEXT
 8
TITLE
 10
  2.9700
 20
  9.7200
 30
0.0
 40
  0.0500
 1
7
 0
TEXT
 8
TITLE
 10
  4.8200
 20
  0.1200
 30
0.0
 40
  0.0500
 1
6
 0
TEXT
 8
TITLE
 10
  4.8200
 20
  9.7200
 30
0.0
 40
  0.0500
 1
6
 0
TEXT
 8
TITLE
 10
  6.6700
 20
  0.1200
 30
0.0
 40
  0.0500
 1
5
 0
TEXT
 8
TITLE
 10
  6.6700
 20
  9.7200
 30
0.0
 40
  0.0500
 1
5
 0
TEXT
 8
TITLE
 10
  8.5200
 20
  0.1200
 30
0.0
 40
  0.0500
 1
4
 0
TEXT
 8
TITLE
 10
  8.5200
 20
  9.7200
 30
0.0
 40
  0.0500
 1
4
 0
TEXT
 8
TITLE
 10
 10.3700
 20
  0.1200
 30
0.0
 40
  0.0500
 1
3
 0
TEXT
 8
TITLE
 10
 10.3700
 20
  9.7200
 30
0.0
 40
  0.0500
 1
3
 0
TEXT
 8
TITLE
 10
 12.2200
 20
  0.1200
 30
0.0
 40
  0.0500
 1
2
 0
TEXT
 8
TITLE
 10
 12.2200
 20
  9.7200
 30
0.0
 40
  0.0500
 1
2
 0
TEXT
 8
TITLE
 10
 14.0700
 20
  0.1200
 30
0.0
 40
  0.0500
 1
1
 0
TEXT
 8
TITLE
 10
 14.0700
 20
  9.7200
 30
0.0
 40
  0.0500
 1
1
 0
POLYLINE
 8
TITLE
 66
1
 10
0.0
 20
0.0
 30
0.0
 0
VERTEX
 8
TITLE
 10
 -0.1000
 20
  7.1800
 30
0.0
 0
VERTEX
 8
TITLE
 10
  0.0000
 20
  7.1800
 30
0.0
 0
SEQEND
 8
TITLE
 0
POLYLINE
 8
TITLE
 66
1
 10
0.0
 20
0.0
 30
0.0
 0
VERTEX
 8
TITLE
 10
 15.0000
 20
  7.1800
 30
0.0
 0
VERTEX
 8
TITLE
 10
 15.1000
 20
  7.1800
 30
0.0
 0
SEQEND
 8
TITLE
 0
SOLID
 8
TITLE
 10
  0.0000
 20
  4.8600
 30
0.0
 11
 -0.0500
 21
  4.8800
 31
0.0
 12
 -0.0500
 22
  4.8400
 32
0.0
 13
 -0.0500
 23
  4.8600
 33
0.0
 0
SOLID
 8
TITLE
 10
 15.0000
 20
  4.8600
 30
0.0
 11
 15.0500
 21
  4.8800
 31
0.0
 12
 15.0500
 22
  4.8400
 32
0.0
 13
 15.0500
 23
  4.8600
 33
0.0
 0
POLYLINE
 8
TITLE
 66
1
 10
0.0
 20
0.0
 30
0.0
 0
VERTEX
 8
TITLE
 10
 -0.1000
 20
  4.8600
 30
0.0
 0
VERTEX
 8
TITLE
 10
  0.0000
 20
  4.8600
 30
0.0
 0
SEQEND
 8
TITLE
 0
POLYLINE
 8
TITLE
 66
1
 10
0.0
 20
0.0
 30
0.0
 0
VERTEX
 8
TITLE
 10
 15.0000
 20
  4.8600
 30
0.0
 0
VERTEX
 8
TITLE
 10
 15.1000
 20
  4.8600
 30
0.0
 0
SEQEND
 8
TITLE
 0
SOLID
 8
TITLE
 10
  0.0000
 20
  4.8600
 30
0.0
 11
 -0.0500
 21
  4.8800
 31
0.0
 12
 -0.0500
 22
  4.8400
 32
0.0
 13
 -0.0500
 23
  4.8600
 33
0.0
 0
SOLID
 8
TITLE
 10
 15.0000
 20
  4.8600
 30
0.0
 11
 15.0500
 21
  4.8800
 31
0.0
 12
 15.0500
 22
  4.8400
 32
0.0
 13
 15.0500
 23
  4.8600
 33
0.0
 0
POLYLINE
 8
TITLE
 66
1
 10
0.0
 20
0.0
 30
0.0
 0
VERTEX
 8
TITLE
 10
 -0.1000
 20
  2.5400
 30
0.0
 0
VERTEX
 8
TITLE
 10
  0.0000
 20
  2.5400
 30
0.0
 0
SEQEND
 8
TITLE
 0
POLYLINE
 8
TITLE
 66
1
 10
0.0
 20
0.0
 30
0.0
 0
VERTEX
 8
TITLE
 10
 15.0000
 20
  2.5400
 30
0.0
 0
VERTEX
 8
TITLE
 10
 15.1000
 20
  2.5400
 30
0.0
 0
SEQEND
 8
TITLE
 0
SOLID
 8
TITLE
 10
  0.0000
 20
  4.8600
 30
0.0
 11
 -0.0500
 21
  4.8800
 31
0.0
 12
 -0.0500
 22
  4.8400
 32
0.0
 13
 -0.0500
 23
  4.8600
 33
0.0
 0
SOLID
 8
TITLE
 10
 15.0000
 20
  4.8600
 30
0.0
 11
 15.0500
 21
  4.8800
 31
0.0
 12
 15.0500
 22
  4.8400
 32
0.0
 13
 15.0500
 23
  4.8600
 33
0.0
 0
TEXT
 8
TITLE
 10
 -0.0800
 20
  8.3400
 30
0.0
 40
  0.0500
 1
D
 0
TEXT
 8
TITLE
 10
 15.0200
 20
  8.3400
 30
0.0
 40
  0.0500
 1
D
 0
TEXT
 8
TITLE
 10
 -0.0800
 20
  6.0200
 30
0.0
 40
  0.0500
 1
C
 0
TEXT
 8
TITLE
 10
 15.0200
 20
  6.0200
 30
0.0
 40
  0.0500
 1
C
 0
TEXT
 8
TITLE
 10
 -0.0800
 20
  3.7000
 30
0.0
 40
  0.0500
 1
B
 0
TEXT
 8
TITLE
 10
 15.0200
 20
  3.7000
 30
0.0
 40
  0.0500
 1
B
 0
TEXT
 8
TITLE
 10
 -0.0800
 20
  1.3800
 30
0.0
 40
  0.0500
 1
A
 0
TEXT
 8
TITLE
 10
 15.0200
 20
  1.3800
 30
0.0
 40
  0.0500
 1
A
 0
TEXT
 8
TITLE
 10
 11.7000
 20
  0.4186
 30
0.0
 40
  0.0514
 1
DIGITAL BOARD
 0
TEXT
 8
TITLE
 10
 14.6700
 20
  0.3986
 30
0.0
 40
  0.0514
 1
0
 0
TEXT
 8
TITLE
 10
 11.7000
 20
  0.7186
 30
0.0
 40
  0.0514
 1
DDS CONTROLLER
 0
TEXT
 8
TITLE
 10
 11.3000
 20
  1.3186
 30
0.0
 40
  0.0514
 1
ARECIBO OBSERVATORY
 0
TEXT
 8
TITLE
 10
 11.3000
 20
  1.1186
 30
0.0
 40
  0.0514
 1
BY : BILL SISK
 0
TEXT
 8
TITLE
 10
 11.3000
 20
  1.0186
 30
0.0
 40
  0.0514
 1
FILE : DDS4.SCH
 0
TEXT
 8
TITLE
 10
 11.4000
 20
  0.4186
 30
0.0
 40
  0.0514
 1
B
 0
TEXT
 8
TITLE
 10
 13.8000
 20
  0.2186
 30
0.0
 40
  0.0514
 1
1
 0
TEXT
 8
TITLE
 10
 14.4000
 20
  0.2186
 30
0.0
 40
  0.0514
 1
4
 0
TEXT
 8
TITLE
 10
 11.7100
 20
  0.2186
 30
0.0
 40
  0.0514
 1
Friday, March 11, 2005
 0
TEXT
 8
PARTTEXT
 10
 11.3000
 20
  0.8186
 30
0.0
 40
  0.0514
 1
Title
 0
TEXT
 8
PARTTEXT
 10
 11.3000
 20
  0.5186
 30
0.0
 40
  0.0514
 1
Size
 0
TEXT
 8
PARTTEXT
 10
 11.7000
 20
  0.5186
 30
0.0
 40
  0.0514
 1
Document Number
 0
TEXT
 8
PARTTEXT
 10
 14.6000
 20
  0.5186
 30
0.0
 40
  0.0514
 1
Rev
 0
TEXT
 8
PARTTEXT
 10
 11.3000
 20
  0.2186
 30
0.0
 40
  0.0514
 1
Date:
 0
TEXT
 8
PARTTEXT
 10
 13.3000
 20
  0.2186
 30
0.0
 40
  0.0514
 1
Sheet
 0
POLYLINE
 8
TITLE
 66
1
 70
1
 10
0.0
 20
0.0
 30
0.0
 0
VERTEX
 8
TITLE
 10
 11.3000
 20
  1.4000
 30
0.0
 0
VERTEX
 8
TITLE
 10
 14.9000
 20
  1.4000
 30
0.0
 0
VERTEX
 8
TITLE
 10
 14.9000
 20
  0.9000
 30
0.0
 0
VERTEX
 8
TITLE
 10
 11.3000
 20
  0.9000
 30
0.0
 0
SEQEND
 8
TITLE
 0
POLYLINE
 8
TITLE
 66
1
 70
1
 10
0.0
 20
0.0
 30
0.0
 0
VERTEX
 8
TITLE
 10
 11.3000
 20
  0.9000
 30
0.0
 0
VERTEX
 8
TITLE
 10
 14.9000
 20
  0.9000
 30
0.0
 0
VERTEX
 8
TITLE
 10
 14.9000
 20
  0.6000
 30
0.0
 0
VERTEX
 8
TITLE
 10
 11.3000
 20
  0.6000
 30
0.0
 0
SEQEND
 8
TITLE
 0
POLYLINE
 8
TITLE
 66
1
 70
1
 10
0.0
 20
0.0
 30
0.0
 0
VERTEX
 8
TITLE
 10
 11.3000
 20
  0.6000
 30
0.0
 0
VERTEX
 8
TITLE
 10
 11.6000
 20
  0.6000
 30
0.0
 0
VERTEX
 8
TITLE
 10
 11.6000
 20
  0.3000
 30
0.0
 0
VERTEX
 8
TITLE
 10
 11.3000
 20
  0.3000
 30
0.0
 0
SEQEND
 8
TITLE
 0
POLYLINE
 8
TITLE
 66
1
 70
1
 10
0.0
 20
0.0
 30
0.0
 0
VERTEX
 8
TITLE
 10
 11.6000
 20
  0.6000
 30
0.0
 0
VERTEX
 8
TITLE
 10
 14.6000
 20
  0.6000
 30
0.0
 0
VERTEX
 8
TITLE
 10
 14.6000
 20
  0.3000
 30
0.0
 0
VERTEX
 8
TITLE
 10
 11.6000
 20
  0.3000
 30
0.0
 0
SEQEND
 8
TITLE
 0
POLYLINE
 8
TITLE
 66
1
 70
1
 10
0.0
 20
0.0
 30
0.0
 0
VERTEX
 8
TITLE
 10
 14.6000
 20
  0.6000
 30
0.0
 0
VERTEX
 8
TITLE
 10
 14.9000
 20
  0.6000
 30
0.0
 0
VERTEX
 8
TITLE
 10
 14.9000
 20
  0.3000
 30
0.0
 0
VERTEX
 8
TITLE
 10
 14.6000
 20
  0.3000
 30
0.0
 0
SEQEND
 8
TITLE
 0
POLYLINE
 8
TITLE
 66
1
 70
1
 10
0.0
 20
0.0
 30
0.0
 0
VERTEX
 8
TITLE
 10
 11.3000
 20
  0.3000
 30
0.0
 0
VERTEX
 8
TITLE
 10
 13.3000
 20
  0.3000
 30
0.0
 0
VERTEX
 8
TITLE
 10
 13.3000
 20
  0.2000
 30
0.0
 0
VERTEX
 8
TITLE
 10
 11.3000
 20
  0.2000
 30
0.0
 0
SEQEND
 8
TITLE
 0
POLYLINE
 8
TITLE
 66
1
 70
1
 10
0.0
 20
0.0
 30
0.0
 0
VERTEX
 8
TITLE
 10
 13.3000
 20
  0.3000
 30
0.0
 0
VERTEX
 8
TITLE
 10
 14.9000
 20
  0.3000
 30
0.0
 0
VERTEX
 8
TITLE
 10
 14.9000
 20
  0.2000
 30
0.0
 0
VERTEX
 8
TITLE
 10
 13.3000
 20
  0.2000
 30
0.0
 0
SEQEND
 8
TITLE
 0
TEXT
 8
PARTTEXT
 10
 14.1000
 20
  0.2186
 30
0.0
 40
  0.0514
 1
of
 0
LINE
 8
PARTS
 10
  0.9000
 20
  8.7000
 30
0.0
 11
  1.0000
 21
  8.7000
 31
0.0
 0
TEXT
 8
PARTS
 10
  0.9400
 20
  8.7300
 30
0.0
 40
  0.0500
 1

 0
LINE
 8
PARTS
 10
  1.4000
 20
  8.7000
 30
0.0
 11
  1.3000
 21
  8.7000
 31
0.0
 0
TEXT
 8
PARTS
 10
  1.3600
 20
  8.7300
 30
0.0
 40
  0.0500
 1

 0
POLYLINE
 8
PARTS
 66
1
 10
0.0
 20
0.0
 30
0.0
 0
VERTEX
 8
PARTS
 10
  1.0000
 20
  8.7000
 30
0.0
 0
VERTEX
 8
PARTS
 10
  1.0300
 20
  8.7300
 30
0.0
 0
SEQEND
 8
PARTS
 0
POLYLINE
 8
PARTS
 66
1
 10
0.0
 20
0.0
 30
0.0
 0
VERTEX
 8
PARTS
 10
  1.0300
 20
  8.7300
 30
0.0
 0
VERTEX
 8
PARTS
 10
  1.0900
 20
  8.6700
 30
0.0
 0
SEQEND
 8
PARTS
 0
POLYLINE
 8
PARTS
 66
1
 10
0.0
 20
0.0
 30
0.0
 0
VERTEX
 8
PARTS
 10
  1.0900
 20
  8.6700
 30
0.0
 0
VERTEX
 8
PARTS
 10
  1.1500
 20
  8.7300
 30
0.0
 0
SEQEND
 8
PARTS
 0
POLYLINE
 8
PARTS
 66
1
 10
0.0
 20
0.0
 30
0.0
 0
VERTEX
 8
PARTS
 10
  1.1500
 20
  8.7300
 30
0.0
 0
VERTEX
 8
PARTS
 10
  1.2100
 20
  8.6700
 30
0.0
 0
SEQEND
 8
PARTS
 0
POLYLINE
 8
PARTS
 66
1
 10
0.0
 20
0.0
 30
0.0
 0
VERTEX
 8
PARTS
 10
  1.2100
 20
  8.6700
 30
0.0
 0
VERTEX
 8
PARTS
 10
  1.2700
 20
  8.7300
 30
0.0
 0
SEQEND
 8
PARTS
 0
POLYLINE
 8
PARTS
 66
1
 10
0.0
 20
0.0
 30
0.0
 0
VERTEX
 8
PARTS
 10
  1.2700
 20
  8.7300
 30
0.0
 0
VERTEX
 8
PARTS
 10
  1.3000
 20
  8.7000
 30
0.0
 0
SEQEND
 8
PARTS
 0
TEXT
 8
PARTTEXT
 10
  6.4500
 20
  6.2086
 30
0.0
 40
  0.0514
 1
H2
 0
TEXT
 8
PARTTEXT
 10
  6.4500
 20
  5.0086
 30
0.0
 40
  0.0514
 1
DDSPAL03 16V8
 0
LINE
 8
PARTS
 10
  6.1000
 20
  6.1000
 30
0.0
 11
  6.4000
 21
  6.1000
 31
0.0
 0
TEXT
 8
PARTS
 10
  6.4900
 20
  6.0750
 30
0.0
 40
  0.0500
 1
1
 0
TEXT
 8
PARTS
 10
  6.3000
 20
  6.1300
 30
0.0
 40
  0.0500
 1
1
 0
LINE
 8
PARTS
 10
  6.1000
 20
  6.0000
 30
0.0
 11
  6.4000
 21
  6.0000
 31
0.0
 0
TEXT
 8
PARTS
 10
  6.4900
 20
  5.9750
 30
0.0
 40
  0.0500
 1
STB
 0
TEXT
 8
PARTS
 10
  6.3000
 20
  6.0300
 30
0.0
 40
  0.0500
 1
2
 0
LINE
 8
PARTS
 10
  6.1000
 20
  5.9000
 30
0.0
 11
  6.4000
 21
  5.9000
 31
0.0
 0
TEXT
 8
PARTS
 10
  6.4900
 20
  5.8750
 30
0.0
 40
  0.0500
 1
D11
 0
TEXT
 8
PARTS
 10
  6.3000
 20
  5.9300
 30
0.0
 40
  0.0500
 1
3
 0
LINE
 8
PARTS
 10
  6.1000
 20
  5.8000
 30
0.0
 11
  6.4000
 21
  5.8000
 31
0.0
 0
TEXT
 8
PARTS
 10
  6.4900
 20
  5.7750
 30
0.0
 40
  0.0500
 1
D12
 0
TEXT
 8
PARTS
 10
  6.3000
 20
  5.8300
 30
0.0
 40
  0.0500
 1
4
 0
LINE
 8
PARTS
 10
  6.1000
 20
  5.7000
 30
0.0
 11
  6.4000
 21
  5.7000
 31
0.0
 0
TEXT
 8
PARTS
 10
  6.4900
 20
  5.6750
 30
0.0
 40
  0.0500
 1
D13
 0
TEXT
 8
PARTS
 10
  6.3000
 20
  5.7300
 30
0.0
 40
  0.0500
 1
5
 0
LINE
 8
PARTS
 10
  6.1000
 20
  5.6000
 30
0.0
 11
  6.4000
 21
  5.6000
 31
0.0
 0
TEXT
 8
PARTS
 10
  6.4900
 20
  5.5750
 30
0.0
 40
  0.0500
 1
D14
 0
TEXT
 8
PARTS
 10
  6.3000
 20
  5.6300
 30
0.0
 40
  0.0500
 1
6
 0
LINE
 8
PARTS
 10
  6.1000
 20
  5.5000
 30
0.0
 11
  6.4000
 21
  5.5000
 31
0.0
 0
TEXT
 8
PARTS
 10
  6.4900
 20
  5.4750
 30
0.0
 40
  0.0500
 1
D15
 0
TEXT
 8
PARTS
 10
  6.3000
 20
  5.5300
 30
0.0
 40
  0.0500
 1
7
 0
LINE
 8
PARTS
 10
  6.1000
 20
  5.4000
 30
0.0
 11
  6.4000
 21
  5.4000
 31
0.0
 0
TEXT
 8
PARTS
 10
  6.4900
 20
  5.3750
 30
0.0
 40
  0.0500
 1
8
 0
TEXT
 8
PARTS
 10
  6.3000
 20
  5.4300
 30
0.0
 40
  0.0500
 1
8
 0
LINE
 8
PARTS
 10
  6.1000
 20
  5.3000
 30
0.0
 11
  6.4000
 21
  5.3000
 31
0.0
 0
TEXT
 8
PARTS
 10
  6.4900
 20
  5.2750
 30
0.0
 40
  0.0500
 1
9
 0
TEXT
 8
PARTS
 10
  6.3000
 20
  5.3300
 30
0.0
 40
  0.0500
 1
9
 0
LINE
 8
PARTS
 10
  6.1000
 20
  5.2000
 30
0.0
 11
  6.4000
 21
  5.2000
 31
0.0
 0
TEXT
 8
PARTS
 10
  6.4900
 20
  5.1750
 30
0.0
 40
  0.0500
 1
11
 0
TEXT
 8
PARTS
 10
  6.2600
 20
  5.2300
 30
0.0
 40
  0.0500
 1
11
 0
LINE
 8
PARTS
 10
  7.5000
 20
  6.1000
 30
0.0
 11
  7.2000
 21
  6.1000
 31
0.0
 0
TEXT
 8
PARTS
 10
  6.9500
 20
  6.0750
 30
0.0
 40
  0.0500
 1
DDS1
 0
TEXT
 8
PARTS
 10
  7.2600
 20
  6.1300
 30
0.0
 40
  0.0500
 1
19
 0
LINE
 8
PARTS
 10
  7.5000
 20
  6.0000
 30
0.0
 11
  7.2000
 21
  6.0000
 31
0.0
 0
TEXT
 8
PARTS
 10
  6.9500
 20
  5.9750
 30
0.0
 40
  0.0500
 1
DDS2
 0
TEXT
 8
PARTS
 10
  7.2600
 20
  6.0300
 30
0.0
 40
  0.0500
 1
18
 0
LINE
 8
PARTS
 10
  7.5000
 20
  5.9000
 30
0.0
 11
  7.2000
 21
  5.9000
 31
0.0
 0
TEXT
 8
PARTS
 10
  6.9500
 20
  5.8750
 30
0.0
 40
  0.0500
 1
DRDY
 0
TEXT
 8
PARTS
 10
  7.2600
 20
  5.9300
 30
0.0
 40
  0.0500
 1
17
 0
LINE
 8
PARTS
 10
  7.5000
 20
  5.8000
 30
0.0
 11
  7.2000
 21
  5.8000
 31
0.0
 0
TEXT
 8
PARTS
 10
  6.9500
 20
  5.7750
 30
0.0
 40
  0.0500
 1
XFER
 0
TEXT
 8
PARTS
 10
  7.2600
 20
  5.8300
 30
0.0
 40
  0.0500
 1
16
 0
LINE
 8
PARTS
 10
  7.5000
 20
  5.7000
 30
0.0
 11
  7.2000
 21
  5.7000
 31
0.0
 0
TEXT
 8
PARTS
 10
  7.0300
 20
  5.6750
 30
0.0
 40
  0.0500
 1
15
 0
TEXT
 8
PARTS
 10
  7.2600
 20
  5.7300
 30
0.0
 40
  0.0500
 1
15
 0
LINE
 8
PARTS
 10
  7.5000
 20
  5.6000
 30
0.0
 11
  7.2000
 21
  5.6000
 31
0.0
 0
TEXT
 8
PARTS
 10
  7.0300
 20
  5.5750
 30
0.0
 40
  0.0500
 1
14
 0
TEXT
 8
PARTS
 10
  7.2600
 20
  5.6300
 30
0.0
 40
  0.0500
 1
14
 0
LINE
 8
PARTS
 10
  7.5000
 20
  5.5000
 30
0.0
 11
  7.2000
 21
  5.5000
 31
0.0
 0
TEXT
 8
PARTS
 10
  7.0300
 20
  5.4750
 30
0.0
 40
  0.0500
 1
13
 0
TEXT
 8
PARTS
 10
  7.2600
 20
  5.5300
 30
0.0
 40
  0.0500
 1
13
 0
POLYLINE
 8
PARTS
 66
1
 70
1
 10
0.0
 20
0.0
 30
0.0
 0
VERTEX
 8
PARTS
 10
  6.4000
 20
  6.2000
 30
0.0
 0
VERTEX
 8
PARTS
 10
  7.2000
 20
  6.2000
 30
0.0
 0
VERTEX
 8
PARTS
 10
  7.2000
 20
  5.1000
 30
0.0
 0
VERTEX
 8
PARTS
 10
  6.4000
 20
  5.1000
 30
0.0
 0
SEQEND
 8
PARTS
 0
TEXT
 8
PARTTEXT
 10
  1.0400
 20
  2.1186
 30
0.0
 40
  0.0514
 1
K1
 0
TEXT
 8
PARTTEXT
 10
  1.0100
 20
  2.0086
 30
0.0
 40
  0.0514
 1
120
 0
LINE
 8
PARTS
 10
  0.9000
 20
  1.8000
 30
0.0
 11
  1.0000
 21
  1.8000
 31
0.0
 0
TEXT
 8
PARTS
 10
  0.9400
 20
  1.8300
 30
0.0
 40
  0.0500
 1

 0
LINE
 8
PARTS
 10
  1.4000
 20
  1.8000
 30
0.0
 11
  1.3000
 21
  1.8000
 31
0.0
 0
TEXT
 8
PARTS
 10
  1.3600
 20
  1.8300
 30
0.0
 40
  0.0500
 1

 0
POLYLINE
 8
PARTS
 66
1
 10
0.0
 20
0.0
 30
0.0
 0
VERTEX
 8
PARTS
 10
  1.0000
 20
  1.8000
 30
0.0
 0
VERTEX
 8
PARTS
 10
  1.0300
 20
  1.8300
 30
0.0
 0
SEQEND
 8
PARTS
 0
POLYLINE
 8
PARTS
 66
1
 10
0.0
 20
0.0
 30
0.0
 0
VERTEX
 8
PARTS
 10
  1.0300
 20
  1.8300
 30
0.0
 0
VERTEX
 8
PARTS
 10
  1.0900
 20
  1.7700
 30
0.0
 0
SEQEND
 8
PARTS
 0
POLYLINE
 8
PARTS
 66
1
 10
0.0
 20
0.0
 30
0.0
 0
VERTEX
 8
PARTS
 10
  1.0900
 20
  1.7700
 30
0.0
 0
VERTEX
 8
PARTS
 10
  1.1500
 20
  1.8300
 30
0.0
 0
SEQEND
 8
PARTS
 0
POLYLINE
 8
PARTS
 66
1
 10
0.0
 20
0.0
 30
0.0
 0
VERTEX
 8
PARTS
 10
  1.1500
 20
  1.8300
 30
0.0
 0
VERTEX
 8
PARTS
 10
  1.2100
 20
  1.7700
 30
0.0
 0
SEQEND
 8
PARTS
 0
POLYLINE
 8
PARTS
 66
1
 10
0.0
 20
0.0
 30
0.0
 0
VERTEX
 8
PARTS
 10
  1.2100
 20
  1.7700
 30
0.0
 0
VERTEX
 8
PARTS
 10
  1.2700
 20
  1.8300
 30
0.0
 0
SEQEND
 8
PARTS
 0
POLYLINE
 8
PARTS
 66
1
 10
0.0
 20
0.0
 30
0.0
 0
VERTEX
 8
PARTS
 10
  1.2700
 20
  1.8300
 30
0.0
 0
VERTEX
 8
PARTS
 10
  1.3000
 20
  1.8000
 30
0.0
 0
SEQEND
 8
PARTS
 0
TEXT
 8
PARTTEXT
 10
  1.8500
 20
  2.0086
 30
0.0
 40
  0.0514
 1
J1
 0
TEXT
 8
PARTTEXT
 10
  1.8500
 20
  0.4086
 30
0.0
 40
  0.0514
 1
SN75ALS193
 0
LINE
 8
PARTS
 10
  1.5000
 20
  1.9000
 30
0.0
 11
  1.8000
 21
  1.9000
 31
0.0
 0
TEXT
 8
PARTS
 10
  1.8900
 20
  1.8750
 30
0.0
 40
  0.0500
 1
1A
 0
TEXT
 8
PARTS
 10
  1.7000
 20
  1.9300
 30
0.0
 40
  0.0500
 1
2
 0
CIRCLE
 8
PARTS
 10
  1.7700
 20
  1.8000
 30
0.0
 40
  0.0300
 0
LINE
 8
PARTS
 10
  1.5000
 20
  1.8000
 30
0.0
 11
  1.7400
 21
  1.8000
 31
0.0
 0
TEXT
 8
PARTS
 10
  1.8900
 20
  1.7750
 30
0.0
 40
  0.0500
 1
1B
 0
TEXT
 8
PARTS
 10
  1.7000
 20
  1.8300
 30
0.0
 40
  0.0500
 1
1
 0
LINE
 8
PARTS
 10
  1.5000
 20
  1.6000
 30
0.0
 11
  1.8000
 21
  1.6000
 31
0.0
 0
TEXT
 8
PARTS
 10
  1.8900
 20
  1.5750
 30
0.0
 40
  0.0500
 1
2A
 0
TEXT
 8
PARTS
 10
  1.7000
 20
  1.6300
 30
0.0
 40
  0.0500
 1
6
 0
CIRCLE
 8
PARTS
 10
  1.7700
 20
  1.5000
 30
0.0
 40
  0.0300
 0
LINE
 8
PARTS
 10
  1.5000
 20
  1.5000
 30
0.0
 11
  1.7400
 21
  1.5000
 31
0.0
 0
TEXT
 8
PARTS
 10
  1.8900
 20
  1.4750
 30
0.0
 40
  0.0500
 1
2B
 0
TEXT
 8
PARTS
 10
  1.7000
 20
  1.5300
 30
0.0
 40
  0.0500
 1
7
 0
LINE
 8
PARTS
 10
  1.5000
 20
  1.3000
 30
0.0
 11
  1.8000
 21
  1.3000
 31
0.0
 0
TEXT
 8
PARTS
 10
  1.8900
 20
  1.2750
 30
0.0
 40
  0.0500
 1
3A
 0
TEXT
 8
PARTS
 10
  1.6600
 20
  1.3300
 30
0.0
 40
  0.0500
 1
10
 0
CIRCLE
 8
PARTS
 10
  1.7700
 20
  1.2000
 30
0.0
 40
  0.0300
 0
LINE
 8
PARTS
 10
  1.5000
 20
  1.2000
 30
0.0
 11
  1.7400
 21
  1.2000
 31
0.0
 0
TEXT
 8
PARTS
 10
  1.8900
 20
  1.1750
 30
0.0
 40
  0.0500
 1
3B
 0
TEXT
 8
PARTS
 10
  1.7000
 20
  1.2300
 30
0.0
 40
  0.0500
 1
9
 0
LINE
 8
PARTS
 10
  1.5000
 20
  1.0000
 30
0.0
 11
  1.8000
 21
  1.0000
 31
0.0
 0
TEXT
 8
PARTS
 10
  1.8900
 20
  0.9750
 30
0.0
 40
  0.0500
 1
4A
 0
TEXT
 8
PARTS
 10
  1.6600
 20
  1.0300
 30
0.0
 40
  0.0500
 1
14
 0
CIRCLE
 8
PARTS
 10
  1.7700
 20
  0.9000
 30
0.0
 40
  0.0300
 0
LINE
 8
PARTS
 10
  1.5000
 20
  0.9000
 30
0.0
 11
  1.7400
 21
  0.9000
 31
0.0
 0
TEXT
 8
PARTS
 10
  1.8900
 20
  0.8750
 30
0.0
 40
  0.0500
 1
4B
 0
TEXT
 8
PARTS
 10
  1.6600
 20
  0.9300
 30
0.0
 40
  0.0500
 1
15
 0
LINE
 8
PARTS
 10
  1.5000
 20
  0.7000
 30
0.0
 11
  1.8000
 21
  0.7000
 31
0.0
 0
TEXT
 8
PARTS
 10
  1.8900
 20
  0.6750
 30
0.0
 40
  0.0500
 1
%%oG%%o
 0
TEXT
 8
PARTS
 10
  1.6600
 20
  0.7300
 30
0.0
 40
  0.0500
 1
12
 0
LINE
 8
PARTS
 10
  1.5000
 20
  0.6000
 30
0.0
 11
  1.8000
 21
  0.6000
 31
0.0
 0
TEXT
 8
PARTS
 10
  1.8900
 20
  0.5750
 30
0.0
 40
  0.0500
 1
G
 0
TEXT
 8
PARTS
 10
  1.7000
 20
  0.6300
 30
0.0
 40
  0.0500
 1
4
 0
LINE
 8
PARTS
 10
  2.7000
 20
  1.9000
 30
0.0
 11
  2.4000
 21
  1.9000
 31
0.0
 0
TEXT
 8
PARTS
 10
  2.2300
 20
  1.8750
 30
0.0
 40
  0.0500
 1
1Y
 0
TEXT
 8
PARTS
 10
  2.4600
 20
  1.9300
 30
0.0
 40
  0.0500
 1
3
 0
LINE
 8
PARTS
 10
  2.7000
 20
  1.6000
 30
0.0
 11
  2.4000
 21
  1.6000
 31
0.0
 0
TEXT
 8
PARTS
 10
  2.2300
 20
  1.5750
 30
0.0
 40
  0.0500
 1
2Y
 0
TEXT
 8
PARTS
 10
  2.4600
 20
  1.6300
 30
0.0
 40
  0.0500
 1
5
 0
LINE
 8
PARTS
 10
  2.7000
 20
  1.3000
 30
0.0
 11
  2.4000
 21
  1.3000
 31
0.0
 0
TEXT
 8
PARTS
 10
  2.2300
 20
  1.2750
 30
0.0
 40
  0.0500
 1
3Y
 0
TEXT
 8
PARTS
 10
  2.4600
 20
  1.3300
 30
0.0
 40
  0.0500
 1
11
 0
LINE
 8
PARTS
 10
  2.7000
 20
  1.0000
 30
0.0
 11
  2.4000
 21
  1.0000
 31
0.0
 0
TEXT
 8
PARTS
 10
  2.2300
 20
  0.9750
 30
0.0
 40
  0.0500
 1
4Y
 0
TEXT
 8
PARTS
 10
  2.4600
 20
  1.0300
 30
0.0
 40
  0.0500
 1
13
 0
POLYLINE
 8
PARTS
 66
1
 70
1
 10
0.0
 20
0.0
 30
0.0
 0
VERTEX
 8
PARTS
 10
  1.8000
 20
  2.0000
 30
0.0
 0
VERTEX
 8
PARTS
 10
  2.4000
 20
  2.0000
 30
0.0
 0
VERTEX
 8
PARTS
 10
  2.4000
 20
  0.5000
 30
0.0
 0
VERTEX
 8
PARTS
 10
  1.8000
 20
  0.5000
 30
0.0
 0
SEQEND
 8
PARTS
 0
LINE
 8
PARTS
 10
  0.9000
 20
  8.1000
 30
0.0
 11
  1.0000
 21
  8.1000
 31
0.0
 0
TEXT
 8
PARTS
 10
  0.9400
 20
  8.1300
 30
0.0
 40
  0.0500
 1

 0
LINE
 8
PARTS
 10
  1.4000
 20
  8.1000
 30
0.0
 11
  1.3000
 21
  8.1000
 31
0.0
 0
TEXT
 8
PARTS
 10
  1.3600
 20
  8.1300
 30
0.0
 40
  0.0500
 1

 0
POLYLINE
 8
PARTS
 66
1
 10
0.0
 20
0.0
 30
0.0
 0
VERTEX
 8
PARTS
 10
  1.0000
 20
  8.1000
 30
0.0
 0
VERTEX
 8
PARTS
 10
  1.0300
 20
  8.1300
 30
0.0
 0
SEQEND
 8
PARTS
 0
POLYLINE
 8
PARTS
 66
1
 10
0.0
 20
0.0
 30
0.0
 0
VERTEX
 8
PARTS
 10
  1.0300
 20
  8.1300
 30
0.0
 0
VERTEX
 8
PARTS
 10
  1.0900
 20
  8.0700
 30
0.0
 0
SEQEND
 8
PARTS
 0
POLYLINE
 8
PARTS
 66
1
 10
0.0
 20
0.0
 30
0.0
 0
VERTEX
 8
PARTS
 10
  1.0900
 20
  8.0700
 30
0.0
 0
VERTEX
 8
PARTS
 10
  1.1500
 20
  8.1300
 30
0.0
 0
SEQEND
 8
PARTS
 0
POLYLINE
 8
PARTS
 66
1
 10
0.0
 20
0.0
 30
0.0
 0
VERTEX
 8
PARTS
 10
  1.1500
 20
  8.1300
 30
0.0
 0
VERTEX
 8
PARTS
 10
  1.2100
 20
  8.0700
 30
0.0
 0
SEQEND
 8
PARTS
 0
POLYLINE
 8
PARTS
 66
1
 10
0.0
 20
0.0
 30
0.0
 0
VERTEX
 8
PARTS
 10
  1.2100
 20
  8.0700
 30
0.0
 0
VERTEX
 8
PARTS
 10
  1.2700
 20
  8.1300
 30
0.0
 0
SEQEND
 8
PARTS
 0
POLYLINE
 8
PARTS
 66
1
 10
0.0
 20
0.0
 30
0.0
 0
VERTEX
 8
PARTS
 10
  1.2700
 20
  8.1300
 30
0.0
 0
VERTEX
 8
PARTS
 10
  1.3000
 20
  8.1000
 30
0.0
 0
SEQEND
 8
PARTS
 0
TEXT
 8
PARTTEXT
 10
  8.3900
 20
  1.8186
 30
0.0
 40
  0.0514
 1
F4
 0
TEXT
 8
PARTTEXT
 10
  8.3900
 20
  1.7286
 30
0.0
 40
  0.0514
 1
16-HEADER
 0
LINE
 8
PARTS
 10
  7.5000
 20
  1.3000
 30
0.0
 11
  7.5000
 21
  1.6000
 31
0.0
 0
TEXT
 8
PARTS
 10
  7.5250
 20
  1.6900
 30
0.0
 40
  0.0500
 50
 90.0000
 1
1
 0
TEXT
 8
PARTS
 10
  7.4700
 20
  1.4800
 30
0.0
 40
  0.0500
 50
 90.0000
 1
1
 0
LINE
 8
PARTS
 10
  7.6000
 20
  1.3000
 30
0.0
 11
  7.6000
 21
  1.6000
 31
0.0
 0
TEXT
 8
PARTS
 10
  7.6250
 20
  1.6900
 30
0.0
 40
  0.0500
 50
 90.0000
 1
2
 0
TEXT
 8
PARTS
 10
  7.5700
 20
  1.4800
 30
0.0
 40
  0.0500
 50
 90.0000
 1
2
 0
LINE
 8
PARTS
 10
  7.7000
 20
  1.3000
 30
0.0
 11
  7.7000
 21
  1.6000
 31
0.0
 0
TEXT
 8
PARTS
 10
  7.7250
 20
  1.6900
 30
0.0
 40
  0.0500
 50
 90.0000
 1
3
 0
TEXT
 8
PARTS
 10
  7.6700
 20
  1.4800
 30
0.0
 40
  0.0500
 50
 90.0000
 1
3
 0
LINE
 8
PARTS
 10
  7.8000
 20
  1.3000
 30
0.0
 11
  7.8000
 21
  1.6000
 31
0.0
 0
TEXT
 8
PARTS
 10
  7.8250
 20
  1.6900
 30
0.0
 40
  0.0500
 50
 90.0000
 1
4
 0
TEXT
 8
PARTS
 10
  7.7700
 20
  1.4800
 30
0.0
 40
  0.0500
 50
 90.0000
 1
4
 0
LINE
 8
PARTS
 10
  7.9000
 20
  1.3000
 30
0.0
 11
  7.9000
 21
  1.6000
 31
0.0
 0
TEXT
 8
PARTS
 10
  7.9250
 20
  1.6900
 30
0.0
 40
  0.0500
 50
 90.0000
 1
5
 0
TEXT
 8
PARTS
 10
  7.8700
 20
  1.4800
 30
0.0
 40
  0.0500
 50
 90.0000
 1
5
 0
LINE
 8
PARTS
 10
  8.0000
 20
  1.3000
 30
0.0
 11
  8.0000
 21
  1.6000
 31
0.0
 0
TEXT
 8
PARTS
 10
  8.0250
 20
  1.6900
 30
0.0
 40
  0.0500
 50
 90.0000
 1
6
 0
TEXT
 8
PARTS
 10
  7.9700
 20
  1.4800
 30
0.0
 40
  0.0500
 50
 90.0000
 1
6
 0
LINE
 8
PARTS
 10
  8.1000
 20
  1.3000
 30
0.0
 11
  8.1000
 21
  1.6000
 31
0.0
 0
TEXT
 8
PARTS
 10
  8.1250
 20
  1.6900
 30
0.0
 40
  0.0500
 50
 90.0000
 1
7
 0
TEXT
 8
PARTS
 10
  8.0700
 20
  1.4800
 30
0.0
 40
  0.0500
 50
 90.0000
 1
7
 0
LINE
 8
PARTS
 10
  7.5000
 20
  2.2000
 30
0.0
 11
  7.5000
 21
  1.9000
 31
0.0
 0
TEXT
 8
PARTS
 10
  7.5250
 20
  1.7300
 30
0.0
 40
  0.0500
 50
 90.0000
 1
16
 0
TEXT
 8
PARTS
 10
  7.4700
 20
  1.9600
 30
0.0
 40
  0.0500
 50
 90.0000
 1
16
 0
LINE
 8
PARTS
 10
  7.6000
 20
  2.2000
 30
0.0
 11
  7.6000
 21
  1.9000
 31
0.0
 0
TEXT
 8
PARTS
 10
  7.6250
 20
  1.7300
 30
0.0
 40
  0.0500
 50
 90.0000
 1
15
 0
TEXT
 8
PARTS
 10
  7.5700
 20
  1.9600
 30
0.0
 40
  0.0500
 50
 90.0000
 1
15
 0
LINE
 8
PARTS
 10
  7.7000
 20
  2.2000
 30
0.0
 11
  7.7000
 21
  1.9000
 31
0.0
 0
TEXT
 8
PARTS
 10
  7.7250
 20
  1.7300
 30
0.0
 40
  0.0500
 50
 90.0000
 1
14
 0
TEXT
 8
PARTS
 10
  7.6700
 20
  1.9600
 30
0.0
 40
  0.0500
 50
 90.0000
 1
14
 0
LINE
 8
PARTS
 10
  7.8000
 20
  2.2000
 30
0.0
 11
  7.8000
 21
  1.9000
 31
0.0
 0
TEXT
 8
PARTS
 10
  7.8250
 20
  1.7300
 30
0.0
 40
  0.0500
 50
 90.0000
 1
13
 0
TEXT
 8
PARTS
 10
  7.7700
 20
  1.9600
 30
0.0
 40
  0.0500
 50
 90.0000
 1
13
 0
LINE
 8
PARTS
 10
  7.9000
 20
  2.2000
 30
0.0
 11
  7.9000
 21
  1.9000
 31
0.0
 0
TEXT
 8
PARTS
 10
  7.9250
 20
  1.7300
 30
0.0
 40
  0.0500
 50
 90.0000
 1
12
 0
TEXT
 8
PARTS
 10
  7.8700
 20
  1.9600
 30
0.0
 40
  0.0500
 50
 90.0000
 1
12
 0
LINE
 8
PARTS
 10
  8.0000
 20
  2.2000
 30
0.0
 11
  8.0000
 21
  1.9000
 31
0.0
 0
TEXT
 8
PARTS
 10
  8.0250
 20
  1.7300
 30
0.0
 40
  0.0500
 50
 90.0000
 1
11
 0
TEXT
 8
PARTS
 10
  7.9700
 20
  1.9600
 30
0.0
 40
  0.0500
 50
 90.0000
 1
11
 0
LINE
 8
PARTS
 10
  8.1000
 20
  2.2000
 30
0.0
 11
  8.1000
 21
  1.9000
 31
0.0
 0
TEXT
 8
PARTS
 10
  8.1250
 20
  1.7300
 30
0.0
 40
  0.0500
 50
 90.0000
 1
10
 0
TEXT
 8
PARTS
 10
  8.0700
 20
  1.9600
 30
0.0
 40
  0.0500
 50
 90.0000
 1
10
 0
LINE
 8
PARTS
 10
  8.2000
 20
  2.2000
 30
0.0
 11
  8.2000
 21
  1.9000
 31
0.0
 0
TEXT
 8
PARTS
 10
  8.2250
 20
  1.7700
 30
0.0
 40
  0.0500
 50
 90.0000
 1
9
 0
TEXT
 8
PARTS
 10
  8.1700
 20
  1.9600
 30
0.0
 40
  0.0500
 50
 90.0000
 1
9
 0
LINE
 8
PARTS
 10
  8.2000
 20
  1.3000
 30
0.0
 11
  8.2000
 21
  1.6000
 31
0.0
 0
TEXT
 8
PARTS
 10
  8.2250
 20
  1.6900
 30
0.0
 40
  0.0500
 50
 90.0000
 1
8
 0
TEXT
 8
PARTS
 10
  8.1700
 20
  1.4800
 30
0.0
 40
  0.0500
 50
 90.0000
 1
8
 0
POLYLINE
 8
PARTS
 66
1
 70
1
 10
0.0
 20
0.0
 30
0.0
 0
VERTEX
 8
PARTS
 10
  7.4000
 20
  1.6000
 30
0.0
 0
VERTEX
 8
PARTS
 10
  7.4000
 20
  1.9000
 30
0.0
 0
VERTEX
 8
PARTS
 10
  8.3000
 20
  1.9000
 30
0.0
 0
VERTEX
 8
PARTS
 10
  8.3000
 20
  1.6000
 30
0.0
 0
SEQEND
 8
PARTS
 0
TEXT
 8
PARTTEXT
 10
  7.0500
 20
  2.9086
 30
0.0
 40
  0.0514
 1
U4C
 0
TEXT
 8
PARTTEXT
 10
  7.0500
 20
  2.4086
 30
0.0
 40
  0.0514
 1
74ALS1034
 0
LINE
 8
PARTS
 10
  6.7000
 20
  2.7000
 30
0.0
 11
  7.0000
 21
  2.7000
 31
0.0
 0
TEXT
 8
PARTS
 10
  6.9000
 20
  2.7300
 30
0.0
 40
  0.0500
 1
5
 0
LINE
 8
PARTS
 10
  7.7000
 20
  2.7000
 30
0.0
 11
  7.4000
 21
  2.7000
 31
0.0
 0
TEXT
 8
PARTS
 10
  7.4600
 20
  2.7300
 30
0.0
 40
  0.0500
 1
6
 0
POLYLINE
 8
PARTS
 66
1
 10
0.0
 20
0.0
 30
0.0
 0
VERTEX
 8
PARTS
 10
  7.0000
 20
  2.9000
 30
0.0
 0
VERTEX
 8
PARTS
 10
  7.4000
 20
  2.7000
 30
0.0
 0
SEQEND
 8
PARTS
 0
POLYLINE
 8
PARTS
 66
1
 10
0.0
 20
0.0
 30
0.0
 0
VERTEX
 8
PARTS
 10
  7.4000
 20
  2.7000
 30
0.0
 0
VERTEX
 8
PARTS
 10
  7.0000
 20
  2.5000
 30
0.0
 0
SEQEND
 8
PARTS
 0
POLYLINE
 8
PARTS
 66
1
 10
0.0
 20
0.0
 30
0.0
 0
VERTEX
 8
PARTS
 10
  7.0000
 20
  2.5000
 30
0.0
 0
VERTEX
 8
PARTS
 10
  7.0000
 20
  2.9000
 30
0.0
 0
SEQEND
 8
PARTS
 0
TEXT
 8
PARTTEXT
 10
  1.8500
 20
  5.6086
 30
0.0
 40
  0.0514
 1
N1
 0
TEXT
 8
PARTTEXT
 10
  1.8500
 20
  4.0086
 30
0.0
 40
  0.0514
 1
SN75ALS193
 0
LINE
 8
PARTS
 10
  1.5000
 20
  5.5000
 30
0.0
 11
  1.8000
 21
  5.5000
 31
0.0
 0
TEXT
 8
PARTS
 10
  1.8900
 20
  5.4750
 30
0.0
 40
  0.0500
 1
1A
 0
TEXT
 8
PARTS
 10
  1.7000
 20
  5.5300
 30
0.0
 40
  0.0500
 1
2
 0
CIRCLE
 8
PARTS
 10
  1.7700
 20
  5.4000
 30
0.0
 40
  0.0300
 0
LINE
 8
PARTS
 10
  1.5000
 20
  5.4000
 30
0.0
 11
  1.7400
 21
  5.4000
 31
0.0
 0
TEXT
 8
PARTS
 10
  1.8900
 20
  5.3750
 30
0.0
 40
  0.0500
 1
1B
 0
TEXT
 8
PARTS
 10
  1.7000
 20
  5.4300
 30
0.0
 40
  0.0500
 1
1
 0
LINE
 8
PARTS
 10
  1.5000
 20
  5.2000
 30
0.0
 11
  1.8000
 21
  5.2000
 31
0.0
 0
TEXT
 8
PARTS
 10
  1.8900
 20
  5.1750
 30
0.0
 40
  0.0500
 1
2A
 0
TEXT
 8
PARTS
 10
  1.7000
 20
  5.2300
 30
0.0
 40
  0.0500
 1
6
 0
CIRCLE
 8
PARTS
 10
  1.7700
 20
  5.1000
 30
0.0
 40
  0.0300
 0
LINE
 8
PARTS
 10
  1.5000
 20
  5.1000
 30
0.0
 11
  1.7400
 21
  5.1000
 31
0.0
 0
TEXT
 8
PARTS
 10
  1.8900
 20
  5.0750
 30
0.0
 40
  0.0500
 1
2B
 0
TEXT
 8
PARTS
 10
  1.7000
 20
  5.1300
 30
0.0
 40
  0.0500
 1
7
 0
LINE
 8
PARTS
 10
  1.5000
 20
  4.9000
 30
0.0
 11
  1.8000
 21
  4.9000
 31
0.0
 0
TEXT
 8
PARTS
 10
  1.8900
 20
  4.8750
 30
0.0
 40
  0.0500
 1
3A
 0
TEXT
 8
PARTS
 10
  1.6600
 20
  4.9300
 30
0.0
 40
  0.0500
 1
10
 0
CIRCLE
 8
PARTS
 10
  1.7700
 20
  4.8000
 30
0.0
 40
  0.0300
 0
LINE
 8
PARTS
 10
  1.5000
 20
  4.8000
 30
0.0
 11
  1.7400
 21
  4.8000
 31
0.0
 0
TEXT
 8
PARTS
 10
  1.8900
 20
  4.7750
 30
0.0
 40
  0.0500
 1
3B
 0
TEXT
 8
PARTS
 10
  1.7000
 20
  4.8300
 30
0.0
 40
  0.0500
 1
9
 0
LINE
 8
PARTS
 10
  1.5000
 20
  4.6000
 30
0.0
 11
  1.8000
 21
  4.6000
 31
0.0
 0
TEXT
 8
PARTS
 10
  1.8900
 20
  4.5750
 30
0.0
 40
  0.0500
 1
4A
 0
TEXT
 8
PARTS
 10
  1.6600
 20
  4.6300
 30
0.0
 40
  0.0500
 1
14
 0
CIRCLE
 8
PARTS
 10
  1.7700
 20
  4.5000
 30
0.0
 40
  0.0300
 0
LINE
 8
PARTS
 10
  1.5000
 20
  4.5000
 30
0.0
 11
  1.7400
 21
  4.5000
 31
0.0
 0
TEXT
 8
PARTS
 10
  1.8900
 20
  4.4750
 30
0.0
 40
  0.0500
 1
4B
 0
TEXT
 8
PARTS
 10
  1.6600
 20
  4.5300
 30
0.0
 40
  0.0500
 1
15
 0
LINE
 8
PARTS
 10
  1.5000
 20
  4.3000
 30
0.0
 11
  1.8000
 21
  4.3000
 31
0.0
 0
TEXT
 8
PARTS
 10
  1.8900
 20
  4.2750
 30
0.0
 40
  0.0500
 1
%%oG%%o
 0
TEXT
 8
PARTS
 10
  1.6600
 20
  4.3300
 30
0.0
 40
  0.0500
 1
12
 0
LINE
 8
PARTS
 10
  1.5000
 20
  4.2000
 30
0.0
 11
  1.8000
 21
  4.2000
 31
0.0
 0
TEXT
 8
PARTS
 10
  1.8900
 20
  4.1750
 30
0.0
 40
  0.0500
 1
G
 0
TEXT
 8
PARTS
 10
  1.7000
 20
  4.2300
 30
0.0
 40
  0.0500
 1
4
 0
LINE
 8
PARTS
 10
  2.7000
 20
  5.5000
 30
0.0
 11
  2.4000
 21
  5.5000
 31
0.0
 0
TEXT
 8
PARTS
 10
  2.2300
 20
  5.4750
 30
0.0
 40
  0.0500
 1
1Y
 0
TEXT
 8
PARTS
 10
  2.4600
 20
  5.5300
 30
0.0
 40
  0.0500
 1
3
 0
LINE
 8
PARTS
 10
  2.7000
 20
  5.2000
 30
0.0
 11
  2.4000
 21
  5.2000
 31
0.0
 0
TEXT
 8
PARTS
 10
  2.2300
 20
  5.1750
 30
0.0
 40
  0.0500
 1
2Y
 0
TEXT
 8
PARTS
 10
  2.4600
 20
  5.2300
 30
0.0
 40
  0.0500
 1
5
 0
LINE
 8
PARTS
 10
  2.7000
 20
  4.9000
 30
0.0
 11
  2.4000
 21
  4.9000
 31
0.0
 0
TEXT
 8
PARTS
 10
  2.2300
 20
  4.8750
 30
0.0
 40
  0.0500
 1
3Y
 0
TEXT
 8
PARTS
 10
  2.4600
 20
  4.9300
 30
0.0
 40
  0.0500
 1
11
 0
LINE
 8
PARTS
 10
  2.7000
 20
  4.6000
 30
0.0
 11
  2.4000
 21
  4.6000
 31
0.0
 0
TEXT
 8
PARTS
 10
  2.2300
 20
  4.5750
 30
0.0
 40
  0.0500
 1
4Y
 0
TEXT
 8
PARTS
 10
  2.4600
 20
  4.6300
 30
0.0
 40
  0.0500
 1
13
 0
POLYLINE
 8
PARTS
 66
1
 70
1
 10
0.0
 20
0.0
 30
0.0
 0
VERTEX
 8
PARTS
 10
  1.8000
 20
  5.6000
 30
0.0
 0
VERTEX
 8
PARTS
 10
  2.4000
 20
  5.6000
 30
0.0
 0
VERTEX
 8
PARTS
 10
  2.4000
 20
  4.1000
 30
0.0
 0
VERTEX
 8
PARTS
 10
  1.8000
 20
  4.1000
 30
0.0
 0
SEQEND
 8
PARTS
 0
TEXT
 8
PARTTEXT
 10
  7.0500
 20
  0.8086
 30
0.0
 40
  0.0514
 1
G4C
 0
TEXT
 8
PARTTEXT
 10
  7.0500
 20
  0.3086
 30
0.0
 40
  0.0514
 1
74ALS1034
 0
LINE
 8
PARTS
 10
  6.7000
 20
  0.6000
 30
0.0
 11
  7.0000
 21
  0.6000
 31
0.0
 0
TEXT
 8
PARTS
 10
  6.9000
 20
  0.6300
 30
0.0
 40
  0.0500
 1
5
 0
LINE
 8
PARTS
 10
  7.7000
 20
  0.6000
 30
0.0
 11
  7.4000
 21
  0.6000
 31
0.0
 0
TEXT
 8
PARTS
 10
  7.4600
 20
  0.6300
 30
0.0
 40
  0.0500
 1
6
 0
POLYLINE
 8
PARTS
 66
1
 10
0.0
 20
0.0
 30
0.0
 0
VERTEX
 8
PARTS
 10
  7.0000
 20
  0.8000
 30
0.0
 0
VERTEX
 8
PARTS
 10
  7.4000
 20
  0.6000
 30
0.0
 0
SEQEND
 8
PARTS
 0
POLYLINE
 8
PARTS
 66
1
 10
0.0
 20
0.0
 30
0.0
 0
VERTEX
 8
PARTS
 10
  7.4000
 20
  0.6000
 30
0.0
 0
VERTEX
 8
PARTS
 10
  7.0000
 20
  0.4000
 30
0.0
 0
SEQEND
 8
PARTS
 0
POLYLINE
 8
PARTS
 66
1
 10
0.0
 20
0.0
 30
0.0
 0
VERTEX
 8
PARTS
 10
  7.0000
 20
  0.4000
 30
0.0
 0
VERTEX
 8
PARTS
 10
  7.0000
 20
  0.8000
 30
0.0
 0
SEQEND
 8
PARTS
 0
LINE
 8
PARTS
 10
  0.9000
 20
  3.3000
 30
0.0
 11
  1.0000
 21
  3.3000
 31
0.0
 0
TEXT
 8
PARTS
 10
  0.9400
 20
  3.3300
 30
0.0
 40
  0.0500
 1

 0
LINE
 8
PARTS
 10
  1.4000
 20
  3.3000
 30
0.0
 11
  1.3000
 21
  3.3000
 31
0.0
 0
TEXT
 8
PARTS
 10
  1.3600
 20
  3.3300
 30
0.0
 40
  0.0500
 1

 0
POLYLINE
 8
PARTS
 66
1
 10
0.0
 20
0.0
 30
0.0
 0
VERTEX
 8
PARTS
 10
  1.0000
 20
  3.3000
 30
0.0
 0
VERTEX
 8
PARTS
 10
  1.0300
 20
  3.3300
 30
0.0
 0
SEQEND
 8
PARTS
 0
POLYLINE
 8
PARTS
 66
1
 10
0.0
 20
0.0
 30
0.0
 0
VERTEX
 8
PARTS
 10
  1.0300
 20
  3.3300
 30
0.0
 0
VERTEX
 8
PARTS
 10
  1.0900
 20
  3.2700
 30
0.0
 0
SEQEND
 8
PARTS
 0
POLYLINE
 8
PARTS
 66
1
 10
0.0
 20
0.0
 30
0.0
 0
VERTEX
 8
PARTS
 10
  1.0900
 20
  3.2700
 30
0.0
 0
VERTEX
 8
PARTS
 10
  1.1500
 20
  3.3300
 30
0.0
 0
SEQEND
 8
PARTS
 0
POLYLINE
 8
PARTS
 66
1
 10
0.0
 20
0.0
 30
0.0
 0
VERTEX
 8
PARTS
 10
  1.1500
 20
  3.3300
 30
0.0
 0
VERTEX
 8
PARTS
 10
  1.2100
 20
  3.2700
 30
0.0
 0
SEQEND
 8
PARTS
 0
POLYLINE
 8
PARTS
 66
1
 10
0.0
 20
0.0
 30
0.0
 0
VERTEX
 8
PARTS
 10
  1.2100
 20
  3.2700
 30
0.0
 0
VERTEX
 8
PARTS
 10
  1.2700
 20
  3.3300
 30
0.0
 0
SEQEND
 8
PARTS
 0
POLYLINE
 8
PARTS
 66
1
 10
0.0
 20
0.0
 30
0.0
 0
VERTEX
 8
PARTS
 10
  1.2700
 20
  3.3300
 30
0.0
 0
VERTEX
 8
PARTS
 10
  1.3000
 20
  3.3000
 30
0.0
 0
SEQEND
 8
PARTS
 0
TEXT
 8
PARTTEXT
 10
  8.0500
 20
  0.8086
 30
0.0
 40
  0.0514
 1
G4D
 0
TEXT
 8
PARTTEXT
 10
  8.0500
 20
  0.3086
 30
0.0
 40
  0.0514
 1
74ALS1034
 0
LINE
 8
PARTS
 10
  7.7000
 20
  0.6000
 30
0.0
 11
  8.0000
 21
  0.6000
 31
0.0
 0
TEXT
 8
PARTS
 10
  7.9000
 20
  0.6300
 30
0.0
 40
  0.0500
 1
9
 0
LINE
 8
PARTS
 10
  8.7000
 20
  0.6000
 30
0.0
 11
  8.4000
 21
  0.6000
 31
0.0
 0
TEXT
 8
PARTS
 10
  8.4600
 20
  0.6300
 30
0.0
 40
  0.0500
 1
8
 0
POLYLINE
 8
PARTS
 66
1
 10
0.0
 20
0.0
 30
0.0
 0
VERTEX
 8
PARTS
 10
  8.0000
 20
  0.8000
 30
0.0
 0
VERTEX
 8
PARTS
 10
  8.4000
 20
  0.6000
 30
0.0
 0
SEQEND
 8
PARTS
 0
POLYLINE
 8
PARTS
 66
1
 10
0.0
 20
0.0
 30
0.0
 0
VERTEX
 8
PARTS
 10
  8.4000
 20
  0.6000
 30
0.0
 0
VERTEX
 8
PARTS
 10
  8.0000
 20
  0.4000
 30
0.0
 0
SEQEND
 8
PARTS
 0
POLYLINE
 8
PARTS
 66
1
 10
0.0
 20
0.0
 30
0.0
 0
VERTEX
 8
PARTS
 10
  8.0000
 20
  0.4000
 30
0.0
 0
VERTEX
 8
PARTS
 10
  8.0000
 20
  0.8000
 30
0.0
 0
SEQEND
 8
PARTS
 0
TEXT
 8
PARTTEXT
 10
 13.3500
 20
  7.6086
 30
0.0
 40
  0.0514
 1
G1
 0
TEXT
 8
PARTTEXT
 10
 13.3500
 20
  6.1086
 30
0.0
 40
  0.0514
 1
SN75ALS192
 0
LINE
 8
PARTS
 10
 13.0000
 20
  7.5000
 30
0.0
 11
 13.3000
 21
  7.5000
 31
0.0
 0
TEXT
 8
PARTS
 10
 13.3900
 20
  7.4750
 30
0.0
 40
  0.0500
 1
1A
 0
TEXT
 8
PARTS
 10
 13.2000
 20
  7.5300
 30
0.0
 40
  0.0500
 1
1
 0
LINE
 8
PARTS
 10
 13.0000
 20
  7.2000
 30
0.0
 11
 13.3000
 21
  7.2000
 31
0.0
 0
TEXT
 8
PARTS
 10
 13.3900
 20
  7.1750
 30
0.0
 40
  0.0500
 1
2A
 0
TEXT
 8
PARTS
 10
 13.2000
 20
  7.2300
 30
0.0
 40
  0.0500
 1
7
 0
LINE
 8
PARTS
 10
 13.0000
 20
  6.9000
 30
0.0
 11
 13.3000
 21
  6.9000
 31
0.0
 0
TEXT
 8
PARTS
 10
 13.3900
 20
  6.8750
 30
0.0
 40
  0.0500
 1
3A
 0
TEXT
 8
PARTS
 10
 13.2000
 20
  6.9300
 30
0.0
 40
  0.0500
 1
9
 0
LINE
 8
PARTS
 10
 13.0000
 20
  6.6000
 30
0.0
 11
 13.3000
 21
  6.6000
 31
0.0
 0
TEXT
 8
PARTS
 10
 13.3900
 20
  6.5750
 30
0.0
 40
  0.0500
 1
4A
 0
TEXT
 8
PARTS
 10
 13.1600
 20
  6.6300
 30
0.0
 40
  0.0500
 1
15
 0
LINE
 8
PARTS
 10
 13.0000
 20
  6.4000
 30
0.0
 11
 13.3000
 21
  6.4000
 31
0.0
 0
TEXT
 8
PARTS
 10
 13.3900
 20
  6.3750
 30
0.0
 40
  0.0500
 1
%%oG%%o
 0
TEXT
 8
PARTS
 10
 13.1600
 20
  6.4300
 30
0.0
 40
  0.0500
 1
12
 0
LINE
 8
PARTS
 10
 13.0000
 20
  6.3000
 30
0.0
 11
 13.3000
 21
  6.3000
 31
0.0
 0
TEXT
 8
PARTS
 10
 13.3900
 20
  6.2750
 30
0.0
 40
  0.0500
 1
G
 0
TEXT
 8
PARTS
 10
 13.2000
 20
  6.3300
 30
0.0
 40
  0.0500
 1
4
 0
LINE
 8
PARTS
 10
 14.2000
 20
  7.5000
 30
0.0
 11
 13.9000
 21
  7.5000
 31
0.0
 0
TEXT
 8
PARTS
 10
 13.7300
 20
  7.4750
 30
0.0
 40
  0.0500
 1
1Y
 0
TEXT
 8
PARTS
 10
 13.9600
 20
  7.5300
 30
0.0
 40
  0.0500
 1
2
 0
CIRCLE
 8
PARTS
 10
 13.9300
 20
  7.4000
 30
0.0
 40
  0.0300
 0
LINE
 8
PARTS
 10
 14.2000
 20
  7.4000
 30
0.0
 11
 13.9600
 21
  7.4000
 31
0.0
 0
TEXT
 8
PARTS
 10
 13.7300
 20
  7.3750
 30
0.0
 40
  0.0500
 1
1Z
 0
TEXT
 8
PARTS
 10
 13.9600
 20
  7.4300
 30
0.0
 40
  0.0500
 1
3
 0
LINE
 8
PARTS
 10
 14.2000
 20
  7.2000
 30
0.0
 11
 13.9000
 21
  7.2000
 31
0.0
 0
TEXT
 8
PARTS
 10
 13.7300
 20
  7.1750
 30
0.0
 40
  0.0500
 1
2Y
 0
TEXT
 8
PARTS
 10
 13.9600
 20
  7.2300
 30
0.0
 40
  0.0500
 1
6
 0
CIRCLE
 8
PARTS
 10
 13.9300
 20
  7.1000
 30
0.0
 40
  0.0300
 0
LINE
 8
PARTS
 10
 14.2000
 20
  7.1000
 30
0.0
 11
 13.9600
 21
  7.1000
 31
0.0
 0
TEXT
 8
PARTS
 10
 13.7300
 20
  7.0750
 30
0.0
 40
  0.0500
 1
2Z
 0
TEXT
 8
PARTS
 10
 13.9600
 20
  7.1300
 30
0.0
 40
  0.0500
 1
5
 0
LINE
 8
PARTS
 10
 14.2000
 20
  6.9000
 30
0.0
 11
 13.9000
 21
  6.9000
 31
0.0
 0
TEXT
 8
PARTS
 10
 13.7300
 20
  6.8750
 30
0.0
 40
  0.0500
 1
3Y
 0
TEXT
 8
PARTS
 10
 13.9600
 20
  6.9300
 30
0.0
 40
  0.0500
 1
10
 0
CIRCLE
 8
PARTS
 10
 13.9300
 20
  6.8000
 30
0.0
 40
  0.0300
 0
LINE
 8
PARTS
 10
 14.2000
 20
  6.8000
 30
0.0
 11
 13.9600
 21
  6.8000
 31
0.0
 0
TEXT
 8
PARTS
 10
 13.7300
 20
  6.7750
 30
0.0
 40
  0.0500
 1
3Z
 0
TEXT
 8
PARTS
 10
 13.9600
 20
  6.8300
 30
0.0
 40
  0.0500
 1
11
 0
LINE
 8
PARTS
 10
 14.2000
 20
  6.6000
 30
0.0
 11
 13.9000
 21
  6.6000
 31
0.0
 0
TEXT
 8
PARTS
 10
 13.7300
 20
  6.5750
 30
0.0
 40
  0.0500
 1
4Y
 0
TEXT
 8
PARTS
 10
 13.9600
 20
  6.6300
 30
0.0
 40
  0.0500
 1
14
 0
CIRCLE
 8
PARTS
 10
 13.9300
 20
  6.5000
 30
0.0
 40
  0.0300
 0
LINE
 8
PARTS
 10
 14.2000
 20
  6.5000
 30
0.0
 11
 13.9600
 21
  6.5000
 31
0.0
 0
TEXT
 8
PARTS
 10
 13.7300
 20
  6.4750
 30
0.0
 40
  0.0500
 1
4Z
 0
TEXT
 8
PARTS
 10
 13.9600
 20
  6.5300
 30
0.0
 40
  0.0500
 1
13
 0
POLYLINE
 8
PARTS
 66
1
 70
1
 10
0.0
 20
0.0
 30
0.0
 0
VERTEX
 8
PARTS
 10
 13.3000
 20
  7.6000
 30
0.0
 0
VERTEX
 8
PARTS
 10
 13.9000
 20
  7.6000
 30
0.0
 0
VERTEX
 8
PARTS
 10
 13.9000
 20
  6.2000
 30
0.0
 0
VERTEX
 8
PARTS
 10
 13.3000
 20
  6.2000
 30
0.0
 0
SEQEND
 8
PARTS
 0
TEXT
 8
PARTTEXT
 10
 11.2900
 20
  6.0086
 30
0.0
 40
  0.0514
 1
E4A
 0
TEXT
 8
PARTTEXT
 10
 11.2900
 20
  5.2186
 30
0.0
 40
  0.0514
 1
74F74
 0
LINE
 8
PARTS
 10
 10.3000
 20
  5.8000
 30
0.0
 11
 10.6000
 21
  5.8000
 31
0.0
 0
TEXT
 8
PARTS
 10
 10.6900
 20
  5.7750
 30
0.0
 40
  0.0500
 1
D
 0
TEXT
 8
PARTS
 10
 10.5000
 20
  5.8300
 30
0.0
 40
  0.0500
 1
2
 0
LINE
 8
PARTS
 10
 10.3000
 20
  5.6000
 30
0.0
 11
 10.6000
 21
  5.6000
 31
0.0
 0
LINE
 8
PARTS
 10
 10.6000
 20
  5.6600
 30
0.0
 11
 10.6600
 21
  5.6000
 31
0.0
 0
LINE
 8
PARTS
 10
 10.6600
 20
  5.6000
 30
0.0
 11
 10.6000
 21
  5.5400
 31
0.0
 0
TEXT
 8
PARTS
 10
 10.6900
 20
  5.5750
 30
0.0
 40
  0.0500
 1
CLK
 0
TEXT
 8
PARTS
 10
 10.5000
 20
  5.6300
 30
0.0
 40
  0.0500
 1
3
 0
LINE
 8
PARTS
 10
 11.5000
 20
  5.8000
 30
0.0
 11
 11.2000
 21
  5.8000
 31
0.0
 0
TEXT
 8
PARTS
 10
 11.0700
 20
  5.7750
 30
0.0
 40
  0.0500
 1
Q
 0
TEXT
 8
PARTS
 10
 11.2600
 20
  5.8300
 30
0.0
 40
  0.0500
 1
5
 0
LINE
 8
PARTS
 10
 11.5000
 20
  5.4000
 30
0.0
 11
 11.2000
 21
  5.4000
 31
0.0
 0
TEXT
 8
PARTS
 10
 11.0700
 20
  5.3750
 30
0.0
 40
  0.0500
 1
%%oQ%%o
 0
TEXT
 8
PARTS
 10
 11.2600
 20
  5.4300
 30
0.0
 40
  0.0500
 1
6
 0
CIRCLE
 8
PARTS
 10
 10.9000
 20
  5.9300
 30
0.0
 40
  0.0300
 0
LINE
 8
PARTS
 10
 10.9000
 20
  6.2000
 30
0.0
 11
 10.9000
 21
  5.9600
 31
0.0
 0
TEXT
 8
PARTS
 10
 10.9250
 20
  5.7300
 30
0.0
 40
  0.0500
 50
 90.0000
 1
PR
 0
TEXT
 8
PARTS
 10
 10.8700
 20
  5.9600
 30
0.0
 40
  0.0500
 50
 90.0000
 1
4
 0
CIRCLE
 8
PARTS
 10
 10.9000
 20
  5.2700
 30
0.0
 40
  0.0300
 0
LINE
 8
PARTS
 10
 10.9000
 20
  5.0000
 30
0.0
 11
 10.9000
 21
  5.2400
 31
0.0
 0
TEXT
 8
PARTS
 10
 10.9250
 20
  5.3900
 30
0.0
 40
  0.0500
 50
 90.0000
 1
CL
 0
TEXT
 8
PARTS
 10
 10.8700
 20
  5.1800
 30
0.0
 40
  0.0500
 50
 90.0000
 1
1
 0
POLYLINE
 8
PARTS
 66
1
 70
1
 10
0.0
 20
0.0
 30
0.0
 0
VERTEX
 8
PARTS
 10
 10.6000
 20
  5.9000
 30
0.0
 0
VERTEX
 8
PARTS
 10
 11.2000
 20
  5.9000
 30
0.0
 0
VERTEX
 8
PARTS
 10
 11.2000
 20
  5.3000
 30
0.0
 0
VERTEX
 8
PARTS
 10
 10.6000
 20
  5.3000
 30
0.0
 0
SEQEND
 8
PARTS
 0
TEXT
 8
PARTTEXT
 10
  1.0400
 20
  5.7186
 30
0.0
 40
  0.0514
 1
R1B
 0
TEXT
 8
PARTTEXT
 10
  1.0100
 20
  5.6086
 30
0.0
 40
  0.0514
 1
120
 0
LINE
 8
PARTS
 10
  0.9000
 20
  5.4000
 30
0.0
 11
  1.0000
 21
  5.4000
 31
0.0
 0
TEXT
 8
PARTS
 10
  0.9400
 20
  5.4300
 30
0.0
 40
  0.0500
 1

 0
LINE
 8
PARTS
 10
  1.4000
 20
  5.4000
 30
0.0
 11
  1.3000
 21
  5.4000
 31
0.0
 0
TEXT
 8
PARTS
 10
  1.3600
 20
  5.4300
 30
0.0
 40
  0.0500
 1

 0
POLYLINE
 8
PARTS
 66
1
 10
0.0
 20
0.0
 30
0.0
 0
VERTEX
 8
PARTS
 10
  1.0000
 20
  5.4000
 30
0.0
 0
VERTEX
 8
PARTS
 10
  1.0300
 20
  5.4300
 30
0.0
 0
SEQEND
 8
PARTS
 0
POLYLINE
 8
PARTS
 66
1
 10
0.0
 20
0.0
 30
0.0
 0
VERTEX
 8
PARTS
 10
  1.0300
 20
  5.4300
 30
0.0
 0
VERTEX
 8
PARTS
 10
  1.0900
 20
  5.3700
 30
0.0
 0
SEQEND
 8
PARTS
 0
POLYLINE
 8
PARTS
 66
1
 10
0.0
 20
0.0
 30
0.0
 0
VERTEX
 8
PARTS
 10
  1.0900
 20
  5.3700
 30
0.0
 0
VERTEX
 8
PARTS
 10
  1.1500
 20
  5.4300
 30
0.0
 0
SEQEND
 8
PARTS
 0
POLYLINE
 8
PARTS
 66
1
 10
0.0
 20
0.0
 30
0.0
 0
VERTEX
 8
PARTS
 10
  1.1500
 20
  5.4300
 30
0.0
 0
VERTEX
 8
PARTS
 10
  1.2100
 20
  5.3700
 30
0.0
 0
SEQEND
 8
PARTS
 0
POLYLINE
 8
PARTS
 66
1
 10
0.0
 20
0.0
 30
0.0
 0
VERTEX
 8
PARTS
 10
  1.2100
 20
  5.3700
 30
0.0
 0
VERTEX
 8
PARTS
 10
  1.2700
 20
  5.4300
 30
0.0
 0
SEQEND
 8
PARTS
 0
POLYLINE
 8
PARTS
 66
1
 10
0.0
 20
0.0
 30
0.0
 0
VERTEX
 8
PARTS
 10
  1.2700
 20
  5.4300
 30
0.0
 0
VERTEX
 8
PARTS
 10
  1.3000
 20
  5.4000
 30
0.0
 0
SEQEND
 8
PARTS
 0
LINE
 8
PARTS
 10
  0.9000
 20
  6.9000
 30
0.0
 11
  1.0000
 21
  6.9000
 31
0.0
 0
TEXT
 8
PARTS
 10
  0.9400
 20
  6.9300
 30
0.0
 40
  0.0500
 1

 0
LINE
 8
PARTS
 10
  1.4000
 20
  6.9000
 30
0.0
 11
  1.3000
 21
  6.9000
 31
0.0
 0
TEXT
 8
PARTS
 10
  1.3600
 20
  6.9300
 30
0.0
 40
  0.0500
 1

 0
POLYLINE
 8
PARTS
 66
1
 10
0.0
 20
0.0
 30
0.0
 0
VERTEX
 8
PARTS
 10
  1.0000
 20
  6.9000
 30
0.0
 0
VERTEX
 8
PARTS
 10
  1.0300
 20
  6.9300
 30
0.0
 0
SEQEND
 8
PARTS
 0
POLYLINE
 8
PARTS
 66
1
 10
0.0
 20
0.0
 30
0.0
 0
VERTEX
 8
PARTS
 10
  1.0300
 20
  6.9300
 30
0.0
 0
VERTEX
 8
PARTS
 10
  1.0900
 20
  6.8700
 30
0.0
 0
SEQEND
 8
PARTS
 0
POLYLINE
 8
PARTS
 66
1
 10
0.0
 20
0.0
 30
0.0
 0
VERTEX
 8
PARTS
 10
  1.0900
 20
  6.8700
 30
0.0
 0
VERTEX
 8
PARTS
 10
  1.1500
 20
  6.9300
 30
0.0
 0
SEQEND
 8
PARTS
 0
POLYLINE
 8
PARTS
 66
1
 10
0.0
 20
0.0
 30
0.0
 0
VERTEX
 8
PARTS
 10
  1.1500
 20
  6.9300
 30
0.0
 0
VERTEX
 8
PARTS
 10
  1.2100
 20
  6.8700
 30
0.0
 0
SEQEND
 8
PARTS
 0
POLYLINE
 8
PARTS
 66
1
 10
0.0
 20
0.0
 30
0.0
 0
VERTEX
 8
PARTS
 10
  1.2100
 20
  6.8700
 30
0.0
 0
VERTEX
 8
PARTS
 10
  1.2700
 20
  6.9300
 30
0.0
 0
SEQEND
 8
PARTS
 0
POLYLINE
 8
PARTS
 66
1
 10
0.0
 20
0.0
 30
0.0
 0
VERTEX
 8
PARTS
 10
  1.2700
 20
  6.9300
 30
0.0
 0
VERTEX
 8
PARTS
 10
  1.3000
 20
  6.9000
 30
0.0
 0
SEQEND
 8
PARTS
 0
TEXT
 8
PARTTEXT
 10
  9.0500
 20
  0.8086
 30
0.0
 40
  0.0514
 1
G4E
 0
TEXT
 8
PARTTEXT
 10
  9.0500
 20
  0.3086
 30
0.0
 40
  0.0514
 1
74ALS1034
 0
LINE
 8
PARTS
 10
  8.7000
 20
  0.6000
 30
0.0
 11
  9.0000
 21
  0.6000
 31
0.0
 0
TEXT
 8
PARTS
 10
  8.8600
 20
  0.6300
 30
0.0
 40
  0.0500
 1
11
 0
LINE
 8
PARTS
 10
  9.7000
 20
  0.6000
 30
0.0
 11
  9.4000
 21
  0.6000
 31
0.0
 0
TEXT
 8
PARTS
 10
  9.4600
 20
  0.6300
 30
0.0
 40
  0.0500
 1
10
 0
POLYLINE
 8
PARTS
 66
1
 10
0.0
 20
0.0
 30
0.0
 0
VERTEX
 8
PARTS
 10
  9.0000
 20
  0.8000
 30
0.0
 0
VERTEX
 8
PARTS
 10
  9.4000
 20
  0.6000
 30
0.0
 0
SEQEND
 8
PARTS
 0
POLYLINE
 8
PARTS
 66
1
 10
0.0
 20
0.0
 30
0.0
 0
VERTEX
 8
PARTS
 10
  9.4000
 20
  0.6000
 30
0.0
 0
VERTEX
 8
PARTS
 10
  9.0000
 20
  0.4000
 30
0.0
 0
SEQEND
 8
PARTS
 0
POLYLINE
 8
PARTS
 66
1
 10
0.0
 20
0.0
 30
0.0
 0
VERTEX
 8
PARTS
 10
  9.0000
 20
  0.4000
 30
0.0
 0
VERTEX
 8
PARTS
 10
  9.0000
 20
  0.8000
 30
0.0
 0
SEQEND
 8
PARTS
 0
TEXT
 8
PARTTEXT
 10
 13.1500
 20
  3.2086
 30
0.0
 40
  0.0514
 1
B1
 0
TEXT
 8
PARTTEXT
 10
 13.1500
 20
  2.9086
 30
0.0
 40
  0.0514
 1
360
 0
LINE
 8
PARTS
 10
 13.0000
 20
  3.1000
 30
0.0
 11
 13.1000
 21
  3.1000
 31
0.0
 0
TEXT
 8
PARTS
 10
 13.0400
 20
  3.1300
 30
0.0
 40
  0.0500
 1

 0
LINE
 8
PARTS
 10
 13.5000
 20
  3.1000
 30
0.0
 11
 13.4000
 21
  3.1000
 31
0.0
 0
TEXT
 8
PARTS
 10
 13.4600
 20
  3.1300
 30
0.0
 40
  0.0500
 1

 0
POLYLINE
 8
PARTS
 66
1
 10
0.0
 20
0.0
 30
0.0
 0
VERTEX
 8
PARTS
 10
 13.1000
 20
  3.1000
 30
0.0
 0
VERTEX
 8
PARTS
 10
 13.1300
 20
  3.1300
 30
0.0
 0
SEQEND
 8
PARTS
 0
POLYLINE
 8
PARTS
 66
1
 10
0.0
 20
0.0
 30
0.0
 0
VERTEX
 8
PARTS
 10
 13.1300
 20
  3.1300
 30
0.0
 0
VERTEX
 8
PARTS
 10
 13.1900
 20
  3.0700
 30
0.0
 0
SEQEND
 8
PARTS
 0
POLYLINE
 8
PARTS
 66
1
 10
0.0
 20
0.0
 30
0.0
 0
VERTEX
 8
PARTS
 10
 13.1900
 20
  3.0700
 30
0.0
 0
VERTEX
 8
PARTS
 10
 13.2500
 20
  3.1300
 30
0.0
 0
SEQEND
 8
PARTS
 0
POLYLINE
 8
PARTS
 66
1
 10
0.0
 20
0.0
 30
0.0
 0
VERTEX
 8
PARTS
 10
 13.2500
 20
  3.1300
 30
0.0
 0
VERTEX
 8
PARTS
 10
 13.3100
 20
  3.0700
 30
0.0
 0
SEQEND
 8
PARTS
 0
POLYLINE
 8
PARTS
 66
1
 10
0.0
 20
0.0
 30
0.0
 0
VERTEX
 8
PARTS
 10
 13.3100
 20
  3.0700
 30
0.0
 0
VERTEX
 8
PARTS
 10
 13.3700
 20
  3.1300
 30
0.0
 0
SEQEND
 8
PARTS
 0
POLYLINE
 8
PARTS
 66
1
 10
0.0
 20
0.0
 30
0.0
 0
VERTEX
 8
PARTS
 10
 13.3700
 20
  3.1300
 30
0.0
 0
VERTEX
 8
PARTS
 10
 13.4000
 20
  3.1000
 30
0.0
 0
SEQEND
 8
PARTS
 0
TEXT
 8
PARTTEXT
 10
 14.2900
 20
  5.4086
 30
0.0
 40
  0.0514
 1
E4B
 0
TEXT
 8
PARTTEXT
 10
 14.2900
 20
  4.6186
 30
0.0
 40
  0.0514
 1
74F74
 0
LINE
 8
PARTS
 10
 13.3000
 20
  5.2000
 30
0.0
 11
 13.6000
 21
  5.2000
 31
0.0
 0
TEXT
 8
PARTS
 10
 13.6900
 20
  5.1750
 30
0.0
 40
  0.0500
 1
D
 0
TEXT
 8
PARTS
 10
 13.4600
 20
  5.2300
 30
0.0
 40
  0.0500
 1
12
 0
LINE
 8
PARTS
 10
 13.3000
 20
  5.0000
 30
0.0
 11
 13.6000
 21
  5.0000
 31
0.0
 0
LINE
 8
PARTS
 10
 13.6000
 20
  5.0600
 30
0.0
 11
 13.6600
 21
  5.0000
 31
0.0
 0
LINE
 8
PARTS
 10
 13.6600
 20
  5.0000
 30
0.0
 11
 13.6000
 21
  4.9400
 31
0.0
 0
TEXT
 8
PARTS
 10
 13.6900
 20
  4.9750
 30
0.0
 40
  0.0500
 1
CLK
 0
TEXT
 8
PARTS
 10
 13.4600
 20
  5.0300
 30
0.0
 40
  0.0500
 1
11
 0
LINE
 8
PARTS
 10
 14.5000
 20
  5.2000
 30
0.0
 11
 14.2000
 21
  5.2000
 31
0.0
 0
TEXT
 8
PARTS
 10
 14.0700
 20
  5.1750
 30
0.0
 40
  0.0500
 1
Q
 0
TEXT
 8
PARTS
 10
 14.2600
 20
  5.2300
 30
0.0
 40
  0.0500
 1
9
 0
LINE
 8
PARTS
 10
 14.5000
 20
  4.8000
 30
0.0
 11
 14.2000
 21
  4.8000
 31
0.0
 0
TEXT
 8
PARTS
 10
 14.0700
 20
  4.7750
 30
0.0
 40
  0.0500
 1
%%oQ%%o
 0
TEXT
 8
PARTS
 10
 14.2600
 20
  4.8300
 30
0.0
 40
  0.0500
 1
8
 0
CIRCLE
 8
PARTS
 10
 13.9000
 20
  5.3300
 30
0.0
 40
  0.0300
 0
LINE
 8
PARTS
 10
 13.9000
 20
  5.6000
 30
0.0
 11
 13.9000
 21
  5.3600
 31
0.0
 0
TEXT
 8
PARTS
 10
 13.9250
 20
  5.1300
 30
0.0
 40
  0.0500
 50
 90.0000
 1
PR
 0
TEXT
 8
PARTS
 10
 13.8700
 20
  5.3600
 30
0.0
 40
  0.0500
 50
 90.0000
 1
10
 0
CIRCLE
 8
PARTS
 10
 13.9000
 20
  4.6700
 30
0.0
 40
  0.0300
 0
LINE
 8
PARTS
 10
 13.9000
 20
  4.4000
 30
0.0
 11
 13.9000
 21
  4.6400
 31
0.0
 0
TEXT
 8
PARTS
 10
 13.9250
 20
  4.7900
 30
0.0
 40
  0.0500
 50
 90.0000
 1
CL
 0
TEXT
 8
PARTS
 10
 13.8700
 20
  4.5800
 30
0.0
 40
  0.0500
 50
 90.0000
 1
13
 0
POLYLINE
 8
PARTS
 66
1
 70
1
 10
0.0
 20
0.0
 30
0.0
 0
VERTEX
 8
PARTS
 10
 13.6000
 20
  5.3000
 30
0.0
 0
VERTEX
 8
PARTS
 10
 14.2000
 20
  5.3000
 30
0.0
 0
VERTEX
 8
PARTS
 10
 14.2000
 20
  4.7000
 30
0.0
 0
VERTEX
 8
PARTS
 10
 13.6000
 20
  4.7000
 30
0.0
 0
SEQEND
 8
PARTS
 0
TEXT
 8
PARTTEXT
 10
  1.8500
 20
  9.2086
 30
0.0
 40
  0.0514
 1
T1
 0
TEXT
 8
PARTTEXT
 10
  1.8500
 20
  7.6086
 30
0.0
 40
  0.0514
 1
SN75ALS193
 0
LINE
 8
PARTS
 10
  1.5000
 20
  9.1000
 30
0.0
 11
  1.8000
 21
  9.1000
 31
0.0
 0
TEXT
 8
PARTS
 10
  1.8900
 20
  9.0750
 30
0.0
 40
  0.0500
 1
1A
 0
TEXT
 8
PARTS
 10
  1.7000
 20
  9.1300
 30
0.0
 40
  0.0500
 1
2
 0
CIRCLE
 8
PARTS
 10
  1.7700
 20
  9.0000
 30
0.0
 40
  0.0300
 0
LINE
 8
PARTS
 10
  1.5000
 20
  9.0000
 30
0.0
 11
  1.7400
 21
  9.0000
 31
0.0
 0
TEXT
 8
PARTS
 10
  1.8900
 20
  8.9750
 30
0.0
 40
  0.0500
 1
1B
 0
TEXT
 8
PARTS
 10
  1.7000
 20
  9.0300
 30
0.0
 40
  0.0500
 1
1
 0
LINE
 8
PARTS
 10
  1.5000
 20
  8.8000
 30
0.0
 11
  1.8000
 21
  8.8000
 31
0.0
 0
TEXT
 8
PARTS
 10
  1.8900
 20
  8.7750
 30
0.0
 40
  0.0500
 1
2A
 0
TEXT
 8
PARTS
 10
  1.7000
 20
  8.8300
 30
0.0
 40
  0.0500
 1
6
 0
CIRCLE
 8
PARTS
 10
  1.7700
 20
  8.7000
 30
0.0
 40
  0.0300
 0
LINE
 8
PARTS
 10
  1.5000
 20
  8.7000
 30
0.0
 11
  1.7400
 21
  8.7000
 31
0.0
 0
TEXT
 8
PARTS
 10
  1.8900
 20
  8.6750
 30
0.0
 40
  0.0500
 1
2B
 0
TEXT
 8
PARTS
 10
  1.7000
 20
  8.7300
 30
0.0
 40
  0.0500
 1
7
 0
LINE
 8
PARTS
 10
  1.5000
 20
  8.5000
 30
0.0
 11
  1.8000
 21
  8.5000
 31
0.0
 0
TEXT
 8
PARTS
 10
  1.8900
 20
  8.4750
 30
0.0
 40
  0.0500
 1
3A
 0
TEXT
 8
PARTS
 10
  1.6600
 20
  8.5300
 30
0.0
 40
  0.0500
 1
10
 0
CIRCLE
 8
PARTS
 10
  1.7700
 20
  8.4000
 30
0.0
 40
  0.0300
 0
LINE
 8
PARTS
 10
  1.5000
 20
  8.4000
 30
0.0
 11
  1.7400
 21
  8.4000
 31
0.0
 0
TEXT
 8
PARTS
 10
  1.8900
 20
  8.3750
 30
0.0
 40
  0.0500
 1
3B
 0
TEXT
 8
PARTS
 10
  1.7000
 20
  8.4300
 30
0.0
 40
  0.0500
 1
9
 0
LINE
 8
PARTS
 10
  1.5000
 20
  8.2000
 30
0.0
 11
  1.8000
 21
  8.2000
 31
0.0
 0
TEXT
 8
PARTS
 10
  1.8900
 20
  8.1750
 30
0.0
 40
  0.0500
 1
4A
 0
TEXT
 8
PARTS
 10
  1.6600
 20
  8.2300
 30
0.0
 40
  0.0500
 1
14
 0
CIRCLE
 8
PARTS
 10
  1.7700
 20
  8.1000
 30
0.0
 40
  0.0300
 0
LINE
 8
PARTS
 10
  1.5000
 20
  8.1000
 30
0.0
 11
  1.7400
 21
  8.1000
 31
0.0
 0
TEXT
 8
PARTS
 10
  1.8900
 20
  8.0750
 30
0.0
 40
  0.0500
 1
4B
 0
TEXT
 8
PARTS
 10
  1.6600
 20
  8.1300
 30
0.0
 40
  0.0500
 1
15
 0
LINE
 8
PARTS
 10
  1.5000
 20
  7.9000
 30
0.0
 11
  1.8000
 21
  7.9000
 31
0.0
 0
TEXT
 8
PARTS
 10
  1.8900
 20
  7.8750
 30
0.0
 40
  0.0500
 1
%%oG%%o
 0
TEXT
 8
PARTS
 10
  1.6600
 20
  7.9300
 30
0.0
 40
  0.0500
 1
12
 0
LINE
 8
PARTS
 10
  1.5000
 20
  7.8000
 30
0.0
 11
  1.8000
 21
  7.8000
 31
0.0
 0
TEXT
 8
PARTS
 10
  1.8900
 20
  7.7750
 30
0.0
 40
  0.0500
 1
G
 0
TEXT
 8
PARTS
 10
  1.7000
 20
  7.8300
 30
0.0
 40
  0.0500
 1
4
 0
LINE
 8
PARTS
 10
  2.7000
 20
  9.1000
 30
0.0
 11
  2.4000
 21
  9.1000
 31
0.0
 0
TEXT
 8
PARTS
 10
  2.2300
 20
  9.0750
 30
0.0
 40
  0.0500
 1
1Y
 0
TEXT
 8
PARTS
 10
  2.4600
 20
  9.1300
 30
0.0
 40
  0.0500
 1
3
 0
LINE
 8
PARTS
 10
  2.7000
 20
  8.8000
 30
0.0
 11
  2.4000
 21
  8.8000
 31
0.0
 0
TEXT
 8
PARTS
 10
  2.2300
 20
  8.7750
 30
0.0
 40
  0.0500
 1
2Y
 0
TEXT
 8
PARTS
 10
  2.4600
 20
  8.8300
 30
0.0
 40
  0.0500
 1
5
 0
LINE
 8
PARTS
 10
  2.7000
 20
  8.5000
 30
0.0
 11
  2.4000
 21
  8.5000
 31
0.0
 0
TEXT
 8
PARTS
 10
  2.2300
 20
  8.4750
 30
0.0
 40
  0.0500
 1
3Y
 0
TEXT
 8
PARTS
 10
  2.4600
 20
  8.5300
 30
0.0
 40
  0.0500
 1
11
 0
LINE
 8
PARTS
 10
  2.7000
 20
  8.2000
 30
0.0
 11
  2.4000
 21
  8.2000
 31
0.0
 0
TEXT
 8
PARTS
 10
  2.2300
 20
  8.1750
 30
0.0
 40
  0.0500
 1
4Y
 0
TEXT
 8
PARTS
 10
  2.4600
 20
  8.2300
 30
0.0
 40
  0.0500
 1
13
 0
POLYLINE
 8
PARTS
 66
1
 70
1
 10
0.0
 20
0.0
 30
0.0
 0
VERTEX
 8
PARTS
 10
  1.8000
 20
  9.2000
 30
0.0
 0
VERTEX
 8
PARTS
 10
  2.4000
 20
  9.2000
 30
0.0
 0
VERTEX
 8
PARTS
 10
  2.4000
 20
  7.7000
 30
0.0
 0
VERTEX
 8
PARTS
 10
  1.8000
 20
  7.7000
 30
0.0
 0
SEQEND
 8
PARTS
 0
TEXT
 8
PARTTEXT
 10
  1.8500
 20
  3.8086
 30
0.0
 40
  0.0514
 1
L1
 0
TEXT
 8
PARTTEXT
 10
  1.8500
 20
  2.2086
 30
0.0
 40
  0.0514
 1
SN75ALS193
 0
LINE
 8
PARTS
 10
  1.5000
 20
  3.7000
 30
0.0
 11
  1.8000
 21
  3.7000
 31
0.0
 0
TEXT
 8
PARTS
 10
  1.8900
 20
  3.6750
 30
0.0
 40
  0.0500
 1
1A
 0
TEXT
 8
PARTS
 10
  1.7000
 20
  3.7300
 30
0.0
 40
  0.0500
 1
2
 0
CIRCLE
 8
PARTS
 10
  1.7700
 20
  3.6000
 30
0.0
 40
  0.0300
 0
LINE
 8
PARTS
 10
  1.5000
 20
  3.6000
 30
0.0
 11
  1.7400
 21
  3.6000
 31
0.0
 0
TEXT
 8
PARTS
 10
  1.8900
 20
  3.5750
 30
0.0
 40
  0.0500
 1
1B
 0
TEXT
 8
PARTS
 10
  1.7000
 20
  3.6300
 30
0.0
 40
  0.0500
 1
1
 0
LINE
 8
PARTS
 10
  1.5000
 20
  3.4000
 30
0.0
 11
  1.8000
 21
  3.4000
 31
0.0
 0
TEXT
 8
PARTS
 10
  1.8900
 20
  3.3750
 30
0.0
 40
  0.0500
 1
2A
 0
TEXT
 8
PARTS
 10
  1.7000
 20
  3.4300
 30
0.0
 40
  0.0500
 1
6
 0
CIRCLE
 8
PARTS
 10
  1.7700
 20
  3.3000
 30
0.0
 40
  0.0300
 0
LINE
 8
PARTS
 10
  1.5000
 20
  3.3000
 30
0.0
 11
  1.7400
 21
  3.3000
 31
0.0
 0
TEXT
 8
PARTS
 10
  1.8900
 20
  3.2750
 30
0.0
 40
  0.0500
 1
2B
 0
TEXT
 8
PARTS
 10
  1.7000
 20
  3.3300
 30
0.0
 40
  0.0500
 1
7
 0
LINE
 8
PARTS
 10
  1.5000
 20
  3.1000
 30
0.0
 11
  1.8000
 21
  3.1000
 31
0.0
 0
TEXT
 8
PARTS
 10
  1.8900
 20
  3.0750
 30
0.0
 40
  0.0500
 1
3A
 0
TEXT
 8
PARTS
 10
  1.6600
 20
  3.1300
 30
0.0
 40
  0.0500
 1
10
 0
CIRCLE
 8
PARTS
 10
  1.7700
 20
  3.0000
 30
0.0
 40
  0.0300
 0
LINE
 8
PARTS
 10
  1.5000
 20
  3.0000
 30
0.0
 11
  1.7400
 21
  3.0000
 31
0.0
 0
TEXT
 8
PARTS
 10
  1.8900
 20
  2.9750
 30
0.0
 40
  0.0500
 1
3B
 0
TEXT
 8
PARTS
 10
  1.7000
 20
  3.0300
 30
0.0
 40
  0.0500
 1
9
 0
LINE
 8
PARTS
 10
  1.5000
 20
  2.8000
 30
0.0
 11
  1.8000
 21
  2.8000
 31
0.0
 0
TEXT
 8
PARTS
 10
  1.8900
 20
  2.7750
 30
0.0
 40
  0.0500
 1
4A
 0
TEXT
 8
PARTS
 10
  1.6600
 20
  2.8300
 30
0.0
 40
  0.0500
 1
14
 0
CIRCLE
 8
PARTS
 10
  1.7700
 20
  2.7000
 30
0.0
 40
  0.0300
 0
LINE
 8
PARTS
 10
  1.5000
 20
  2.7000
 30
0.0
 11
  1.7400
 21
  2.7000
 31
0.0
 0
TEXT
 8
PARTS
 10
  1.8900
 20
  2.6750
 30
0.0
 40
  0.0500
 1
4B
 0
TEXT
 8
PARTS
 10
  1.6600
 20
  2.7300
 30
0.0
 40
  0.0500
 1
15
 0
LINE
 8
PARTS
 10
  1.5000
 20
  2.5000
 30
0.0
 11
  1.8000
 21
  2.5000
 31
0.0
 0
TEXT
 8
PARTS
 10
  1.8900
 20
  2.4750
 30
0.0
 40
  0.0500
 1
%%oG%%o
 0
TEXT
 8
PARTS
 10
  1.6600
 20
  2.5300
 30
0.0
 40
  0.0500
 1
12
 0
LINE
 8
PARTS
 10
  1.5000
 20
  2.4000
 30
0.0
 11
  1.8000
 21
  2.4000
 31
0.0
 0
TEXT
 8
PARTS
 10
  1.8900
 20
  2.3750
 30
0.0
 40
  0.0500
 1
G
 0
TEXT
 8
PARTS
 10
  1.7000
 20
  2.4300
 30
0.0
 40
  0.0500
 1
4
 0
LINE
 8
PARTS
 10
  2.7000
 20
  3.7000
 30
0.0
 11
  2.4000
 21
  3.7000
 31
0.0
 0
TEXT
 8
PARTS
 10
  2.2300
 20
  3.6750
 30
0.0
 40
  0.0500
 1
1Y
 0
TEXT
 8
PARTS
 10
  2.4600
 20
  3.7300
 30
0.0
 40
  0.0500
 1
3
 0
LINE
 8
PARTS
 10
  2.7000
 20
  3.4000
 30
0.0
 11
  2.4000
 21
  3.4000
 31
0.0
 0
TEXT
 8
PARTS
 10
  2.2300
 20
  3.3750
 30
0.0
 40
  0.0500
 1
2Y
 0
TEXT
 8
PARTS
 10
  2.4600
 20
  3.4300
 30
0.0
 40
  0.0500
 1
5
 0
LINE
 8
PARTS
 10
  2.7000
 20
  3.1000
 30
0.0
 11
  2.4000
 21
  3.1000
 31
0.0
 0
TEXT
 8
PARTS
 10
  2.2300
 20
  3.0750
 30
0.0
 40
  0.0500
 1
3Y
 0
TEXT
 8
PARTS
 10
  2.4600
 20
  3.1300
 30
0.0
 40
  0.0500
 1
11
 0
LINE
 8
PARTS
 10
  2.7000
 20
  2.8000
 30
0.0
 11
  2.4000
 21
  2.8000
 31
0.0
 0
TEXT
 8
PARTS
 10
  2.2300
 20
  2.7750
 30
0.0
 40
  0.0500
 1
4Y
 0
TEXT
 8
PARTS
 10
  2.4600
 20
  2.8300
 30
0.0
 40
  0.0500
 1
13
 0
POLYLINE
 8
PARTS
 66
1
 70
1
 10
0.0
 20
0.0
 30
0.0
 0
VERTEX
 8
PARTS
 10
  1.8000
 20
  3.8000
 30
0.0
 0
VERTEX
 8
PARTS
 10
  2.4000
 20
  3.8000
 30
0.0
 0
VERTEX
 8
PARTS
 10
  2.4000
 20
  2.3000
 30
0.0
 0
VERTEX
 8
PARTS
 10
  1.8000
 20
  2.3000
 30
0.0
 0
SEQEND
 8
PARTS
 0
TEXT
 8
PARTTEXT
 10
  6.0500
 20
  2.9086
 30
0.0
 40
  0.0514
 1
U4B
 0
TEXT
 8
PARTTEXT
 10
  6.0500
 20
  2.4086
 30
0.0
 40
  0.0514
 1
74ALS1034
 0
LINE
 8
PARTS
 10
  5.7000
 20
  2.7000
 30
0.0
 11
  6.0000
 21
  2.7000
 31
0.0
 0
TEXT
 8
PARTS
 10
  5.9000
 20
  2.7300
 30
0.0
 40
  0.0500
 1
3
 0
LINE
 8
PARTS
 10
  6.7000
 20
  2.7000
 30
0.0
 11
  6.4000
 21
  2.7000
 31
0.0
 0
TEXT
 8
PARTS
 10
  6.4600
 20
  2.7300
 30
0.0
 40
  0.0500
 1
4
 0
POLYLINE
 8
PARTS
 66
1
 10
0.0
 20
0.0
 30
0.0
 0
VERTEX
 8
PARTS
 10
  6.0000
 20
  2.9000
 30
0.0
 0
VERTEX
 8
PARTS
 10
  6.4000
 20
  2.7000
 30
0.0
 0
SEQEND
 8
PARTS
 0
POLYLINE
 8
PARTS
 66
1
 10
0.0
 20
0.0
 30
0.0
 0
VERTEX
 8
PARTS
 10
  6.4000
 20
  2.7000
 30
0.0
 0
VERTEX
 8
PARTS
 10
  6.0000
 20
  2.5000
 30
0.0
 0
SEQEND
 8
PARTS
 0
POLYLINE
 8
PARTS
 66
1
 10
0.0
 20
0.0
 30
0.0
 0
VERTEX
 8
PARTS
 10
  6.0000
 20
  2.5000
 30
0.0
 0
VERTEX
 8
PARTS
 10
  6.0000
 20
  2.9000
 30
0.0
 0
SEQEND
 8
PARTS
 0
TEXT
 8
PARTTEXT
 10
  1.0400
 20
  3.9186
 30
0.0
 40
  0.0514
 1
M1
 0
TEXT
 8
PARTTEXT
 10
  1.0100
 20
  3.8086
 30
0.0
 40
  0.0514
 1
120
 0
LINE
 8
PARTS
 10
  0.9000
 20
  3.6000
 30
0.0
 11
  1.0000
 21
  3.6000
 31
0.0
 0
TEXT
 8
PARTS
 10
  0.9400
 20
  3.6300
 30
0.0
 40
  0.0500
 1

 0
LINE
 8
PARTS
 10
  1.4000
 20
  3.6000
 30
0.0
 11
  1.3000
 21
  3.6000
 31
0.0
 0
TEXT
 8
PARTS
 10
  1.3600
 20
  3.6300
 30
0.0
 40
  0.0500
 1

 0
POLYLINE
 8
PARTS
 66
1
 10
0.0
 20
0.0
 30
0.0
 0
VERTEX
 8
PARTS
 10
  1.0000
 20
  3.6000
 30
0.0
 0
VERTEX
 8
PARTS
 10
  1.0300
 20
  3.6300
 30
0.0
 0
SEQEND
 8
PARTS
 0
POLYLINE
 8
PARTS
 66
1
 10
0.0
 20
0.0
 30
0.0
 0
VERTEX
 8
PARTS
 10
  1.0300
 20
  3.6300
 30
0.0
 0
VERTEX
 8
PARTS
 10
  1.0900
 20
  3.5700
 30
0.0
 0
SEQEND
 8
PARTS
 0
POLYLINE
 8
PARTS
 66
1
 10
0.0
 20
0.0
 30
0.0
 0
VERTEX
 8
PARTS
 10
  1.0900
 20
  3.5700
 30
0.0
 0
VERTEX
 8
PARTS
 10
  1.1500
 20
  3.6300
 30
0.0
 0
SEQEND
 8
PARTS
 0
POLYLINE
 8
PARTS
 66
1
 10
0.0
 20
0.0
 30
0.0
 0
VERTEX
 8
PARTS
 10
  1.1500
 20
  3.6300
 30
0.0
 0
VERTEX
 8
PARTS
 10
  1.2100
 20
  3.5700
 30
0.0
 0
SEQEND
 8
PARTS
 0
POLYLINE
 8
PARTS
 66
1
 10
0.0
 20
0.0
 30
0.0
 0
VERTEX
 8
PARTS
 10
  1.2100
 20
  3.5700
 30
0.0
 0
VERTEX
 8
PARTS
 10
  1.2700
 20
  3.6300
 30
0.0
 0
SEQEND
 8
PARTS
 0
POLYLINE
 8
PARTS
 66
1
 10
0.0
 20
0.0
 30
0.0
 0
VERTEX
 8
PARTS
 10
  1.2700
 20
  3.6300
 30
0.0
 0
VERTEX
 8
PARTS
 10
  1.3000
 20
  3.6000
 30
0.0
 0
SEQEND
 8
PARTS
 0
TEXT
 8
PARTTEXT
 10
 12.6500
 20
  4.9086
 30
0.0
 40
  0.0514
 1
E3A
 0
TEXT
 8
PARTTEXT
 10
 12.6500
 20
  4.4086
 30
0.0
 40
  0.0514
 1
74ALS04
 0
LINE
 8
PARTS
 10
 12.3000
 20
  4.7000
 30
0.0
 11
 12.6000
 21
  4.7000
 31
0.0
 0
TEXT
 8
PARTS
 10
 12.5000
 20
  4.7300
 30
0.0
 40
  0.0500
 1
1
 0
CIRCLE
 8
PARTS
 10
 13.0300
 20
  4.7000
 30
0.0
 40
  0.0300
 0
LINE
 8
PARTS
 10
 13.3000
 20
  4.7000
 30
0.0
 11
 13.0600
 21
  4.7000
 31
0.0
 0
TEXT
 8
PARTS
 10
 13.0600
 20
  4.7300
 30
0.0
 40
  0.0500
 1
2
 0
POLYLINE
 8
PARTS
 66
1
 10
0.0
 20
0.0
 30
0.0
 0
VERTEX
 8
PARTS
 10
 12.6000
 20
  4.9000
 30
0.0
 0
VERTEX
 8
PARTS
 10
 13.0000
 20
  4.7000
 30
0.0
 0
SEQEND
 8
PARTS
 0
POLYLINE
 8
PARTS
 66
1
 10
0.0
 20
0.0
 30
0.0
 0
VERTEX
 8
PARTS
 10
 13.0000
 20
  4.7000
 30
0.0
 0
VERTEX
 8
PARTS
 10
 12.6000
 20
  4.5000
 30
0.0
 0
SEQEND
 8
PARTS
 0
POLYLINE
 8
PARTS
 66
1
 10
0.0
 20
0.0
 30
0.0
 0
VERTEX
 8
PARTS
 10
 12.6000
 20
  4.5000
 30
0.0
 0
VERTEX
 8
PARTS
 10
 12.6000
 20
  4.9000
 30
0.0
 0
SEQEND
 8
PARTS
 0
TEXT
 8
PARTTEXT
 10
 10.0500
 20
  4.8086
 30
0.0
 40
  0.0514
 1
H3D
 0
TEXT
 8
PARTTEXT
 10
 10.0500
 20
  4.3086
 30
0.0
 40
  0.0514
 1
74ALS08
 0
LINE
 8
PARTS
 10
  9.7000
 20
  4.7000
 30
0.0
 11
 10.0000
 21
  4.7000
 31
0.0
 0
TEXT
 8
PARTS
 10
  9.8600
 20
  4.7300
 30
0.0
 40
  0.0500
 1
12
 0
LINE
 8
PARTS
 10
  9.7000
 20
  4.5000
 30
0.0
 11
 10.0000
 21
  4.5000
 31
0.0
 0
TEXT
 8
PARTS
 10
  9.8600
 20
  4.5300
 30
0.0
 40
  0.0500
 1
13
 0
CIRCLE
 8
PARTS
 10
 10.6300
 20
  4.6000
 30
0.0
 40
  0.0300
 0
LINE
 8
PARTS
 10
 10.9000
 20
  4.6000
 30
0.0
 11
 10.6600
 21
  4.6000
 31
0.0
 0
TEXT
 8
PARTS
 10
 10.6600
 20
  4.6300
 30
0.0
 40
  0.0500
 1
11
 0
POLYLINE
 8
PARTS
 66
1
 10
0.0
 20
0.0
 30
0.0
 0
VERTEX
 8
PARTS
 10
 10.2500
 20
  4.8000
 30
0.0
 0
VERTEX
 8
PARTS
 10
 10.0000
 20
  4.8000
 30
0.0
 0
SEQEND
 8
PARTS
 0
POLYLINE
 8
PARTS
 66
1
 10
0.0
 20
0.0
 30
0.0
 0
VERTEX
 8
PARTS
 10
 10.2500
 20
  4.4000
 30
0.0
 0
VERTEX
 8
PARTS
 10
 10.0000
 20
  4.4000
 30
0.0
 0
SEQEND
 8
PARTS
 0
POLYLINE
 8
PARTS
 66
1
 10
0.0
 20
0.0
 30
0.0
 0
VERTEX
 8
PARTS
 10
 10.6000
 20
  4.6000
 30
0.0
 42
  0.2691
 0
VERTEX
 8
PARTS
 10
 10.2500
 20
  4.8000
 30
0.0
 0
SEQEND
 8
PARTS
 0
POLYLINE
 8
PARTS
 66
1
 10
0.0
 20
0.0
 30
0.0
 0
VERTEX
 8
PARTS
 10
 10.0800
 20
  4.6000
 30
0.0
 42
  0.1989
 0
VERTEX
 8
PARTS
 10
 10.0000
 20
  4.8000
 30
0.0
 0
SEQEND
 8
PARTS
 0
POLYLINE
 8
PARTS
 66
1
 10
0.0
 20
0.0
 30
0.0
 0
VERTEX
 8
PARTS
 10
 10.0000
 20
  4.4000
 30
0.0
 42
  0.1989
 0
VERTEX
 8
PARTS
 10
 10.0800
 20
  4.6000
 30
0.0
 0
SEQEND
 8
PARTS
 0
POLYLINE
 8
PARTS
 66
1
 10
0.0
 20
0.0
 30
0.0
 0
VERTEX
 8
PARTS
 10
 10.2500
 20
  4.4000
 30
0.0
 42
  0.2691
 0
VERTEX
 8
PARTS
 10
 10.6000
 20
  4.6000
 30
0.0
 0
SEQEND
 8
PARTS
 0
POLYLINE
 8
PARTS
 66
1
 70
1
 10
0.0
 20
0.0
 30
0.0
 0
VERTEX
 8
PARTS
 10
 10.0600
 20
  4.5000
 30
0.0
 42
  0.0985
 0
VERTEX
 8
PARTS
 10
 10.0577
 20
  4.5115
 30
0.0
 42
  0.0985
 0
VERTEX
 8
PARTS
 10
 10.0512
 20
  4.5212
 30
0.0
 42
  0.0985
 0
VERTEX
 8
PARTS
 10
 10.0415
 20
  4.5277
 30
0.0
 42
  0.0985
 0
VERTEX
 8
PARTS
 10
 10.0300
 20
  4.5300
 30
0.0
 42
  0.0985
 0
VERTEX
 8
PARTS
 10
 10.0185
 20
  4.5277
 30
0.0
 42
  0.0985
 0
VERTEX
 8
PARTS
 10
 10.0088
 20
  4.5212
 30
0.0
 42
  0.0985
 0
VERTEX
 8
PARTS
 10
 10.0023
 20
  4.5115
 30
0.0
 42
  0.0985
 0
VERTEX
 8
PARTS
 10
 10.0000
 20
  4.5000
 30
0.0
 42
  0.0985
 0
VERTEX
 8
PARTS
 10
 10.0023
 20
  4.4885
 30
0.0
 42
  0.0985
 0
VERTEX
 8
PARTS
 10
 10.0088
 20
  4.4788
 30
0.0
 42
  0.0985
 0
VERTEX
 8
PARTS
 10
 10.0185
 20
  4.4723
 30
0.0
 42
  0.0985
 0
VERTEX
 8
PARTS
 10
 10.0300
 20
  4.4700
 30
0.0
 42
  0.0985
 0
VERTEX
 8
PARTS
 10
 10.0415
 20
  4.4723
 30
0.0
 42
  0.0985
 0
VERTEX
 8
PARTS
 10
 10.0512
 20
  4.4788
 30
0.0
 42
  0.0985
 0
VERTEX
 8
PARTS
 10
 10.0577
 20
  4.4885
 30
0.0
 42
  0.0985
 0
SEQEND
 8
PARTS
 0
POLYLINE
 8
PARTS
 66
1
 70
1
 10
0.0
 20
0.0
 30
0.0
 0
VERTEX
 8
PARTS
 10
 10.0600
 20
  4.7000
 30
0.0
 42
  0.0985
 0
VERTEX
 8
PARTS
 10
 10.0577
 20
  4.7115
 30
0.0
 42
  0.0985
 0
VERTEX
 8
PARTS
 10
 10.0512
 20
  4.7212
 30
0.0
 42
  0.0985
 0
VERTEX
 8
PARTS
 10
 10.0415
 20
  4.7277
 30
0.0
 42
  0.0985
 0
VERTEX
 8
PARTS
 10
 10.0300
 20
  4.7300
 30
0.0
 42
  0.0985
 0
VERTEX
 8
PARTS
 10
 10.0185
 20
  4.7277
 30
0.0
 42
  0.0985
 0
VERTEX
 8
PARTS
 10
 10.0088
 20
  4.7212
 30
0.0
 42
  0.0985
 0
VERTEX
 8
PARTS
 10
 10.0023
 20
  4.7115
 30
0.0
 42
  0.0985
 0
VERTEX
 8
PARTS
 10
 10.0000
 20
  4.7000
 30
0.0
 42
  0.0985
 0
VERTEX
 8
PARTS
 10
 10.0023
 20
  4.6885
 30
0.0
 42
  0.0985
 0
VERTEX
 8
PARTS
 10
 10.0088
 20
  4.6788
 30
0.0
 42
  0.0985
 0
VERTEX
 8
PARTS
 10
 10.0185
 20
  4.6723
 30
0.0
 42
  0.0985
 0
VERTEX
 8
PARTS
 10
 10.0300
 20
  4.6700
 30
0.0
 42
  0.0985
 0
VERTEX
 8
PARTS
 10
 10.0415
 20
  4.6723
 30
0.0
 42
  0.0985
 0
VERTEX
 8
PARTS
 10
 10.0512
 20
  4.6788
 30
0.0
 42
  0.0985
 0
VERTEX
 8
PARTS
 10
 10.0577
 20
  4.6885
 30
0.0
 42
  0.0985
 0
SEQEND
 8
PARTS
 0
TEXT
 8
PARTTEXT
 10
  9.4500
 20
  9.3086
 30
0.0
 40
  0.0514
 1
T5
 0
TEXT
 8
PARTTEXT
 10
  9.4500
 20
  8.0086
 30
0.0
 40
  0.0514
 1
74HCT541
 0
LINE
 8
PARTS
 10
  9.1000
 20
  9.2000
 30
0.0
 11
  9.4000
 21
  9.2000
 31
0.0
 0
TEXT
 8
PARTS
 10
  9.4900
 20
  9.1750
 30
0.0
 40
  0.0500
 1
A1
 0
TEXT
 8
PARTS
 10
  9.3000
 20
  9.2300
 30
0.0
 40
  0.0500
 1
2
 0
LINE
 8
PARTS
 10
  9.1000
 20
  9.1000
 30
0.0
 11
  9.4000
 21
  9.1000
 31
0.0
 0
TEXT
 8
PARTS
 10
  9.4900
 20
  9.0750
 30
0.0
 40
  0.0500
 1
A2
 0
TEXT
 8
PARTS
 10
  9.3000
 20
  9.1300
 30
0.0
 40
  0.0500
 1
3
 0
LINE
 8
PARTS
 10
  9.1000
 20
  9.0000
 30
0.0
 11
  9.4000
 21
  9.0000
 31
0.0
 0
TEXT
 8
PARTS
 10
  9.4900
 20
  8.9750
 30
0.0
 40
  0.0500
 1
A3
 0
TEXT
 8
PARTS
 10
  9.3000
 20
  9.0300
 30
0.0
 40
  0.0500
 1
4
 0
LINE
 8
PARTS
 10
  9.1000
 20
  8.9000
 30
0.0
 11
  9.4000
 21
  8.9000
 31
0.0
 0
TEXT
 8
PARTS
 10
  9.4900
 20
  8.8750
 30
0.0
 40
  0.0500
 1
A4
 0
TEXT
 8
PARTS
 10
  9.3000
 20
  8.9300
 30
0.0
 40
  0.0500
 1
5
 0
LINE
 8
PARTS
 10
  9.1000
 20
  8.8000
 30
0.0
 11
  9.4000
 21
  8.8000
 31
0.0
 0
TEXT
 8
PARTS
 10
  9.4900
 20
  8.7750
 30
0.0
 40
  0.0500
 1
A5
 0
TEXT
 8
PARTS
 10
  9.3000
 20
  8.8300
 30
0.0
 40
  0.0500
 1
6
 0
LINE
 8
PARTS
 10
  9.1000
 20
  8.7000
 30
0.0
 11
  9.4000
 21
  8.7000
 31
0.0
 0
TEXT
 8
PARTS
 10
  9.4900
 20
  8.6750
 30
0.0
 40
  0.0500
 1
A6
 0
TEXT
 8
PARTS
 10
  9.3000
 20
  8.7300
 30
0.0
 40
  0.0500
 1
7
 0
LINE
 8
PARTS
 10
  9.1000
 20
  8.6000
 30
0.0
 11
  9.4000
 21
  8.6000
 31
0.0
 0
TEXT
 8
PARTS
 10
  9.4900
 20
  8.5750
 30
0.0
 40
  0.0500
 1
A7
 0
TEXT
 8
PARTS
 10
  9.3000
 20
  8.6300
 30
0.0
 40
  0.0500
 1
8
 0
LINE
 8
PARTS
 10
  9.1000
 20
  8.5000
 30
0.0
 11
  9.4000
 21
  8.5000
 31
0.0
 0
TEXT
 8
PARTS
 10
  9.4900
 20
  8.4750
 30
0.0
 40
  0.0500
 1
A8
 0
TEXT
 8
PARTS
 10
  9.3000
 20
  8.5300
 30
0.0
 40
  0.0500
 1
9
 0
CIRCLE
 8
PARTS
 10
  9.3700
 20
  8.3000
 30
0.0
 40
  0.0300
 0
LINE
 8
PARTS
 10
  9.1000
 20
  8.3000
 30
0.0
 11
  9.3400
 21
  8.3000
 31
0.0
 0
TEXT
 8
PARTS
 10
  9.4900
 20
  8.2750
 30
0.0
 40
  0.0500
 1
G1
 0
TEXT
 8
PARTS
 10
  9.3000
 20
  8.3300
 30
0.0
 40
  0.0500
 1
1
 0
CIRCLE
 8
PARTS
 10
  9.3700
 20
  8.2000
 30
0.0
 40
  0.0300
 0
LINE
 8
PARTS
 10
  9.1000
 20
  8.2000
 30
0.0
 11
  9.3400
 21
  8.2000
 31
0.0
 0
TEXT
 8
PARTS
 10
  9.4900
 20
  8.1750
 30
0.0
 40
  0.0500
 1
G2
 0
TEXT
 8
PARTS
 10
  9.2600
 20
  8.2300
 30
0.0
 40
  0.0500
 1
19
 0
LINE
 8
PARTS
 10
 10.3000
 20
  9.2000
 30
0.0
 11
 10.0000
 21
  9.2000
 31
0.0
 0
TEXT
 8
PARTS
 10
  9.8300
 20
  9.1750
 30
0.0
 40
  0.0500
 1
Y1
 0
TEXT
 8
PARTS
 10
 10.0600
 20
  9.2300
 30
0.0
 40
  0.0500
 1
18
 0
LINE
 8
PARTS
 10
 10.3000
 20
  9.1000
 30
0.0
 11
 10.0000
 21
  9.1000
 31
0.0
 0
TEXT
 8
PARTS
 10
  9.8300
 20
  9.0750
 30
0.0
 40
  0.0500
 1
Y2
 0
TEXT
 8
PARTS
 10
 10.0600
 20
  9.1300
 30
0.0
 40
  0.0500
 1
17
 0
LINE
 8
PARTS
 10
 10.3000
 20
  9.0000
 30
0.0
 11
 10.0000
 21
  9.0000
 31
0.0
 0
TEXT
 8
PARTS
 10
  9.8300
 20
  8.9750
 30
0.0
 40
  0.0500
 1
Y3
 0
TEXT
 8
PARTS
 10
 10.0600
 20
  9.0300
 30
0.0
 40
  0.0500
 1
16
 0
LINE
 8
PARTS
 10
 10.3000
 20
  8.9000
 30
0.0
 11
 10.0000
 21
  8.9000
 31
0.0
 0
TEXT
 8
PARTS
 10
  9.8300
 20
  8.8750
 30
0.0
 40
  0.0500
 1
Y4
 0
TEXT
 8
PARTS
 10
 10.0600
 20
  8.9300
 30
0.0
 40
  0.0500
 1
15
 0
LINE
 8
PARTS
 10
 10.3000
 20
  8.8000
 30
0.0
 11
 10.0000
 21
  8.8000
 31
0.0
 0
TEXT
 8
PARTS
 10
  9.8300
 20
  8.7750
 30
0.0
 40
  0.0500
 1
Y5
 0
TEXT
 8
PARTS
 10
 10.0600
 20
  8.8300
 30
0.0
 40
  0.0500
 1
14
 0
LINE
 8
PARTS
 10
 10.3000
 20
  8.7000
 30
0.0
 11
 10.0000
 21
  8.7000
 31
0.0
 0
TEXT
 8
PARTS
 10
  9.8300
 20
  8.6750
 30
0.0
 40
  0.0500
 1
Y6
 0
TEXT
 8
PARTS
 10
 10.0600
 20
  8.7300
 30
0.0
 40
  0.0500
 1
13
 0
LINE
 8
PARTS
 10
 10.3000
 20
  8.6000
 30
0.0
 11
 10.0000
 21
  8.6000
 31
0.0
 0
TEXT
 8
PARTS
 10
  9.8300
 20
  8.5750
 30
0.0
 40
  0.0500
 1
Y7
 0
TEXT
 8
PARTS
 10
 10.0600
 20
  8.6300
 30
0.0
 40
  0.0500
 1
12
 0
LINE
 8
PARTS
 10
 10.3000
 20
  8.5000
 30
0.0
 11
 10.0000
 21
  8.5000
 31
0.0
 0
TEXT
 8
PARTS
 10
  9.8300
 20
  8.4750
 30
0.0
 40
  0.0500
 1
Y8
 0
TEXT
 8
PARTS
 10
 10.0600
 20
  8.5300
 30
0.0
 40
  0.0500
 1
11
 0
POLYLINE
 8
PARTS
 66
1
 70
1
 10
0.0
 20
0.0
 30
0.0
 0
VERTEX
 8
PARTS
 10
  9.4000
 20
  9.3000
 30
0.0
 0
VERTEX
 8
PARTS
 10
 10.0000
 20
  9.3000
 30
0.0
 0
VERTEX
 8
PARTS
 10
 10.0000
 20
  8.1000
 30
0.0
 0
VERTEX
 8
PARTS
 10
  9.4000
 20
  8.1000
 30
0.0
 0
SEQEND
 8
PARTS
 0
TEXT
 8
PARTTEXT
 10
 13.8900
 20
  3.1186
 30
0.0
 40
  0.0514
 1
B1
 0
TEXT
 8
PARTTEXT
 10
 13.8900
 20
  3.0286
 30
0.0
 40
  0.0514
 1
2N2907
 0
LINE
 8
PARTS
 10
 13.5000
 20
  3.1000
 30
0.0
 11
 13.6000
 21
  3.1000
 31
0.0
 0
TEXT
 8
PARTS
 10
 13.5400
 20
  3.1300
 30
0.0
 40
  0.0500
 1

 0
LINE
 8
PARTS
 10
 13.8000
 20
  3.3000
 30
0.0
 11
 13.8000
 21
  3.2000
 31
0.0
 0
TEXT
 8
PARTS
 10
 13.7700
 20
  3.2600
 30
0.0
 40
  0.0500
 50
 90.0000
 1

 0
LINE
 8
PARTS
 10
 13.8000
 20
  2.9000
 30
0.0
 11
 13.8000
 21
  3.0000
 31
0.0
 0
TEXT
 8
PARTS
 10
 13.7700
 20
  2.8800
 30
0.0
 40
  0.0500
 50
 90.0000
 1

 0
POLYLINE
 8
PARTS
 66
1
 70
1
 10
0.0
 20
0.0
 30
0.0
 0
VERTEX
 8
PARTS
 10
 13.7200
 20
  3.1200
 30
0.0
 0
VERTEX
 8
PARTS
 10
 13.7200
 20
  3.1800
 30
0.0
 0
VERTEX
 8
PARTS
 10
 13.7800
 20
  3.1200
 30
0.0
 0
VERTEX
 8
PARTS
 10
 13.7200
 20
  3.1200
 30
0.0
 0
SEQEND
 8
PARTS
 0
POLYLINE
 8
PARTS
 66
1
 10
0.0
 20
0.0
 30
0.0
 0
VERTEX
 8
PARTS
 10
 13.7000
 20
  3.0000
 30
0.0
 0
VERTEX
 8
PARTS
 10
 13.7000
 20
  3.2000
 30
0.0
 0
SEQEND
 8
PARTS
 0
POLYLINE
 8
PARTS
 66
1
 10
0.0
 20
0.0
 30
0.0
 0
VERTEX
 8
PARTS
 10
 13.8000
 20
  3.0000
 30
0.0
 0
VERTEX
 8
PARTS
 10
 13.7000
 20
  3.1000
 30
0.0
 0
SEQEND
 8
PARTS
 0
POLYLINE
 8
PARTS
 66
1
 10
0.0
 20
0.0
 30
0.0
 0
VERTEX
 8
PARTS
 10
 13.6000
 20
  3.1000
 30
0.0
 0
VERTEX
 8
PARTS
 10
 13.7000
 20
  3.1000
 30
0.0
 0
SEQEND
 8
PARTS
 0
POLYLINE
 8
PARTS
 66
1
 10
0.0
 20
0.0
 30
0.0
 0
VERTEX
 8
PARTS
 10
 13.7200
 20
  3.1200
 30
0.0
 0
VERTEX
 8
PARTS
 10
 13.7000
 20
  3.1000
 30
0.0
 0
SEQEND
 8
PARTS
 0
POLYLINE
 8
PARTS
 66
1
 10
0.0
 20
0.0
 30
0.0
 0
VERTEX
 8
PARTS
 10
 13.7500
 20
  3.1500
 30
0.0
 0
VERTEX
 8
PARTS
 10
 13.8000
 20
  3.2000
 30
0.0
 0
SEQEND
 8
PARTS
 0
TEXT
 8
PARTTEXT
 10
  5.0500
 20
  0.8086
 30
0.0
 40
  0.0514
 1
G4A
 0
TEXT
 8
PARTTEXT
 10
  5.0500
 20
  0.3086
 30
0.0
 40
  0.0514
 1
74ALS1034
 0
LINE
 8
PARTS
 10
  4.7000
 20
  0.6000
 30
0.0
 11
  5.0000
 21
  0.6000
 31
0.0
 0
TEXT
 8
PARTS
 10
  4.9000
 20
  0.6300
 30
0.0
 40
  0.0500
 1
1
 0
LINE
 8
PARTS
 10
  5.7000
 20
  0.6000
 30
0.0
 11
  5.4000
 21
  0.6000
 31
0.0
 0
TEXT
 8
PARTS
 10
  5.4600
 20
  0.6300
 30
0.0
 40
  0.0500
 1
2
 0
POLYLINE
 8
PARTS
 66
1
 10
0.0
 20
0.0
 30
0.0
 0
VERTEX
 8
PARTS
 10
  5.0000
 20
  0.8000
 30
0.0
 0
VERTEX
 8
PARTS
 10
  5.4000
 20
  0.6000
 30
0.0
 0
SEQEND
 8
PARTS
 0
POLYLINE
 8
PARTS
 66
1
 10
0.0
 20
0.0
 30
0.0
 0
VERTEX
 8
PARTS
 10
  5.4000
 20
  0.6000
 30
0.0
 0
VERTEX
 8
PARTS
 10
  5.0000
 20
  0.4000
 30
0.0
 0
SEQEND
 8
PARTS
 0
POLYLINE
 8
PARTS
 66
1
 10
0.0
 20
0.0
 30
0.0
 0
VERTEX
 8
PARTS
 10
  5.0000
 20
  0.4000
 30
0.0
 0
VERTEX
 8
PARTS
 10
  5.0000
 20
  0.8000
 30
0.0
 0
SEQEND
 8
PARTS
 0
TEXT
 8
PARTTEXT
 10
 12.4500
 20
  5.6086
 30
0.0
 40
  0.0514
 1
H3A
 0
TEXT
 8
PARTTEXT
 10
 12.4500
 20
  5.1086
 30
0.0
 40
  0.0514
 1
74ALS08
 0
LINE
 8
PARTS
 10
 12.1000
 20
  5.5000
 30
0.0
 11
 12.4000
 21
  5.5000
 31
0.0
 0
TEXT
 8
PARTS
 10
 12.3000
 20
  5.5300
 30
0.0
 40
  0.0500
 1
1
 0
LINE
 8
PARTS
 10
 12.1000
 20
  5.3000
 30
0.0
 11
 12.4000
 21
  5.3000
 31
0.0
 0
TEXT
 8
PARTS
 10
 12.3000
 20
  5.3300
 30
0.0
 40
  0.0500
 1
2
 0
CIRCLE
 8
PARTS
 10
 13.0300
 20
  5.4000
 30
0.0
 40
  0.0300
 0
LINE
 8
PARTS
 10
 13.3000
 20
  5.4000
 30
0.0
 11
 13.0600
 21
  5.4000
 31
0.0
 0
TEXT
 8
PARTS
 10
 13.0600
 20
  5.4300
 30
0.0
 40
  0.0500
 1
3
 0
POLYLINE
 8
PARTS
 66
1
 10
0.0
 20
0.0
 30
0.0
 0
VERTEX
 8
PARTS
 10
 12.6500
 20
  5.6000
 30
0.0
 0
VERTEX
 8
PARTS
 10
 12.4000
 20
  5.6000
 30
0.0
 0
SEQEND
 8
PARTS
 0
POLYLINE
 8
PARTS
 66
1
 10
0.0
 20
0.0
 30
0.0
 0
VERTEX
 8
PARTS
 10
 12.6500
 20
  5.2000
 30
0.0
 0
VERTEX
 8
PARTS
 10
 12.4000
 20
  5.2000
 30
0.0
 0
SEQEND
 8
PARTS
 0
POLYLINE
 8
PARTS
 66
1
 10
0.0
 20
0.0
 30
0.0
 0
VERTEX
 8
PARTS
 10
 13.0000
 20
  5.4000
 30
0.0
 42
  0.2691
 0
VERTEX
 8
PARTS
 10
 12.6500
 20
  5.6000
 30
0.0
 0
SEQEND
 8
PARTS
 0
POLYLINE
 8
PARTS
 66
1
 10
0.0
 20
0.0
 30
0.0
 0
VERTEX
 8
PARTS
 10
 12.4800
 20
  5.4000
 30
0.0
 42
  0.1989
 0
VERTEX
 8
PARTS
 10
 12.4000
 20
  5.6000
 30
0.0
 0
SEQEND
 8
PARTS
 0
POLYLINE
 8
PARTS
 66
1
 10
0.0
 20
0.0
 30
0.0
 0
VERTEX
 8
PARTS
 10
 12.4000
 20
  5.2000
 30
0.0
 42
  0.1989
 0
VERTEX
 8
PARTS
 10
 12.4800
 20
  5.4000
 30
0.0
 0
SEQEND
 8
PARTS
 0
POLYLINE
 8
PARTS
 66
1
 10
0.0
 20
0.0
 30
0.0
 0
VERTEX
 8
PARTS
 10
 12.6500
 20
  5.2000
 30
0.0
 42
  0.2691
 0
VERTEX
 8
PARTS
 10
 13.0000
 20
  5.4000
 30
0.0
 0
SEQEND
 8
PARTS
 0
POLYLINE
 8
PARTS
 66
1
 70
1
 10
0.0
 20
0.0
 30
0.0
 0
VERTEX
 8
PARTS
 10
 12.4600
 20
  5.3000
 30
0.0
 42
  0.0985
 0
VERTEX
 8
PARTS
 10
 12.4577
 20
  5.3115
 30
0.0
 42
  0.0985
 0
VERTEX
 8
PARTS
 10
 12.4512
 20
  5.3212
 30
0.0
 42
  0.0985
 0
VERTEX
 8
PARTS
 10
 12.4415
 20
  5.3277
 30
0.0
 42
  0.0985
 0
VERTEX
 8
PARTS
 10
 12.4300
 20
  5.3300
 30
0.0
 42
  0.0985
 0
VERTEX
 8
PARTS
 10
 12.4185
 20
  5.3277
 30
0.0
 42
  0.0985
 0
VERTEX
 8
PARTS
 10
 12.4088
 20
  5.3212
 30
0.0
 42
  0.0985
 0
VERTEX
 8
PARTS
 10
 12.4023
 20
  5.3115
 30
0.0
 42
  0.0985
 0
VERTEX
 8
PARTS
 10
 12.4000
 20
  5.3000
 30
0.0
 42
  0.0985
 0
VERTEX
 8
PARTS
 10
 12.4023
 20
  5.2885
 30
0.0
 42
  0.0985
 0
VERTEX
 8
PARTS
 10
 12.4088
 20
  5.2788
 30
0.0
 42
  0.0985
 0
VERTEX
 8
PARTS
 10
 12.4185
 20
  5.2723
 30
0.0
 42
  0.0985
 0
VERTEX
 8
PARTS
 10
 12.4300
 20
  5.2700
 30
0.0
 42
  0.0985
 0
VERTEX
 8
PARTS
 10
 12.4415
 20
  5.2723
 30
0.0
 42
  0.0985
 0
VERTEX
 8
PARTS
 10
 12.4512
 20
  5.2788
 30
0.0
 42
  0.0985
 0
VERTEX
 8
PARTS
 10
 12.4577
 20
  5.2885
 30
0.0
 42
  0.0985
 0
SEQEND
 8
PARTS
 0
POLYLINE
 8
PARTS
 66
1
 70
1
 10
0.0
 20
0.0
 30
0.0
 0
VERTEX
 8
PARTS
 10
 12.4600
 20
  5.5000
 30
0.0
 42
  0.0985
 0
VERTEX
 8
PARTS
 10
 12.4577
 20
  5.5115
 30
0.0
 42
  0.0985
 0
VERTEX
 8
PARTS
 10
 12.4512
 20
  5.5212
 30
0.0
 42
  0.0985
 0
VERTEX
 8
PARTS
 10
 12.4415
 20
  5.5277
 30
0.0
 42
  0.0985
 0
VERTEX
 8
PARTS
 10
 12.4300
 20
  5.5300
 30
0.0
 42
  0.0985
 0
VERTEX
 8
PARTS
 10
 12.4185
 20
  5.5277
 30
0.0
 42
  0.0985
 0
VERTEX
 8
PARTS
 10
 12.4088
 20
  5.5212
 30
0.0
 42
  0.0985
 0
VERTEX
 8
PARTS
 10
 12.4023
 20
  5.5115
 30
0.0
 42
  0.0985
 0
VERTEX
 8
PARTS
 10
 12.4000
 20
  5.5000
 30
0.0
 42
  0.0985
 0
VERTEX
 8
PARTS
 10
 12.4023
 20
  5.4885
 30
0.0
 42
  0.0985
 0
VERTEX
 8
PARTS
 10
 12.4088
 20
  5.4788
 30
0.0
 42
  0.0985
 0
VERTEX
 8
PARTS
 10
 12.4185
 20
  5.4723
 30
0.0
 42
  0.0985
 0
VERTEX
 8
PARTS
 10
 12.4300
 20
  5.4700
 30
0.0
 42
  0.0985
 0
VERTEX
 8
PARTS
 10
 12.4415
 20
  5.4723
 30
0.0
 42
  0.0985
 0
VERTEX
 8
PARTS
 10
 12.4512
 20
  5.4788
 30
0.0
 42
  0.0985
 0
VERTEX
 8
PARTS
 10
 12.4577
 20
  5.4885
 30
0.0
 42
  0.0985
 0
SEQEND
 8
PARTS
 0
TEXT
 8
PARTTEXT
 10
  5.0500
 20
  2.9086
 30
0.0
 40
  0.0514
 1
U4A
 0
TEXT
 8
PARTTEXT
 10
  5.0500
 20
  2.4086
 30
0.0
 40
  0.0514
 1
74ALS1034
 0
LINE
 8
PARTS
 10
  4.7000
 20
  2.7000
 30
0.0
 11
  5.0000
 21
  2.7000
 31
0.0
 0
TEXT
 8
PARTS
 10
  4.9000
 20
  2.7300
 30
0.0
 40
  0.0500
 1
1
 0
LINE
 8
PARTS
 10
  5.7000
 20
  2.7000
 30
0.0
 11
  5.4000
 21
  2.7000
 31
0.0
 0
TEXT
 8
PARTS
 10
  5.4600
 20
  2.7300
 30
0.0
 40
  0.0500
 1
2
 0
POLYLINE
 8
PARTS
 66
1
 10
0.0
 20
0.0
 30
0.0
 0
VERTEX
 8
PARTS
 10
  5.0000
 20
  2.9000
 30
0.0
 0
VERTEX
 8
PARTS
 10
  5.4000
 20
  2.7000
 30
0.0
 0
SEQEND
 8
PARTS
 0
POLYLINE
 8
PARTS
 66
1
 10
0.0
 20
0.0
 30
0.0
 0
VERTEX
 8
PARTS
 10
  5.4000
 20
  2.7000
 30
0.0
 0
VERTEX
 8
PARTS
 10
  5.0000
 20
  2.5000
 30
0.0
 0
SEQEND
 8
PARTS
 0
POLYLINE
 8
PARTS
 66
1
 10
0.0
 20
0.0
 30
0.0
 0
VERTEX
 8
PARTS
 10
  5.0000
 20
  2.5000
 30
0.0
 0
VERTEX
 8
PARTS
 10
  5.0000
 20
  2.9000
 30
0.0
 0
SEQEND
 8
PARTS
 0
TEXT
 8
PARTTEXT
 10
  6.0500
 20
  0.8086
 30
0.0
 40
  0.0514
 1
G4B
 0
TEXT
 8
PARTTEXT
 10
  6.0500
 20
  0.3086
 30
0.0
 40
  0.0514
 1
74ALS1034
 0
LINE
 8
PARTS
 10
  5.7000
 20
  0.6000
 30
0.0
 11
  6.0000
 21
  0.6000
 31
0.0
 0
TEXT
 8
PARTS
 10
  5.9000
 20
  0.6300
 30
0.0
 40
  0.0500
 1
3
 0
LINE
 8
PARTS
 10
  6.7000
 20
  0.6000
 30
0.0
 11
  6.4000
 21
  0.6000
 31
0.0
 0
TEXT
 8
PARTS
 10
  6.4600
 20
  0.6300
 30
0.0
 40
  0.0500
 1
4
 0
POLYLINE
 8
PARTS
 66
1
 10
0.0
 20
0.0
 30
0.0
 0
VERTEX
 8
PARTS
 10
  6.0000
 20
  0.8000
 30
0.0
 0
VERTEX
 8
PARTS
 10
  6.4000
 20
  0.6000
 30
0.0
 0
SEQEND
 8
PARTS
 0
POLYLINE
 8
PARTS
 66
1
 10
0.0
 20
0.0
 30
0.0
 0
VERTEX
 8
PARTS
 10
  6.4000
 20
  0.6000
 30
0.0
 0
VERTEX
 8
PARTS
 10
  6.0000
 20
  0.4000
 30
0.0
 0
SEQEND
 8
PARTS
 0
POLYLINE
 8
PARTS
 66
1
 10
0.0
 20
0.0
 30
0.0
 0
VERTEX
 8
PARTS
 10
  6.0000
 20
  0.4000
 30
0.0
 0
VERTEX
 8
PARTS
 10
  6.0000
 20
  0.8000
 30
0.0
 0
SEQEND
 8
PARTS
 0
LINE
 8
PARTS
 10
  0.9000
 20
  4.5000
 30
0.0
 11
  1.0000
 21
  4.5000
 31
0.0
 0
TEXT
 8
PARTS
 10
  0.9400
 20
  4.5300
 30
0.0
 40
  0.0500
 1

 0
LINE
 8
PARTS
 10
  1.4000
 20
  4.5000
 30
0.0
 11
  1.3000
 21
  4.5000
 31
0.0
 0
TEXT
 8
PARTS
 10
  1.3600
 20
  4.5300
 30
0.0
 40
  0.0500
 1

 0
POLYLINE
 8
PARTS
 66
1
 10
0.0
 20
0.0
 30
0.0
 0
VERTEX
 8
PARTS
 10
  1.0000
 20
  4.5000
 30
0.0
 0
VERTEX
 8
PARTS
 10
  1.0300
 20
  4.5300
 30
0.0
 0
SEQEND
 8
PARTS
 0
POLYLINE
 8
PARTS
 66
1
 10
0.0
 20
0.0
 30
0.0
 0
VERTEX
 8
PARTS
 10
  1.0300
 20
  4.5300
 30
0.0
 0
VERTEX
 8
PARTS
 10
  1.0900
 20
  4.4700
 30
0.0
 0
SEQEND
 8
PARTS
 0
POLYLINE
 8
PARTS
 66
1
 10
0.0
 20
0.0
 30
0.0
 0
VERTEX
 8
PARTS
 10
  1.0900
 20
  4.4700
 30
0.0
 0
VERTEX
 8
PARTS
 10
  1.1500
 20
  4.5300
 30
0.0
 0
SEQEND
 8
PARTS
 0
POLYLINE
 8
PARTS
 66
1
 10
0.0
 20
0.0
 30
0.0
 0
VERTEX
 8
PARTS
 10
  1.1500
 20
  4.5300
 30
0.0
 0
VERTEX
 8
PARTS
 10
  1.2100
 20
  4.4700
 30
0.0
 0
SEQEND
 8
PARTS
 0
POLYLINE
 8
PARTS
 66
1
 10
0.0
 20
0.0
 30
0.0
 0
VERTEX
 8
PARTS
 10
  1.2100
 20
  4.4700
 30
0.0
 0
VERTEX
 8
PARTS
 10
  1.2700
 20
  4.5300
 30
0.0
 0
SEQEND
 8
PARTS
 0
POLYLINE
 8
PARTS
 66
1
 10
0.0
 20
0.0
 30
0.0
 0
VERTEX
 8
PARTS
 10
  1.2700
 20
  4.5300
 30
0.0
 0
VERTEX
 8
PARTS
 10
  1.3000
 20
  4.5000
 30
0.0
 0
SEQEND
 8
PARTS
 0
TEXT
 8
PARTTEXT
 10
  6.3500
 20
  7.8086
 30
0.0
 40
  0.0514
 1
D5
 0
TEXT
 8
PARTTEXT
 10
  6.3500
 20
  6.5086
 30
0.0
 40
  0.0514
 1
74HCT541
 0
LINE
 8
PARTS
 10
  6.0000
 20
  7.7000
 30
0.0
 11
  6.3000
 21
  7.7000
 31
0.0
 0
TEXT
 8
PARTS
 10
  6.3900
 20
  7.6750
 30
0.0
 40
  0.0500
 1
A1
 0
TEXT
 8
PARTS
 10
  6.2000
 20
  7.7300
 30
0.0
 40
  0.0500
 1
2
 0
LINE
 8
PARTS
 10
  6.0000
 20
  7.6000
 30
0.0
 11
  6.3000
 21
  7.6000
 31
0.0
 0
TEXT
 8
PARTS
 10
  6.3900
 20
  7.5750
 30
0.0
 40
  0.0500
 1
A2
 0
TEXT
 8
PARTS
 10
  6.2000
 20
  7.6300
 30
0.0
 40
  0.0500
 1
3
 0
LINE
 8
PARTS
 10
  6.0000
 20
  7.5000
 30
0.0
 11
  6.3000
 21
  7.5000
 31
0.0
 0
TEXT
 8
PARTS
 10
  6.3900
 20
  7.4750
 30
0.0
 40
  0.0500
 1
A3
 0
TEXT
 8
PARTS
 10
  6.2000
 20
  7.5300
 30
0.0
 40
  0.0500
 1
4
 0
LINE
 8
PARTS
 10
  6.0000
 20
  7.4000
 30
0.0
 11
  6.3000
 21
  7.4000
 31
0.0
 0
TEXT
 8
PARTS
 10
  6.3900
 20
  7.3750
 30
0.0
 40
  0.0500
 1
A4
 0
TEXT
 8
PARTS
 10
  6.2000
 20
  7.4300
 30
0.0
 40
  0.0500
 1
5
 0
LINE
 8
PARTS
 10
  6.0000
 20
  7.3000
 30
0.0
 11
  6.3000
 21
  7.3000
 31
0.0
 0
TEXT
 8
PARTS
 10
  6.3900
 20
  7.2750
 30
0.0
 40
  0.0500
 1
A5
 0
TEXT
 8
PARTS
 10
  6.2000
 20
  7.3300
 30
0.0
 40
  0.0500
 1
6
 0
LINE
 8
PARTS
 10
  6.0000
 20
  7.2000
 30
0.0
 11
  6.3000
 21
  7.2000
 31
0.0
 0
TEXT
 8
PARTS
 10
  6.3900
 20
  7.1750
 30
0.0
 40
  0.0500
 1
A6
 0
TEXT
 8
PARTS
 10
  6.2000
 20
  7.2300
 30
0.0
 40
  0.0500
 1
7
 0
LINE
 8
PARTS
 10
  6.0000
 20
  7.1000
 30
0.0
 11
  6.3000
 21
  7.1000
 31
0.0
 0
TEXT
 8
PARTS
 10
  6.3900
 20
  7.0750
 30
0.0
 40
  0.0500
 1
A7
 0
TEXT
 8
PARTS
 10
  6.2000
 20
  7.1300
 30
0.0
 40
  0.0500
 1
8
 0
LINE
 8
PARTS
 10
  6.0000
 20
  7.0000
 30
0.0
 11
  6.3000
 21
  7.0000
 31
0.0
 0
TEXT
 8
PARTS
 10
  6.3900
 20
  6.9750
 30
0.0
 40
  0.0500
 1
A8
 0
TEXT
 8
PARTS
 10
  6.2000
 20
  7.0300
 30
0.0
 40
  0.0500
 1
9
 0
CIRCLE
 8
PARTS
 10
  6.2700
 20
  6.8000
 30
0.0
 40
  0.0300
 0
LINE
 8
PARTS
 10
  6.0000
 20
  6.8000
 30
0.0
 11
  6.2400
 21
  6.8000
 31
0.0
 0
TEXT
 8
PARTS
 10
  6.3900
 20
  6.7750
 30
0.0
 40
  0.0500
 1
G1
 0
TEXT
 8
PARTS
 10
  6.2000
 20
  6.8300
 30
0.0
 40
  0.0500
 1
1
 0
CIRCLE
 8
PARTS
 10
  6.2700
 20
  6.7000
 30
0.0
 40
  0.0300
 0
LINE
 8
PARTS
 10
  6.0000
 20
  6.7000
 30
0.0
 11
  6.2400
 21
  6.7000
 31
0.0
 0
TEXT
 8
PARTS
 10
  6.3900
 20
  6.6750
 30
0.0
 40
  0.0500
 1
G2
 0
TEXT
 8
PARTS
 10
  6.1600
 20
  6.7300
 30
0.0
 40
  0.0500
 1
19
 0
LINE
 8
PARTS
 10
  7.2000
 20
  7.7000
 30
0.0
 11
  6.9000
 21
  7.7000
 31
0.0
 0
TEXT
 8
PARTS
 10
  6.7300
 20
  7.6750
 30
0.0
 40
  0.0500
 1
Y1
 0
TEXT
 8
PARTS
 10
  6.9600
 20
  7.7300
 30
0.0
 40
  0.0500
 1
18
 0
LINE
 8
PARTS
 10
  7.2000
 20
  7.6000
 30
0.0
 11
  6.9000
 21
  7.6000
 31
0.0
 0
TEXT
 8
PARTS
 10
  6.7300
 20
  7.5750
 30
0.0
 40
  0.0500
 1
Y2
 0
TEXT
 8
PARTS
 10
  6.9600
 20
  7.6300
 30
0.0
 40
  0.0500
 1
17
 0
LINE
 8
PARTS
 10
  7.2000
 20
  7.5000
 30
0.0
 11
  6.9000
 21
  7.5000
 31
0.0
 0
TEXT
 8
PARTS
 10
  6.7300
 20
  7.4750
 30
0.0
 40
  0.0500
 1
Y3
 0
TEXT
 8
PARTS
 10
  6.9600
 20
  7.5300
 30
0.0
 40
  0.0500
 1
16
 0
LINE
 8
PARTS
 10
  7.2000
 20
  7.4000
 30
0.0
 11
  6.9000
 21
  7.4000
 31
0.0
 0
TEXT
 8
PARTS
 10
  6.7300
 20
  7.3750
 30
0.0
 40
  0.0500
 1
Y4
 0
TEXT
 8
PARTS
 10
  6.9600
 20
  7.4300
 30
0.0
 40
  0.0500
 1
15
 0
LINE
 8
PARTS
 10
  7.2000
 20
  7.3000
 30
0.0
 11
  6.9000
 21
  7.3000
 31
0.0
 0
TEXT
 8
PARTS
 10
  6.7300
 20
  7.2750
 30
0.0
 40
  0.0500
 1
Y5
 0
TEXT
 8
PARTS
 10
  6.9600
 20
  7.3300
 30
0.0
 40
  0.0500
 1
14
 0
LINE
 8
PARTS
 10
  7.2000
 20
  7.2000
 30
0.0
 11
  6.9000
 21
  7.2000
 31
0.0
 0
TEXT
 8
PARTS
 10
  6.7300
 20
  7.1750
 30
0.0
 40
  0.0500
 1
Y6
 0
TEXT
 8
PARTS
 10
  6.9600
 20
  7.2300
 30
0.0
 40
  0.0500
 1
13
 0
LINE
 8
PARTS
 10
  7.2000
 20
  7.1000
 30
0.0
 11
  6.9000
 21
  7.1000
 31
0.0
 0
TEXT
 8
PARTS
 10
  6.7300
 20
  7.0750
 30
0.0
 40
  0.0500
 1
Y7
 0
TEXT
 8
PARTS
 10
  6.9600
 20
  7.1300
 30
0.0
 40
  0.0500
 1
12
 0
LINE
 8
PARTS
 10
  7.2000
 20
  7.0000
 30
0.0
 11
  6.9000
 21
  7.0000
 31
0.0
 0
TEXT
 8
PARTS
 10
  6.7300
 20
  6.9750
 30
0.0
 40
  0.0500
 1
Y8
 0
TEXT
 8
PARTS
 10
  6.9600
 20
  7.0300
 30
0.0
 40
  0.0500
 1
11
 0
POLYLINE
 8
PARTS
 66
1
 70
1
 10
0.0
 20
0.0
 30
0.0
 0
VERTEX
 8
PARTS
 10
  6.3000
 20
  7.8000
 30
0.0
 0
VERTEX
 8
PARTS
 10
  6.9000
 20
  7.8000
 30
0.0
 0
VERTEX
 8
PARTS
 10
  6.9000
 20
  6.6000
 30
0.0
 0
VERTEX
 8
PARTS
 10
  6.3000
 20
  6.6000
 30
0.0
 0
SEQEND
 8
PARTS
 0
LINE
 8
PARTS
 10
  0.9000
 20
  4.8000
 30
0.0
 11
  1.0000
 21
  4.8000
 31
0.0
 0
TEXT
 8
PARTS
 10
  0.9400
 20
  4.8300
 30
0.0
 40
  0.0500
 1

 0
LINE
 8
PARTS
 10
  1.4000
 20
  4.8000
 30
0.0
 11
  1.3000
 21
  4.8000
 31
0.0
 0
TEXT
 8
PARTS
 10
  1.3600
 20
  4.8300
 30
0.0
 40
  0.0500
 1

 0
POLYLINE
 8
PARTS
 66
1
 10
0.0
 20
0.0
 30
0.0
 0
VERTEX
 8
PARTS
 10
  1.0000
 20
  4.8000
 30
0.0
 0
VERTEX
 8
PARTS
 10
  1.0300
 20
  4.8300
 30
0.0
 0
SEQEND
 8
PARTS
 0
POLYLINE
 8
PARTS
 66
1
 10
0.0
 20
0.0
 30
0.0
 0
VERTEX
 8
PARTS
 10
  1.0300
 20
  4.8300
 30
0.0
 0
VERTEX
 8
PARTS
 10
  1.0900
 20
  4.7700
 30
0.0
 0
SEQEND
 8
PARTS
 0
POLYLINE
 8
PARTS
 66
1
 10
0.0
 20
0.0
 30
0.0
 0
VERTEX
 8
PARTS
 10
  1.0900
 20
  4.7700
 30
0.0
 0
VERTEX
 8
PARTS
 10
  1.1500
 20
  4.8300
 30
0.0
 0
SEQEND
 8
PARTS
 0
POLYLINE
 8
PARTS
 66
1
 10
0.0
 20
0.0
 30
0.0
 0
VERTEX
 8
PARTS
 10
  1.1500
 20
  4.8300
 30
0.0
 0
VERTEX
 8
PARTS
 10
  1.2100
 20
  4.7700
 30
0.0
 0
SEQEND
 8
PARTS
 0
POLYLINE
 8
PARTS
 66
1
 10
0.0
 20
0.0
 30
0.0
 0
VERTEX
 8
PARTS
 10
  1.2100
 20
  4.7700
 30
0.0
 0
VERTEX
 8
PARTS
 10
  1.2700
 20
  4.8300
 30
0.0
 0
SEQEND
 8
PARTS
 0
POLYLINE
 8
PARTS
 66
1
 10
0.0
 20
0.0
 30
0.0
 0
VERTEX
 8
PARTS
 10
  1.2700
 20
  4.8300
 30
0.0
 0
VERTEX
 8
PARTS
 10
  1.3000
 20
  4.8000
 30
0.0
 0
SEQEND
 8
PARTS
 0
TEXT
 8
PARTTEXT
 10
  9.0500
 20
  2.9086
 30
0.0
 40
  0.0514
 1
U4E
 0
TEXT
 8
PARTTEXT
 10
  9.0500
 20
  2.4086
 30
0.0
 40
  0.0514
 1
74ALS1034
 0
LINE
 8
PARTS
 10
  8.7000
 20
  2.7000
 30
0.0
 11
  9.0000
 21
  2.7000
 31
0.0
 0
TEXT
 8
PARTS
 10
  8.8600
 20
  2.7300
 30
0.0
 40
  0.0500
 1
11
 0
LINE
 8
PARTS
 10
  9.7000
 20
  2.7000
 30
0.0
 11
  9.4000
 21
  2.7000
 31
0.0
 0
TEXT
 8
PARTS
 10
  9.4600
 20
  2.7300
 30
0.0
 40
  0.0500
 1
10
 0
POLYLINE
 8
PARTS
 66
1
 10
0.0
 20
0.0
 30
0.0
 0
VERTEX
 8
PARTS
 10
  9.0000
 20
  2.9000
 30
0.0
 0
VERTEX
 8
PARTS
 10
  9.4000
 20
  2.7000
 30
0.0
 0
SEQEND
 8
PARTS
 0
POLYLINE
 8
PARTS
 66
1
 10
0.0
 20
0.0
 30
0.0
 0
VERTEX
 8
PARTS
 10
  9.4000
 20
  2.7000
 30
0.0
 0
VERTEX
 8
PARTS
 10
  9.0000
 20
  2.5000
 30
0.0
 0
SEQEND
 8
PARTS
 0
POLYLINE
 8
PARTS
 66
1
 10
0.0
 20
0.0
 30
0.0
 0
VERTEX
 8
PARTS
 10
  9.0000
 20
  2.5000
 30
0.0
 0
VERTEX
 8
PARTS
 10
  9.0000
 20
  2.9000
 30
0.0
 0
SEQEND
 8
PARTS
 0
TEXT
 8
PARTTEXT
 10
 13.3500
 20
  9.3086
 30
0.0
 40
  0.0514
 1
H1
 0
TEXT
 8
PARTTEXT
 10
 13.3500
 20
  7.8086
 30
0.0
 40
  0.0514
 1
SN75ALS192
 0
LINE
 8
PARTS
 10
 13.0000
 20
  9.2000
 30
0.0
 11
 13.3000
 21
  9.2000
 31
0.0
 0
TEXT
 8
PARTS
 10
 13.3900
 20
  9.1750
 30
0.0
 40
  0.0500
 1
1A
 0
TEXT
 8
PARTS
 10
 13.2000
 20
  9.2300
 30
0.0
 40
  0.0500
 1
1
 0
LINE
 8
PARTS
 10
 13.0000
 20
  8.9000
 30
0.0
 11
 13.3000
 21
  8.9000
 31
0.0
 0
TEXT
 8
PARTS
 10
 13.3900
 20
  8.8750
 30
0.0
 40
  0.0500
 1
2A
 0
TEXT
 8
PARTS
 10
 13.2000
 20
  8.9300
 30
0.0
 40
  0.0500
 1
7
 0
LINE
 8
PARTS
 10
 13.0000
 20
  8.6000
 30
0.0
 11
 13.3000
 21
  8.6000
 31
0.0
 0
TEXT
 8
PARTS
 10
 13.3900
 20
  8.5750
 30
0.0
 40
  0.0500
 1
3A
 0
TEXT
 8
PARTS
 10
 13.2000
 20
  8.6300
 30
0.0
 40
  0.0500
 1
9
 0
LINE
 8
PARTS
 10
 13.0000
 20
  8.3000
 30
0.0
 11
 13.3000
 21
  8.3000
 31
0.0
 0
TEXT
 8
PARTS
 10
 13.3900
 20
  8.2750
 30
0.0
 40
  0.0500
 1
4A
 0
TEXT
 8
PARTS
 10
 13.1600
 20
  8.3300
 30
0.0
 40
  0.0500
 1
15
 0
LINE
 8
PARTS
 10
 13.0000
 20
  8.1000
 30
0.0
 11
 13.3000
 21
  8.1000
 31
0.0
 0
TEXT
 8
PARTS
 10
 13.3900
 20
  8.0750
 30
0.0
 40
  0.0500
 1
%%oG%%o
 0
TEXT
 8
PARTS
 10
 13.1600
 20
  8.1300
 30
0.0
 40
  0.0500
 1
12
 0
LINE
 8
PARTS
 10
 13.0000
 20
  8.0000
 30
0.0
 11
 13.3000
 21
  8.0000
 31
0.0
 0
TEXT
 8
PARTS
 10
 13.3900
 20
  7.9750
 30
0.0
 40
  0.0500
 1
G
 0
TEXT
 8
PARTS
 10
 13.2000
 20
  8.0300
 30
0.0
 40
  0.0500
 1
4
 0
LINE
 8
PARTS
 10
 14.2000
 20
  9.2000
 30
0.0
 11
 13.9000
 21
  9.2000
 31
0.0
 0
TEXT
 8
PARTS
 10
 13.7300
 20
  9.1750
 30
0.0
 40
  0.0500
 1
1Y
 0
TEXT
 8
PARTS
 10
 13.9600
 20
  9.2300
 30
0.0
 40
  0.0500
 1
2
 0
CIRCLE
 8
PARTS
 10
 13.9300
 20
  9.1000
 30
0.0
 40
  0.0300
 0
LINE
 8
PARTS
 10
 14.2000
 20
  9.1000
 30
0.0
 11
 13.9600
 21
  9.1000
 31
0.0
 0
TEXT
 8
PARTS
 10
 13.7300
 20
  9.0750
 30
0.0
 40
  0.0500
 1
1Z
 0
TEXT
 8
PARTS
 10
 13.9600
 20
  9.1300
 30
0.0
 40
  0.0500
 1
3
 0
LINE
 8
PARTS
 10
 14.2000
 20
  8.9000
 30
0.0
 11
 13.9000
 21
  8.9000
 31
0.0
 0
TEXT
 8
PARTS
 10
 13.7300
 20
  8.8750
 30
0.0
 40
  0.0500
 1
2Y
 0
TEXT
 8
PARTS
 10
 13.9600
 20
  8.9300
 30
0.0
 40
  0.0500
 1
6
 0
CIRCLE
 8
PARTS
 10
 13.9300
 20
  8.8000
 30
0.0
 40
  0.0300
 0
LINE
 8
PARTS
 10
 14.2000
 20
  8.8000
 30
0.0
 11
 13.9600
 21
  8.8000
 31
0.0
 0
TEXT
 8
PARTS
 10
 13.7300
 20
  8.7750
 30
0.0
 40
  0.0500
 1
2Z
 0
TEXT
 8
PARTS
 10
 13.9600
 20
  8.8300
 30
0.0
 40
  0.0500
 1
5
 0
LINE
 8
PARTS
 10
 14.2000
 20
  8.6000
 30
0.0
 11
 13.9000
 21
  8.6000
 31
0.0
 0
TEXT
 8
PARTS
 10
 13.7300
 20
  8.5750
 30
0.0
 40
  0.0500
 1
3Y
 0
TEXT
 8
PARTS
 10
 13.9600
 20
  8.6300
 30
0.0
 40
  0.0500
 1
10
 0
CIRCLE
 8
PARTS
 10
 13.9300
 20
  8.5000
 30
0.0
 40
  0.0300
 0
LINE
 8
PARTS
 10
 14.2000
 20
  8.5000
 30
0.0
 11
 13.9600
 21
  8.5000
 31
0.0
 0
TEXT
 8
PARTS
 10
 13.7300
 20
  8.4750
 30
0.0
 40
  0.0500
 1
3Z
 0
TEXT
 8
PARTS
 10
 13.9600
 20
  8.5300
 30
0.0
 40
  0.0500
 1
11
 0
LINE
 8
PARTS
 10
 14.2000
 20
  8.3000
 30
0.0
 11
 13.9000
 21
  8.3000
 31
0.0
 0
TEXT
 8
PARTS
 10
 13.7300
 20
  8.2750
 30
0.0
 40
  0.0500
 1
4Y
 0
TEXT
 8
PARTS
 10
 13.9600
 20
  8.3300
 30
0.0
 40
  0.0500
 1
14
 0
CIRCLE
 8
PARTS
 10
 13.9300
 20
  8.2000
 30
0.0
 40
  0.0300
 0
LINE
 8
PARTS
 10
 14.2000
 20
  8.2000
 30
0.0
 11
 13.9600
 21
  8.2000
 31
0.0
 0
TEXT
 8
PARTS
 10
 13.7300
 20
  8.1750
 30
0.0
 40
  0.0500
 1
4Z
 0
TEXT
 8
PARTS
 10
 13.9600
 20
  8.2300
 30
0.0
 40
  0.0500
 1
13
 0
POLYLINE
 8
PARTS
 66
1
 70
1
 10
0.0
 20
0.0
 30
0.0
 0
VERTEX
 8
PARTS
 10
 13.3000
 20
  9.3000
 30
0.0
 0
VERTEX
 8
PARTS
 10
 13.9000
 20
  9.3000
 30
0.0
 0
VERTEX
 8
PARTS
 10
 13.9000
 20
  7.9000
 30
0.0
 0
VERTEX
 8
PARTS
 10
 13.3000
 20
  7.9000
 30
0.0
 0
SEQEND
 8
PARTS
 0
TEXT
 8
PARTTEXT
 10
  8.0500
 20
  2.9086
 30
0.0
 40
  0.0514
 1
U4D
 0
TEXT
 8
PARTTEXT
 10
  8.0500
 20
  2.4086
 30
0.0
 40
  0.0514
 1
74ALS1034
 0
LINE
 8
PARTS
 10
  7.7000
 20
  2.7000
 30
0.0
 11
  8.0000
 21
  2.7000
 31
0.0
 0
TEXT
 8
PARTS
 10
  7.9000
 20
  2.7300
 30
0.0
 40
  0.0500
 1
9
 0
LINE
 8
PARTS
 10
  8.7000
 20
  2.7000
 30
0.0
 11
  8.4000
 21
  2.7000
 31
0.0
 0
TEXT
 8
PARTS
 10
  8.4600
 20
  2.7300
 30
0.0
 40
  0.0500
 1
8
 0
POLYLINE
 8
PARTS
 66
1
 10
0.0
 20
0.0
 30
0.0
 0
VERTEX
 8
PARTS
 10
  8.0000
 20
  2.9000
 30
0.0
 0
VERTEX
 8
PARTS
 10
  8.4000
 20
  2.7000
 30
0.0
 0
SEQEND
 8
PARTS
 0
POLYLINE
 8
PARTS
 66
1
 10
0.0
 20
0.0
 30
0.0
 0
VERTEX
 8
PARTS
 10
  8.4000
 20
  2.7000
 30
0.0
 0
VERTEX
 8
PARTS
 10
  8.0000
 20
  2.5000
 30
0.0
 0
SEQEND
 8
PARTS
 0
POLYLINE
 8
PARTS
 66
1
 10
0.0
 20
0.0
 30
0.0
 0
VERTEX
 8
PARTS
 10
  8.0000
 20
  2.5000
 30
0.0
 0
VERTEX
 8
PARTS
 10
  8.0000
 20
  2.9000
 30
0.0
 0
SEQEND
 8
PARTS
 0
LINE
 8
PARTS
 10
  0.9000
 20
  6.3000
 30
0.0
 11
  1.0000
 21
  6.3000
 31
0.0
 0
TEXT
 8
PARTS
 10
  0.9400
 20
  6.3300
 30
0.0
 40
  0.0500
 1

 0
LINE
 8
PARTS
 10
  1.4000
 20
  6.3000
 30
0.0
 11
  1.3000
 21
  6.3000
 31
0.0
 0
TEXT
 8
PARTS
 10
  1.3600
 20
  6.3300
 30
0.0
 40
  0.0500
 1

 0
POLYLINE
 8
PARTS
 66
1
 10
0.0
 20
0.0
 30
0.0
 0
VERTEX
 8
PARTS
 10
  1.0000
 20
  6.3000
 30
0.0
 0
VERTEX
 8
PARTS
 10
  1.0300
 20
  6.3300
 30
0.0
 0
SEQEND
 8
PARTS
 0
POLYLINE
 8
PARTS
 66
1
 10
0.0
 20
0.0
 30
0.0
 0
VERTEX
 8
PARTS
 10
  1.0300
 20
  6.3300
 30
0.0
 0
VERTEX
 8
PARTS
 10
  1.0900
 20
  6.2700
 30
0.0
 0
SEQEND
 8
PARTS
 0
POLYLINE
 8
PARTS
 66
1
 10
0.0
 20
0.0
 30
0.0
 0
VERTEX
 8
PARTS
 10
  1.0900
 20
  6.2700
 30
0.0
 0
VERTEX
 8
PARTS
 10
  1.1500
 20
  6.3300
 30
0.0
 0
SEQEND
 8
PARTS
 0
POLYLINE
 8
PARTS
 66
1
 10
0.0
 20
0.0
 30
0.0
 0
VERTEX
 8
PARTS
 10
  1.1500
 20
  6.3300
 30
0.0
 0
VERTEX
 8
PARTS
 10
  1.2100
 20
  6.2700
 30
0.0
 0
SEQEND
 8
PARTS
 0
POLYLINE
 8
PARTS
 66
1
 10
0.0
 20
0.0
 30
0.0
 0
VERTEX
 8
PARTS
 10
  1.2100
 20
  6.2700
 30
0.0
 0
VERTEX
 8
PARTS
 10
  1.2700
 20
  6.3300
 30
0.0
 0
SEQEND
 8
PARTS
 0
POLYLINE
 8
PARTS
 66
1
 10
0.0
 20
0.0
 30
0.0
 0
VERTEX
 8
PARTS
 10
  1.2700
 20
  6.3300
 30
0.0
 0
VERTEX
 8
PARTS
 10
  1.3000
 20
  6.3000
 30
0.0
 0
SEQEND
 8
PARTS
 0
LINE
 8
PARTS
 10
  0.9000
 20
  5.1000
 30
0.0
 11
  1.0000
 21
  5.1000
 31
0.0
 0
TEXT
 8
PARTS
 10
  0.9400
 20
  5.1300
 30
0.0
 40
  0.0500
 1

 0
LINE
 8
PARTS
 10
  1.4000
 20
  5.1000
 30
0.0
 11
  1.3000
 21
  5.1000
 31
0.0
 0
TEXT
 8
PARTS
 10
  1.3600
 20
  5.1300
 30
0.0
 40
  0.0500
 1

 0
POLYLINE
 8
PARTS
 66
1
 10
0.0
 20
0.0
 30
0.0
 0
VERTEX
 8
PARTS
 10
  1.0000
 20
  5.1000
 30
0.0
 0
VERTEX
 8
PARTS
 10
  1.0300
 20
  5.1300
 30
0.0
 0
SEQEND
 8
PARTS
 0
POLYLINE
 8
PARTS
 66
1
 10
0.0
 20
0.0
 30
0.0
 0
VERTEX
 8
PARTS
 10
  1.0300
 20
  5.1300
 30
0.0
 0
VERTEX
 8
PARTS
 10
  1.0900
 20
  5.0700
 30
0.0
 0
SEQEND
 8
PARTS
 0
POLYLINE
 8
PARTS
 66
1
 10
0.0
 20
0.0
 30
0.0
 0
VERTEX
 8
PARTS
 10
  1.0900
 20
  5.0700
 30
0.0
 0
VERTEX
 8
PARTS
 10
  1.1500
 20
  5.1300
 30
0.0
 0
SEQEND
 8
PARTS
 0
POLYLINE
 8
PARTS
 66
1
 10
0.0
 20
0.0
 30
0.0
 0
VERTEX
 8
PARTS
 10
  1.1500
 20
  5.1300
 30
0.0
 0
VERTEX
 8
PARTS
 10
  1.2100
 20
  5.0700
 30
0.0
 0
SEQEND
 8
PARTS
 0
POLYLINE
 8
PARTS
 66
1
 10
0.0
 20
0.0
 30
0.0
 0
VERTEX
 8
PARTS
 10
  1.2100
 20
  5.0700
 30
0.0
 0
VERTEX
 8
PARTS
 10
  1.2700
 20
  5.1300
 30
0.0
 0
SEQEND
 8
PARTS
 0
POLYLINE
 8
PARTS
 66
1
 10
0.0
 20
0.0
 30
0.0
 0
VERTEX
 8
PARTS
 10
  1.2700
 20
  5.1300
 30
0.0
 0
VERTEX
 8
PARTS
 10
  1.3000
 20
  5.1000
 30
0.0
 0
SEQEND
 8
PARTS
 0
TEXT
 8
PARTTEXT
 10
 10.0500
 20
  0.8086
 30
0.0
 40
  0.0514
 1
G4F
 0
TEXT
 8
PARTTEXT
 10
 10.0500
 20
  0.3086
 30
0.0
 40
  0.0514
 1
74ALS1034
 0
LINE
 8
PARTS
 10
  9.7000
 20
  0.6000
 30
0.0
 11
 10.0000
 21
  0.6000
 31
0.0
 0
TEXT
 8
PARTS
 10
  9.8600
 20
  0.6300
 30
0.0
 40
  0.0500
 1
13
 0
LINE
 8
PARTS
 10
 10.7000
 20
  0.6000
 30
0.0
 11
 10.4000
 21
  0.6000
 31
0.0
 0
TEXT
 8
PARTS
 10
 10.4600
 20
  0.6300
 30
0.0
 40
  0.0500
 1
12
 0
POLYLINE
 8
PARTS
 66
1
 10
0.0
 20
0.0
 30
0.0
 0
VERTEX
 8
PARTS
 10
 10.0000
 20
  0.8000
 30
0.0
 0
VERTEX
 8
PARTS
 10
 10.4000
 20
  0.6000
 30
0.0
 0
SEQEND
 8
PARTS
 0
POLYLINE
 8
PARTS
 66
1
 10
0.0
 20
0.0
 30
0.0
 0
VERTEX
 8
PARTS
 10
 10.4000
 20
  0.6000
 30
0.0
 0
VERTEX
 8
PARTS
 10
 10.0000
 20
  0.4000
 30
0.0
 0
SEQEND
 8
PARTS
 0
POLYLINE
 8
PARTS
 66
1
 10
0.0
 20
0.0
 30
0.0
 0
VERTEX
 8
PARTS
 10
 10.0000
 20
  0.4000
 30
0.0
 0
VERTEX
 8
PARTS
 10
 10.0000
 20
  0.8000
 30
0.0
 0
SEQEND
 8
PARTS
 0
LINE
 8
PARTS
 10
  0.9000
 20
  3.0000
 30
0.0
 11
  1.0000
 21
  3.0000
 31
0.0
 0
TEXT
 8
PARTS
 10
  0.9400
 20
  3.0300
 30
0.0
 40
  0.0500
 1

 0
LINE
 8
PARTS
 10
  1.4000
 20
  3.0000
 30
0.0
 11
  1.3000
 21
  3.0000
 31
0.0
 0
TEXT
 8
PARTS
 10
  1.3600
 20
  3.0300
 30
0.0
 40
  0.0500
 1

 0
POLYLINE
 8
PARTS
 66
1
 10
0.0
 20
0.0
 30
0.0
 0
VERTEX
 8
PARTS
 10
  1.0000
 20
  3.0000
 30
0.0
 0
VERTEX
 8
PARTS
 10
  1.0300
 20
  3.0300
 30
0.0
 0
SEQEND
 8
PARTS
 0
POLYLINE
 8
PARTS
 66
1
 10
0.0
 20
0.0
 30
0.0
 0
VERTEX
 8
PARTS
 10
  1.0300
 20
  3.0300
 30
0.0
 0
VERTEX
 8
PARTS
 10
  1.0900
 20
  2.9700
 30
0.0
 0
SEQEND
 8
PARTS
 0
POLYLINE
 8
PARTS
 66
1
 10
0.0
 20
0.0
 30
0.0
 0
VERTEX
 8
PARTS
 10
  1.0900
 20
  2.9700
 30
0.0
 0
VERTEX
 8
PARTS
 10
  1.1500
 20
  3.0300
 30
0.0
 0
SEQEND
 8
PARTS
 0
POLYLINE
 8
PARTS
 66
1
 10
0.0
 20
0.0
 30
0.0
 0
VERTEX
 8
PARTS
 10
  1.1500
 20
  3.0300
 30
0.0
 0
VERTEX
 8
PARTS
 10
  1.2100
 20
  2.9700
 30
0.0
 0
SEQEND
 8
PARTS
 0
POLYLINE
 8
PARTS
 66
1
 10
0.0
 20
0.0
 30
0.0
 0
VERTEX
 8
PARTS
 10
  1.2100
 20
  2.9700
 30
0.0
 0
VERTEX
 8
PARTS
 10
  1.2700
 20
  3.0300
 30
0.0
 0
SEQEND
 8
PARTS
 0
POLYLINE
 8
PARTS
 66
1
 10
0.0
 20
0.0
 30
0.0
 0
VERTEX
 8
PARTS
 10
  1.2700
 20
  3.0300
 30
0.0
 0
VERTEX
 8
PARTS
 10
  1.3000
 20
  3.0000
 30
0.0
 0
SEQEND
 8
PARTS
 0
LINE
 8
PARTS
 10
  0.9000
 20
  2.7000
 30
0.0
 11
  1.0000
 21
  2.7000
 31
0.0
 0
TEXT
 8
PARTS
 10
  0.9400
 20
  2.7300
 30
0.0
 40
  0.0500
 1

 0
LINE
 8
PARTS
 10
  1.4000
 20
  2.7000
 30
0.0
 11
  1.3000
 21
  2.7000
 31
0.0
 0
TEXT
 8
PARTS
 10
  1.3600
 20
  2.7300
 30
0.0
 40
  0.0500
 1

 0
POLYLINE
 8
PARTS
 66
1
 10
0.0
 20
0.0
 30
0.0
 0
VERTEX
 8
PARTS
 10
  1.0000
 20
  2.7000
 30
0.0
 0
VERTEX
 8
PARTS
 10
  1.0300
 20
  2.7300
 30
0.0
 0
SEQEND
 8
PARTS
 0
POLYLINE
 8
PARTS
 66
1
 10
0.0
 20
0.0
 30
0.0
 0
VERTEX
 8
PARTS
 10
  1.0300
 20
  2.7300
 30
0.0
 0
VERTEX
 8
PARTS
 10
  1.0900
 20
  2.6700
 30
0.0
 0
SEQEND
 8
PARTS
 0
POLYLINE
 8
PARTS
 66
1
 10
0.0
 20
0.0
 30
0.0
 0
VERTEX
 8
PARTS
 10
  1.0900
 20
  2.6700
 30
0.0
 0
VERTEX
 8
PARTS
 10
  1.1500
 20
  2.7300
 30
0.0
 0
SEQEND
 8
PARTS
 0
POLYLINE
 8
PARTS
 66
1
 10
0.0
 20
0.0
 30
0.0
 0
VERTEX
 8
PARTS
 10
  1.1500
 20
  2.7300
 30
0.0
 0
VERTEX
 8
PARTS
 10
  1.2100
 20
  2.6700
 30
0.0
 0
SEQEND
 8
PARTS
 0
POLYLINE
 8
PARTS
 66
1
 10
0.0
 20
0.0
 30
0.0
 0
VERTEX
 8
PARTS
 10
  1.2100
 20
  2.6700
 30
0.0
 0
VERTEX
 8
PARTS
 10
  1.2700
 20
  2.7300
 30
0.0
 0
SEQEND
 8
PARTS
 0
POLYLINE
 8
PARTS
 66
1
 10
0.0
 20
0.0
 30
0.0
 0
VERTEX
 8
PARTS
 10
  1.2700
 20
  2.7300
 30
0.0
 0
VERTEX
 8
PARTS
 10
  1.3000
 20
  2.7000
 30
0.0
 0
SEQEND
 8
PARTS
 0
TEXT
 8
PARTTEXT
 10
 12.6900
 20
  3.7086
 30
0.0
 40
  0.0514
 1
B2A
 0
TEXT
 8
PARTTEXT
 10
 12.5000
 20
  2.8086
 30
0.0
 40
  0.0514
 1
74ALS74
 0
LINE
 8
PARTS
 10
 11.7000
 20
  3.5000
 30
0.0
 11
 12.0000
 21
  3.5000
 31
0.0
 0
TEXT
 8
PARTS
 10
 12.0900
 20
  3.4750
 30
0.0
 40
  0.0500
 1
D
 0
TEXT
 8
PARTS
 10
 11.9000
 20
  3.5300
 30
0.0
 40
  0.0500
 1
2
 0
LINE
 8
PARTS
 10
 11.7000
 20
  3.3000
 30
0.0
 11
 12.0000
 21
  3.3000
 31
0.0
 0
LINE
 8
PARTS
 10
 12.0000
 20
  3.3600
 30
0.0
 11
 12.0600
 21
  3.3000
 31
0.0
 0
LINE
 8
PARTS
 10
 12.0600
 20
  3.3000
 30
0.0
 11
 12.0000
 21
  3.2400
 31
0.0
 0
TEXT
 8
PARTS
 10
 12.0900
 20
  3.2750
 30
0.0
 40
  0.0500
 1
CLK
 0
TEXT
 8
PARTS
 10
 11.9000
 20
  3.3300
 30
0.0
 40
  0.0500
 1
3
 0
LINE
 8
PARTS
 10
 12.9000
 20
  3.5000
 30
0.0
 11
 12.6000
 21
  3.5000
 31
0.0
 0
TEXT
 8
PARTS
 10
 12.4700
 20
  3.4750
 30
0.0
 40
  0.0500
 1
Q
 0
TEXT
 8
PARTS
 10
 12.6600
 20
  3.5300
 30
0.0
 40
  0.0500
 1
5
 0
LINE
 8
PARTS
 10
 12.9000
 20
  3.1000
 30
0.0
 11
 12.6000
 21
  3.1000
 31
0.0
 0
TEXT
 8
PARTS
 10
 12.4700
 20
  3.0750
 30
0.0
 40
  0.0500
 1
%%oQ%%o
 0
TEXT
 8
PARTS
 10
 12.6600
 20
  3.1300
 30
0.0
 40
  0.0500
 1
6
 0
CIRCLE
 8
PARTS
 10
 12.3000
 20
  3.6300
 30
0.0
 40
  0.0300
 0
LINE
 8
PARTS
 10
 12.3000
 20
  3.9000
 30
0.0
 11
 12.3000
 21
  3.6600
 31
0.0
 0
TEXT
 8
PARTS
 10
 12.3250
 20
  3.4300
 30
0.0
 40
  0.0500
 50
 90.0000
 1
PR
 0
TEXT
 8
PARTS
 10
 12.2700
 20
  3.6600
 30
0.0
 40
  0.0500
 50
 90.0000
 1
4
 0
CIRCLE
 8
PARTS
 10
 12.3000
 20
  2.9700
 30
0.0
 40
  0.0300
 0
LINE
 8
PARTS
 10
 12.3000
 20
  2.7000
 30
0.0
 11
 12.3000
 21
  2.9400
 31
0.0
 0
TEXT
 8
PARTS
 10
 12.3250
 20
  3.0900
 30
0.0
 40
  0.0500
 50
 90.0000
 1
CL
 0
TEXT
 8
PARTS
 10
 12.2700
 20
  2.8800
 30
0.0
 40
  0.0500
 50
 90.0000
 1
1
 0
POLYLINE
 8
PARTS
 66
1
 70
1
 10
0.0
 20
0.0
 30
0.0
 0
VERTEX
 8
PARTS
 10
 12.0000
 20
  3.6000
 30
0.0
 0
VERTEX
 8
PARTS
 10
 12.6000
 20
  3.6000
 30
0.0
 0
VERTEX
 8
PARTS
 10
 12.6000
 20
  3.0000
 30
0.0
 0
VERTEX
 8
PARTS
 10
 12.0000
 20
  3.0000
 30
0.0
 0
SEQEND
 8
PARTS
 0
TEXT
 8
PARTTEXT
 10
  6.3500
 20
  9.2086
 30
0.0
 40
  0.0514
 1
C5
 0
TEXT
 8
PARTTEXT
 10
  6.3500
 20
  7.9086
 30
0.0
 40
  0.0514
 1
74HCT541
 0
LINE
 8
PARTS
 10
  6.0000
 20
  9.1000
 30
0.0
 11
  6.3000
 21
  9.1000
 31
0.0
 0
TEXT
 8
PARTS
 10
  6.3900
 20
  9.0750
 30
0.0
 40
  0.0500
 1
A1
 0
TEXT
 8
PARTS
 10
  6.2000
 20
  9.1300
 30
0.0
 40
  0.0500
 1
2
 0
LINE
 8
PARTS
 10
  6.0000
 20
  9.0000
 30
0.0
 11
  6.3000
 21
  9.0000
 31
0.0
 0
TEXT
 8
PARTS
 10
  6.3900
 20
  8.9750
 30
0.0
 40
  0.0500
 1
A2
 0
TEXT
 8
PARTS
 10
  6.2000
 20
  9.0300
 30
0.0
 40
  0.0500
 1
3
 0
LINE
 8
PARTS
 10
  6.0000
 20
  8.9000
 30
0.0
 11
  6.3000
 21
  8.9000
 31
0.0
 0
TEXT
 8
PARTS
 10
  6.3900
 20
  8.8750
 30
0.0
 40
  0.0500
 1
A3
 0
TEXT
 8
PARTS
 10
  6.2000
 20
  8.9300
 30
0.0
 40
  0.0500
 1
4
 0
LINE
 8
PARTS
 10
  6.0000
 20
  8.8000
 30
0.0
 11
  6.3000
 21
  8.8000
 31
0.0
 0
TEXT
 8
PARTS
 10
  6.3900
 20
  8.7750
 30
0.0
 40
  0.0500
 1
A4
 0
TEXT
 8
PARTS
 10
  6.2000
 20
  8.8300
 30
0.0
 40
  0.0500
 1
5
 0
LINE
 8
PARTS
 10
  6.0000
 20
  8.7000
 30
0.0
 11
  6.3000
 21
  8.7000
 31
0.0
 0
TEXT
 8
PARTS
 10
  6.3900
 20
  8.6750
 30
0.0
 40
  0.0500
 1
A5
 0
TEXT
 8
PARTS
 10
  6.2000
 20
  8.7300
 30
0.0
 40
  0.0500
 1
6
 0
LINE
 8
PARTS
 10
  6.0000
 20
  8.6000
 30
0.0
 11
  6.3000
 21
  8.6000
 31
0.0
 0
TEXT
 8
PARTS
 10
  6.3900
 20
  8.5750
 30
0.0
 40
  0.0500
 1
A6
 0
TEXT
 8
PARTS
 10
  6.2000
 20
  8.6300
 30
0.0
 40
  0.0500
 1
7
 0
LINE
 8
PARTS
 10
  6.0000
 20
  8.5000
 30
0.0
 11
  6.3000
 21
  8.5000
 31
0.0
 0
TEXT
 8
PARTS
 10
  6.3900
 20
  8.4750
 30
0.0
 40
  0.0500
 1
A7
 0
TEXT
 8
PARTS
 10
  6.2000
 20
  8.5300
 30
0.0
 40
  0.0500
 1
8
 0
LINE
 8
PARTS
 10
  6.0000
 20
  8.4000
 30
0.0
 11
  6.3000
 21
  8.4000
 31
0.0
 0
TEXT
 8
PARTS
 10
  6.3900
 20
  8.3750
 30
0.0
 40
  0.0500
 1
A8
 0
TEXT
 8
PARTS
 10
  6.2000
 20
  8.4300
 30
0.0
 40
  0.0500
 1
9
 0
CIRCLE
 8
PARTS
 10
  6.2700
 20
  8.2000
 30
0.0
 40
  0.0300
 0
LINE
 8
PARTS
 10
  6.0000
 20
  8.2000
 30
0.0
 11
  6.2400
 21
  8.2000
 31
0.0
 0
TEXT
 8
PARTS
 10
  6.3900
 20
  8.1750
 30
0.0
 40
  0.0500
 1
G1
 0
TEXT
 8
PARTS
 10
  6.2000
 20
  8.2300
 30
0.0
 40
  0.0500
 1
1
 0
CIRCLE
 8
PARTS
 10
  6.2700
 20
  8.1000
 30
0.0
 40
  0.0300
 0
LINE
 8
PARTS
 10
  6.0000
 20
  8.1000
 30
0.0
 11
  6.2400
 21
  8.1000
 31
0.0
 0
TEXT
 8
PARTS
 10
  6.3900
 20
  8.0750
 30
0.0
 40
  0.0500
 1
G2
 0
TEXT
 8
PARTS
 10
  6.1600
 20
  8.1300
 30
0.0
 40
  0.0500
 1
19
 0
LINE
 8
PARTS
 10
  7.2000
 20
  9.1000
 30
0.0
 11
  6.9000
 21
  9.1000
 31
0.0
 0
TEXT
 8
PARTS
 10
  6.7300
 20
  9.0750
 30
0.0
 40
  0.0500
 1
Y1
 0
TEXT
 8
PARTS
 10
  6.9600
 20
  9.1300
 30
0.0
 40
  0.0500
 1
18
 0
LINE
 8
PARTS
 10
  7.2000
 20
  9.0000
 30
0.0
 11
  6.9000
 21
  9.0000
 31
0.0
 0
TEXT
 8
PARTS
 10
  6.7300
 20
  8.9750
 30
0.0
 40
  0.0500
 1
Y2
 0
TEXT
 8
PARTS
 10
  6.9600
 20
  9.0300
 30
0.0
 40
  0.0500
 1
17
 0
LINE
 8
PARTS
 10
  7.2000
 20
  8.9000
 30
0.0
 11
  6.9000
 21
  8.9000
 31
0.0
 0
TEXT
 8
PARTS
 10
  6.7300
 20
  8.8750
 30
0.0
 40
  0.0500
 1
Y3
 0
TEXT
 8
PARTS
 10
  6.9600
 20
  8.9300
 30
0.0
 40
  0.0500
 1
16
 0
LINE
 8
PARTS
 10
  7.2000
 20
  8.8000
 30
0.0
 11
  6.9000
 21
  8.8000
 31
0.0
 0
TEXT
 8
PARTS
 10
  6.7300
 20
  8.7750
 30
0.0
 40
  0.0500
 1
Y4
 0
TEXT
 8
PARTS
 10
  6.9600
 20
  8.8300
 30
0.0
 40
  0.0500
 1
15
 0
LINE
 8
PARTS
 10
  7.2000
 20
  8.7000
 30
0.0
 11
  6.9000
 21
  8.7000
 31
0.0
 0
TEXT
 8
PARTS
 10
  6.7300
 20
  8.6750
 30
0.0
 40
  0.0500
 1
Y5
 0
TEXT
 8
PARTS
 10
  6.9600
 20
  8.7300
 30
0.0
 40
  0.0500
 1
14
 0
LINE
 8
PARTS
 10
  7.2000
 20
  8.6000
 30
0.0
 11
  6.9000
 21
  8.6000
 31
0.0
 0
TEXT
 8
PARTS
 10
  6.7300
 20
  8.5750
 30
0.0
 40
  0.0500
 1
Y6
 0
TEXT
 8
PARTS
 10
  6.9600
 20
  8.6300
 30
0.0
 40
  0.0500
 1
13
 0
LINE
 8
PARTS
 10
  7.2000
 20
  8.5000
 30
0.0
 11
  6.9000
 21
  8.5000
 31
0.0
 0
TEXT
 8
PARTS
 10
  6.7300
 20
  8.4750
 30
0.0
 40
  0.0500
 1
Y7
 0
TEXT
 8
PARTS
 10
  6.9600
 20
  8.5300
 30
0.0
 40
  0.0500
 1
12
 0
LINE
 8
PARTS
 10
  7.2000
 20
  8.4000
 30
0.0
 11
  6.9000
 21
  8.4000
 31
0.0
 0
TEXT
 8
PARTS
 10
  6.7300
 20
  8.3750
 30
0.0
 40
  0.0500
 1
Y8
 0
TEXT
 8
PARTS
 10
  6.9600
 20
  8.4300
 30
0.0
 40
  0.0500
 1
11
 0
POLYLINE
 8
PARTS
 66
1
 70
1
 10
0.0
 20
0.0
 30
0.0
 0
VERTEX
 8
PARTS
 10
  6.3000
 20
  9.2000
 30
0.0
 0
VERTEX
 8
PARTS
 10
  6.9000
 20
  9.2000
 30
0.0
 0
VERTEX
 8
PARTS
 10
  6.9000
 20
  8.0000
 30
0.0
 0
VERTEX
 8
PARTS
 10
  6.3000
 20
  8.0000
 30
0.0
 0
SEQEND
 8
PARTS
 0
LINE
 8
PARTS
 10
  0.9000
 20
  6.6000
 30
0.0
 11
  1.0000
 21
  6.6000
 31
0.0
 0
TEXT
 8
PARTS
 10
  0.9400
 20
  6.6300
 30
0.0
 40
  0.0500
 1

 0
LINE
 8
PARTS
 10
  1.4000
 20
  6.6000
 30
0.0
 11
  1.3000
 21
  6.6000
 31
0.0
 0
TEXT
 8
PARTS
 10
  1.3600
 20
  6.6300
 30
0.0
 40
  0.0500
 1

 0
POLYLINE
 8
PARTS
 66
1
 10
0.0
 20
0.0
 30
0.0
 0
VERTEX
 8
PARTS
 10
  1.0000
 20
  6.6000
 30
0.0
 0
VERTEX
 8
PARTS
 10
  1.0300
 20
  6.6300
 30
0.0
 0
SEQEND
 8
PARTS
 0
POLYLINE
 8
PARTS
 66
1
 10
0.0
 20
0.0
 30
0.0
 0
VERTEX
 8
PARTS
 10
  1.0300
 20
  6.6300
 30
0.0
 0
VERTEX
 8
PARTS
 10
  1.0900
 20
  6.5700
 30
0.0
 0
SEQEND
 8
PARTS
 0
POLYLINE
 8
PARTS
 66
1
 10
0.0
 20
0.0
 30
0.0
 0
VERTEX
 8
PARTS
 10
  1.0900
 20
  6.5700
 30
0.0
 0
VERTEX
 8
PARTS
 10
  1.1500
 20
  6.6300
 30
0.0
 0
SEQEND
 8
PARTS
 0
POLYLINE
 8
PARTS
 66
1
 10
0.0
 20
0.0
 30
0.0
 0
VERTEX
 8
PARTS
 10
  1.1500
 20
  6.6300
 30
0.0
 0
VERTEX
 8
PARTS
 10
  1.2100
 20
  6.5700
 30
0.0
 0
SEQEND
 8
PARTS
 0
POLYLINE
 8
PARTS
 66
1
 10
0.0
 20
0.0
 30
0.0
 0
VERTEX
 8
PARTS
 10
  1.2100
 20
  6.5700
 30
0.0
 0
VERTEX
 8
PARTS
 10
  1.2700
 20
  6.6300
 30
0.0
 0
SEQEND
 8
PARTS
 0
POLYLINE
 8
PARTS
 66
1
 10
0.0
 20
0.0
 30
0.0
 0
VERTEX
 8
PARTS
 10
  1.2700
 20
  6.6300
 30
0.0
 0
VERTEX
 8
PARTS
 10
  1.3000
 20
  6.6000
 30
0.0
 0
SEQEND
 8
PARTS
 0
TEXT
 8
PARTTEXT
 10
  9.4500
 20
  7.8086
 30
0.0
 40
  0.0514
 1
U5
 0
TEXT
 8
PARTTEXT
 10
  9.4500
 20
  6.5086
 30
0.0
 40
  0.0514
 1
74HCT541
 0
LINE
 8
PARTS
 10
  9.1000
 20
  7.7000
 30
0.0
 11
  9.4000
 21
  7.7000
 31
0.0
 0
TEXT
 8
PARTS
 10
  9.4900
 20
  7.6750
 30
0.0
 40
  0.0500
 1
A1
 0
TEXT
 8
PARTS
 10
  9.3000
 20
  7.7300
 30
0.0
 40
  0.0500
 1
2
 0
LINE
 8
PARTS
 10
  9.1000
 20
  7.6000
 30
0.0
 11
  9.4000
 21
  7.6000
 31
0.0
 0
TEXT
 8
PARTS
 10
  9.4900
 20
  7.5750
 30
0.0
 40
  0.0500
 1
A2
 0
TEXT
 8
PARTS
 10
  9.3000
 20
  7.6300
 30
0.0
 40
  0.0500
 1
3
 0
LINE
 8
PARTS
 10
  9.1000
 20
  7.5000
 30
0.0
 11
  9.4000
 21
  7.5000
 31
0.0
 0
TEXT
 8
PARTS
 10
  9.4900
 20
  7.4750
 30
0.0
 40
  0.0500
 1
A3
 0
TEXT
 8
PARTS
 10
  9.3000
 20
  7.5300
 30
0.0
 40
  0.0500
 1
4
 0
LINE
 8
PARTS
 10
  9.1000
 20
  7.4000
 30
0.0
 11
  9.4000
 21
  7.4000
 31
0.0
 0
TEXT
 8
PARTS
 10
  9.4900
 20
  7.3750
 30
0.0
 40
  0.0500
 1
A4
 0
TEXT
 8
PARTS
 10
  9.3000
 20
  7.4300
 30
0.0
 40
  0.0500
 1
5
 0
LINE
 8
PARTS
 10
  9.1000
 20
  7.3000
 30
0.0
 11
  9.4000
 21
  7.3000
 31
0.0
 0
TEXT
 8
PARTS
 10
  9.4900
 20
  7.2750
 30
0.0
 40
  0.0500
 1
A5
 0
TEXT
 8
PARTS
 10
  9.3000
 20
  7.3300
 30
0.0
 40
  0.0500
 1
6
 0
LINE
 8
PARTS
 10
  9.1000
 20
  7.2000
 30
0.0
 11
  9.4000
 21
  7.2000
 31
0.0
 0
TEXT
 8
PARTS
 10
  9.4900
 20
  7.1750
 30
0.0
 40
  0.0500
 1
A6
 0
TEXT
 8
PARTS
 10
  9.3000
 20
  7.2300
 30
0.0
 40
  0.0500
 1
7
 0
LINE
 8
PARTS
 10
  9.1000
 20
  7.1000
 30
0.0
 11
  9.4000
 21
  7.1000
 31
0.0
 0
TEXT
 8
PARTS
 10
  9.4900
 20
  7.0750
 30
0.0
 40
  0.0500
 1
A7
 0
TEXT
 8
PARTS
 10
  9.3000
 20
  7.1300
 30
0.0
 40
  0.0500
 1
8
 0
LINE
 8
PARTS
 10
  9.1000
 20
  7.0000
 30
0.0
 11
  9.4000
 21
  7.0000
 31
0.0
 0
TEXT
 8
PARTS
 10
  9.4900
 20
  6.9750
 30
0.0
 40
  0.0500
 1
A8
 0
TEXT
 8
PARTS
 10
  9.3000
 20
  7.0300
 30
0.0
 40
  0.0500
 1
9
 0
CIRCLE
 8
PARTS
 10
  9.3700
 20
  6.8000
 30
0.0
 40
  0.0300
 0
LINE
 8
PARTS
 10
  9.1000
 20
  6.8000
 30
0.0
 11
  9.3400
 21
  6.8000
 31
0.0
 0
TEXT
 8
PARTS
 10
  9.4900
 20
  6.7750
 30
0.0
 40
  0.0500
 1
G1
 0
TEXT
 8
PARTS
 10
  9.3000
 20
  6.8300
 30
0.0
 40
  0.0500
 1
1
 0
CIRCLE
 8
PARTS
 10
  9.3700
 20
  6.7000
 30
0.0
 40
  0.0300
 0
LINE
 8
PARTS
 10
  9.1000
 20
  6.7000
 30
0.0
 11
  9.3400
 21
  6.7000
 31
0.0
 0
TEXT
 8
PARTS
 10
  9.4900
 20
  6.6750
 30
0.0
 40
  0.0500
 1
G2
 0
TEXT
 8
PARTS
 10
  9.2600
 20
  6.7300
 30
0.0
 40
  0.0500
 1
19
 0
LINE
 8
PARTS
 10
 10.3000
 20
  7.7000
 30
0.0
 11
 10.0000
 21
  7.7000
 31
0.0
 0
TEXT
 8
PARTS
 10
  9.8300
 20
  7.6750
 30
0.0
 40
  0.0500
 1
Y1
 0
TEXT
 8
PARTS
 10
 10.0600
 20
  7.7300
 30
0.0
 40
  0.0500
 1
18
 0
LINE
 8
PARTS
 10
 10.3000
 20
  7.6000
 30
0.0
 11
 10.0000
 21
  7.6000
 31
0.0
 0
TEXT
 8
PARTS
 10
  9.8300
 20
  7.5750
 30
0.0
 40
  0.0500
 1
Y2
 0
TEXT
 8
PARTS
 10
 10.0600
 20
  7.6300
 30
0.0
 40
  0.0500
 1
17
 0
LINE
 8
PARTS
 10
 10.3000
 20
  7.5000
 30
0.0
 11
 10.0000
 21
  7.5000
 31
0.0
 0
TEXT
 8
PARTS
 10
  9.8300
 20
  7.4750
 30
0.0
 40
  0.0500
 1
Y3
 0
TEXT
 8
PARTS
 10
 10.0600
 20
  7.5300
 30
0.0
 40
  0.0500
 1
16
 0
LINE
 8
PARTS
 10
 10.3000
 20
  7.4000
 30
0.0
 11
 10.0000
 21
  7.4000
 31
0.0
 0
TEXT
 8
PARTS
 10
  9.8300
 20
  7.3750
 30
0.0
 40
  0.0500
 1
Y4
 0
TEXT
 8
PARTS
 10
 10.0600
 20
  7.4300
 30
0.0
 40
  0.0500
 1
15
 0
LINE
 8
PARTS
 10
 10.3000
 20
  7.3000
 30
0.0
 11
 10.0000
 21
  7.3000
 31
0.0
 0
TEXT
 8
PARTS
 10
  9.8300
 20
  7.2750
 30
0.0
 40
  0.0500
 1
Y5
 0
TEXT
 8
PARTS
 10
 10.0600
 20
  7.3300
 30
0.0
 40
  0.0500
 1
14
 0
LINE
 8
PARTS
 10
 10.3000
 20
  7.2000
 30
0.0
 11
 10.0000
 21
  7.2000
 31
0.0
 0
TEXT
 8
PARTS
 10
  9.8300
 20
  7.1750
 30
0.0
 40
  0.0500
 1
Y6
 0
TEXT
 8
PARTS
 10
 10.0600
 20
  7.2300
 30
0.0
 40
  0.0500
 1
13
 0
LINE
 8
PARTS
 10
 10.3000
 20
  7.1000
 30
0.0
 11
 10.0000
 21
  7.1000
 31
0.0
 0
TEXT
 8
PARTS
 10
  9.8300
 20
  7.0750
 30
0.0
 40
  0.0500
 1
Y7
 0
TEXT
 8
PARTS
 10
 10.0600
 20
  7.1300
 30
0.0
 40
  0.0500
 1
12
 0
LINE
 8
PARTS
 10
 10.3000
 20
  7.0000
 30
0.0
 11
 10.0000
 21
  7.0000
 31
0.0
 0
TEXT
 8
PARTS
 10
  9.8300
 20
  6.9750
 30
0.0
 40
  0.0500
 1
Y8
 0
TEXT
 8
PARTS
 10
 10.0600
 20
  7.0300
 30
0.0
 40
  0.0500
 1
11
 0
POLYLINE
 8
PARTS
 66
1
 70
1
 10
0.0
 20
0.0
 30
0.0
 0
VERTEX
 8
PARTS
 10
  9.4000
 20
  7.8000
 30
0.0
 0
VERTEX
 8
PARTS
 10
 10.0000
 20
  7.8000
 30
0.0
 0
VERTEX
 8
PARTS
 10
 10.0000
 20
  6.6000
 30
0.0
 0
VERTEX
 8
PARTS
 10
  9.4000
 20
  6.6000
 30
0.0
 0
SEQEND
 8
PARTS
 0
TEXT
 8
PARTTEXT
 10
  1.0400
 20
  9.3186
 30
0.0
 40
  0.0514
 1
U1
 0
TEXT
 8
PARTTEXT
 10
  1.0100
 20
  9.2086
 30
0.0
 40
  0.0514
 1
120
 0
LINE
 8
PARTS
 10
  0.9000
 20
  9.0000
 30
0.0
 11
  1.0000
 21
  9.0000
 31
0.0
 0
TEXT
 8
PARTS
 10
  0.9400
 20
  9.0300
 30
0.0
 40
  0.0500
 1

 0
LINE
 8
PARTS
 10
  1.4000
 20
  9.0000
 30
0.0
 11
  1.3000
 21
  9.0000
 31
0.0
 0
TEXT
 8
PARTS
 10
  1.3600
 20
  9.0300
 30
0.0
 40
  0.0500
 1

 0
POLYLINE
 8
PARTS
 66
1
 10
0.0
 20
0.0
 30
0.0
 0
VERTEX
 8
PARTS
 10
  1.0000
 20
  9.0000
 30
0.0
 0
VERTEX
 8
PARTS
 10
  1.0300
 20
  9.0300
 30
0.0
 0
SEQEND
 8
PARTS
 0
POLYLINE
 8
PARTS
 66
1
 10
0.0
 20
0.0
 30
0.0
 0
VERTEX
 8
PARTS
 10
  1.0300
 20
  9.0300
 30
0.0
 0
VERTEX
 8
PARTS
 10
  1.0900
 20
  8.9700
 30
0.0
 0
SEQEND
 8
PARTS
 0
POLYLINE
 8
PARTS
 66
1
 10
0.0
 20
0.0
 30
0.0
 0
VERTEX
 8
PARTS
 10
  1.0900
 20
  8.9700
 30
0.0
 0
VERTEX
 8
PARTS
 10
  1.1500
 20
  9.0300
 30
0.0
 0
SEQEND
 8
PARTS
 0
POLYLINE
 8
PARTS
 66
1
 10
0.0
 20
0.0
 30
0.0
 0
VERTEX
 8
PARTS
 10
  1.1500
 20
  9.0300
 30
0.0
 0
VERTEX
 8
PARTS
 10
  1.2100
 20
  8.9700
 30
0.0
 0
SEQEND
 8
PARTS
 0
POLYLINE
 8
PARTS
 66
1
 10
0.0
 20
0.0
 30
0.0
 0
VERTEX
 8
PARTS
 10
  1.2100
 20
  8.9700
 30
0.0
 0
VERTEX
 8
PARTS
 10
  1.2700
 20
  9.0300
 30
0.0
 0
SEQEND
 8
PARTS
 0
POLYLINE
 8
PARTS
 66
1
 10
0.0
 20
0.0
 30
0.0
 0
VERTEX
 8
PARTS
 10
  1.2700
 20
  9.0300
 30
0.0
 0
VERTEX
 8
PARTS
 10
  1.3000
 20
  9.0000
 30
0.0
 0
SEQEND
 8
PARTS
 0
TEXT
 8
PARTTEXT
 10
 10.0500
 20
  2.9086
 30
0.0
 40
  0.0514
 1
U4F
 0
TEXT
 8
PARTTEXT
 10
 10.0500
 20
  2.4086
 30
0.0
 40
  0.0514
 1
74ALS1034
 0
LINE
 8
PARTS
 10
  9.7000
 20
  2.7000
 30
0.0
 11
 10.0000
 21
  2.7000
 31
0.0
 0
TEXT
 8
PARTS
 10
  9.8600
 20
  2.7300
 30
0.0
 40
  0.0500
 1
13
 0
LINE
 8
PARTS
 10
 10.7000
 20
  2.7000
 30
0.0
 11
 10.4000
 21
  2.7000
 31
0.0
 0
TEXT
 8
PARTS
 10
 10.4600
 20
  2.7300
 30
0.0
 40
  0.0500
 1
12
 0
POLYLINE
 8
PARTS
 66
1
 10
0.0
 20
0.0
 30
0.0
 0
VERTEX
 8
PARTS
 10
 10.0000
 20
  2.9000
 30
0.0
 0
VERTEX
 8
PARTS
 10
 10.4000
 20
  2.7000
 30
0.0
 0
SEQEND
 8
PARTS
 0
POLYLINE
 8
PARTS
 66
1
 10
0.0
 20
0.0
 30
0.0
 0
VERTEX
 8
PARTS
 10
 10.4000
 20
  2.7000
 30
0.0
 0
VERTEX
 8
PARTS
 10
 10.0000
 20
  2.5000
 30
0.0
 0
SEQEND
 8
PARTS
 0
POLYLINE
 8
PARTS
 66
1
 10
0.0
 20
0.0
 30
0.0
 0
VERTEX
 8
PARTS
 10
 10.0000
 20
  2.5000
 30
0.0
 0
VERTEX
 8
PARTS
 10
 10.0000
 20
  2.9000
 30
0.0
 0
SEQEND
 8
PARTS
 0
LINE
 8
PARTS
 10
  0.9000
 20
  8.4000
 30
0.0
 11
  1.0000
 21
  8.4000
 31
0.0
 0
TEXT
 8
PARTS
 10
  0.9400
 20
  8.4300
 30
0.0
 40
  0.0500
 1

 0
LINE
 8
PARTS
 10
  1.4000
 20
  8.4000
 30
0.0
 11
  1.3000
 21
  8.4000
 31
0.0
 0
TEXT
 8
PARTS
 10
  1.3600
 20
  8.4300
 30
0.0
 40
  0.0500
 1

 0
POLYLINE
 8
PARTS
 66
1
 10
0.0
 20
0.0
 30
0.0
 0
VERTEX
 8
PARTS
 10
  1.0000
 20
  8.4000
 30
0.0
 0
VERTEX
 8
PARTS
 10
  1.0300
 20
  8.4300
 30
0.0
 0
SEQEND
 8
PARTS
 0
POLYLINE
 8
PARTS
 66
1
 10
0.0
 20
0.0
 30
0.0
 0
VERTEX
 8
PARTS
 10
  1.0300
 20
  8.4300
 30
0.0
 0
VERTEX
 8
PARTS
 10
  1.0900
 20
  8.3700
 30
0.0
 0
SEQEND
 8
PARTS
 0
POLYLINE
 8
PARTS
 66
1
 10
0.0
 20
0.0
 30
0.0
 0
VERTEX
 8
PARTS
 10
  1.0900
 20
  8.3700
 30
0.0
 0
VERTEX
 8
PARTS
 10
  1.1500
 20
  8.4300
 30
0.0
 0
SEQEND
 8
PARTS
 0
POLYLINE
 8
PARTS
 66
1
 10
0.0
 20
0.0
 30
0.0
 0
VERTEX
 8
PARTS
 10
  1.1500
 20
  8.4300
 30
0.0
 0
VERTEX
 8
PARTS
 10
  1.2100
 20
  8.3700
 30
0.0
 0
SEQEND
 8
PARTS
 0
POLYLINE
 8
PARTS
 66
1
 10
0.0
 20
0.0
 30
0.0
 0
VERTEX
 8
PARTS
 10
  1.2100
 20
  8.3700
 30
0.0
 0
VERTEX
 8
PARTS
 10
  1.2700
 20
  8.4300
 30
0.0
 0
SEQEND
 8
PARTS
 0
POLYLINE
 8
PARTS
 66
1
 10
0.0
 20
0.0
 30
0.0
 0
VERTEX
 8
PARTS
 10
  1.2700
 20
  8.4300
 30
0.0
 0
VERTEX
 8
PARTS
 10
  1.3000
 20
  8.4000
 30
0.0
 0
SEQEND
 8
PARTS
 0
TEXT
 8
PARTTEXT
 10
  1.0400
 20
  7.5186
 30
0.0
 40
  0.0514
 1
R1C
 0
TEXT
 8
PARTTEXT
 10
  1.0100
 20
  7.4086
 30
0.0
 40
  0.0514
 1
120
 0
LINE
 8
PARTS
 10
  0.9000
 20
  7.2000
 30
0.0
 11
  1.0000
 21
  7.2000
 31
0.0
 0
TEXT
 8
PARTS
 10
  0.9400
 20
  7.2300
 30
0.0
 40
  0.0500
 1

 0
LINE
 8
PARTS
 10
  1.4000
 20
  7.2000
 30
0.0
 11
  1.3000
 21
  7.2000
 31
0.0
 0
TEXT
 8
PARTS
 10
  1.3600
 20
  7.2300
 30
0.0
 40
  0.0500
 1

 0
POLYLINE
 8
PARTS
 66
1
 10
0.0
 20
0.0
 30
0.0
 0
VERTEX
 8
PARTS
 10
  1.0000
 20
  7.2000
 30
0.0
 0
VERTEX
 8
PARTS
 10
  1.0300
 20
  7.2300
 30
0.0
 0
SEQEND
 8
PARTS
 0
POLYLINE
 8
PARTS
 66
1
 10
0.0
 20
0.0
 30
0.0
 0
VERTEX
 8
PARTS
 10
  1.0300
 20
  7.2300
 30
0.0
 0
VERTEX
 8
PARTS
 10
  1.0900
 20
  7.1700
 30
0.0
 0
SEQEND
 8
PARTS
 0
POLYLINE
 8
PARTS
 66
1
 10
0.0
 20
0.0
 30
0.0
 0
VERTEX
 8
PARTS
 10
  1.0900
 20
  7.1700
 30
0.0
 0
VERTEX
 8
PARTS
 10
  1.1500
 20
  7.2300
 30
0.0
 0
SEQEND
 8
PARTS
 0
POLYLINE
 8
PARTS
 66
1
 10
0.0
 20
0.0
 30
0.0
 0
VERTEX
 8
PARTS
 10
  1.1500
 20
  7.2300
 30
0.0
 0
VERTEX
 8
PARTS
 10
  1.2100
 20
  7.1700
 30
0.0
 0
SEQEND
 8
PARTS
 0
POLYLINE
 8
PARTS
 66
1
 10
0.0
 20
0.0
 30
0.0
 0
VERTEX
 8
PARTS
 10
  1.2100
 20
  7.1700
 30
0.0
 0
VERTEX
 8
PARTS
 10
  1.2700
 20
  7.2300
 30
0.0
 0
SEQEND
 8
PARTS
 0
POLYLINE
 8
PARTS
 66
1
 10
0.0
 20
0.0
 30
0.0
 0
VERTEX
 8
PARTS
 10
  1.2700
 20
  7.2300
 30
0.0
 0
VERTEX
 8
PARTS
 10
  1.3000
 20
  7.2000
 30
0.0
 0
SEQEND
 8
PARTS
 0
TEXT
 8
PARTTEXT
 10
  9.4500
 20
  5.7086
 30
0.0
 40
  0.0514
 1
C4
 0
TEXT
 8
PARTTEXT
 10
  9.4500
 20
  5.2086
 30
0.0
 40
  0.0514
 1
DS1013M-20
 0
LINE
 8
PARTS
 10
  9.1000
 20
  5.6000
 30
0.0
 11
  9.4000
 21
  5.6000
 31
0.0
 0
TEXT
 8
PARTS
 10
  9.4900
 20
  5.5750
 30
0.0
 40
  0.0500
 1
I1
 0
TEXT
 8
PARTS
 10
  9.3000
 20
  5.6300
 30
0.0
 40
  0.0500
 1
1
 0
LINE
 8
PARTS
 10
  9.1000
 20
  5.5000
 30
0.0
 11
  9.4000
 21
  5.5000
 31
0.0
 0
TEXT
 8
PARTS
 10
  9.4900
 20
  5.4750
 30
0.0
 40
  0.0500
 1
I2
 0
TEXT
 8
PARTS
 10
  9.3000
 20
  5.5300
 30
0.0
 40
  0.0500
 1
2
 0
LINE
 8
PARTS
 10
  9.1000
 20
  5.4000
 30
0.0
 11
  9.4000
 21
  5.4000
 31
0.0
 0
TEXT
 8
PARTS
 10
  9.4900
 20
  5.3750
 30
0.0
 40
  0.0500
 1
I3
 0
TEXT
 8
PARTS
 10
  9.3000
 20
  5.4300
 30
0.0
 40
  0.0500
 1
3
 0
LINE
 8
PARTS
 10
 10.3000
 20
  5.4000
 30
0.0
 11
 10.0000
 21
  5.4000
 31
0.0
 0
TEXT
 8
PARTS
 10
  9.8300
 20
  5.3750
 30
0.0
 40
  0.0500
 1
O3
 0
TEXT
 8
PARTS
 10
 10.0600
 20
  5.4300
 30
0.0
 40
  0.0500
 1
5
 0
LINE
 8
PARTS
 10
 10.3000
 20
  5.5000
 30
0.0
 11
 10.0000
 21
  5.5000
 31
0.0
 0
TEXT
 8
PARTS
 10
  9.8300
 20
  5.4750
 30
0.0
 40
  0.0500
 1
O2
 0
TEXT
 8
PARTS
 10
 10.0600
 20
  5.5300
 30
0.0
 40
  0.0500
 1
6
 0
LINE
 8
PARTS
 10
 10.3000
 20
  5.6000
 30
0.0
 11
 10.0000
 21
  5.6000
 31
0.0
 0
TEXT
 8
PARTS
 10
  9.8300
 20
  5.5750
 30
0.0
 40
  0.0500
 1
O1
 0
TEXT
 8
PARTS
 10
 10.0600
 20
  5.6300
 30
0.0
 40
  0.0500
 1
7
 0
POLYLINE
 8
PARTS
 66
1
 70
1
 10
0.0
 20
0.0
 30
0.0
 0
VERTEX
 8
PARTS
 10
  9.4000
 20
  5.7000
 30
0.0
 0
VERTEX
 8
PARTS
 10
 10.0000
 20
  5.7000
 30
0.0
 0
VERTEX
 8
PARTS
 10
 10.0000
 20
  5.3000
 30
0.0
 0
VERTEX
 8
PARTS
 10
  9.4000
 20
  5.3000
 30
0.0
 0
SEQEND
 8
PARTS
 0
TEXT
 8
PARTTEXT
 10
  1.8500
 20
  7.4086
 30
0.0
 40
  0.0514
 1
S1
 0
TEXT
 8
PARTTEXT
 10
  1.8500
 20
  5.8086
 30
0.0
 40
  0.0514
 1
SN75ALS193
 0
LINE
 8
PARTS
 10
  1.5000
 20
  7.3000
 30
0.0
 11
  1.8000
 21
  7.3000
 31
0.0
 0
TEXT
 8
PARTS
 10
  1.8900
 20
  7.2750
 30
0.0
 40
  0.0500
 1
1A
 0
TEXT
 8
PARTS
 10
  1.7000
 20
  7.3300
 30
0.0
 40
  0.0500
 1
2
 0
CIRCLE
 8
PARTS
 10
  1.7700
 20
  7.2000
 30
0.0
 40
  0.0300
 0
LINE
 8
PARTS
 10
  1.5000
 20
  7.2000
 30
0.0
 11
  1.7400
 21
  7.2000
 31
0.0
 0
TEXT
 8
PARTS
 10
  1.8900
 20
  7.1750
 30
0.0
 40
  0.0500
 1
1B
 0
TEXT
 8
PARTS
 10
  1.7000
 20
  7.2300
 30
0.0
 40
  0.0500
 1
1
 0
LINE
 8
PARTS
 10
  1.5000
 20
  7.0000
 30
0.0
 11
  1.8000
 21
  7.0000
 31
0.0
 0
TEXT
 8
PARTS
 10
  1.8900
 20
  6.9750
 30
0.0
 40
  0.0500
 1
2A
 0
TEXT
 8
PARTS
 10
  1.7000
 20
  7.0300
 30
0.0
 40
  0.0500
 1
6
 0
CIRCLE
 8
PARTS
 10
  1.7700
 20
  6.9000
 30
0.0
 40
  0.0300
 0
LINE
 8
PARTS
 10
  1.5000
 20
  6.9000
 30
0.0
 11
  1.7400
 21
  6.9000
 31
0.0
 0
TEXT
 8
PARTS
 10
  1.8900
 20
  6.8750
 30
0.0
 40
  0.0500
 1
2B
 0
TEXT
 8
PARTS
 10
  1.7000
 20
  6.9300
 30
0.0
 40
  0.0500
 1
7
 0
LINE
 8
PARTS
 10
  1.5000
 20
  6.7000
 30
0.0
 11
  1.8000
 21
  6.7000
 31
0.0
 0
TEXT
 8
PARTS
 10
  1.8900
 20
  6.6750
 30
0.0
 40
  0.0500
 1
3A
 0
TEXT
 8
PARTS
 10
  1.6600
 20
  6.7300
 30
0.0
 40
  0.0500
 1
10
 0
CIRCLE
 8
PARTS
 10
  1.7700
 20
  6.6000
 30
0.0
 40
  0.0300
 0
LINE
 8
PARTS
 10
  1.5000
 20
  6.6000
 30
0.0
 11
  1.7400
 21
  6.6000
 31
0.0
 0
TEXT
 8
PARTS
 10
  1.8900
 20
  6.5750
 30
0.0
 40
  0.0500
 1
3B
 0
TEXT
 8
PARTS
 10
  1.7000
 20
  6.6300
 30
0.0
 40
  0.0500
 1
9
 0
LINE
 8
PARTS
 10
  1.5000
 20
  6.4000
 30
0.0
 11
  1.8000
 21
  6.4000
 31
0.0
 0
TEXT
 8
PARTS
 10
  1.8900
 20
  6.3750
 30
0.0
 40
  0.0500
 1
4A
 0
TEXT
 8
PARTS
 10
  1.6600
 20
  6.4300
 30
0.0
 40
  0.0500
 1
14
 0
CIRCLE
 8
PARTS
 10
  1.7700
 20
  6.3000
 30
0.0
 40
  0.0300
 0
LINE
 8
PARTS
 10
  1.5000
 20
  6.3000
 30
0.0
 11
  1.7400
 21
  6.3000
 31
0.0
 0
TEXT
 8
PARTS
 10
  1.8900
 20
  6.2750
 30
0.0
 40
  0.0500
 1
4B
 0
TEXT
 8
PARTS
 10
  1.6600
 20
  6.3300
 30
0.0
 40
  0.0500
 1
15
 0
LINE
 8
PARTS
 10
  1.5000
 20
  6.1000
 30
0.0
 11
  1.8000
 21
  6.1000
 31
0.0
 0
TEXT
 8
PARTS
 10
  1.8900
 20
  6.0750
 30
0.0
 40
  0.0500
 1
%%oG%%o
 0
TEXT
 8
PARTS
 10
  1.6600
 20
  6.1300
 30
0.0
 40
  0.0500
 1
12
 0
LINE
 8
PARTS
 10
  1.5000
 20
  6.0000
 30
0.0
 11
  1.8000
 21
  6.0000
 31
0.0
 0
TEXT
 8
PARTS
 10
  1.8900
 20
  5.9750
 30
0.0
 40
  0.0500
 1
G
 0
TEXT
 8
PARTS
 10
  1.7000
 20
  6.0300
 30
0.0
 40
  0.0500
 1
4
 0
LINE
 8
PARTS
 10
  2.7000
 20
  7.3000
 30
0.0
 11
  2.4000
 21
  7.3000
 31
0.0
 0
TEXT
 8
PARTS
 10
  2.2300
 20
  7.2750
 30
0.0
 40
  0.0500
 1
1Y
 0
TEXT
 8
PARTS
 10
  2.4600
 20
  7.3300
 30
0.0
 40
  0.0500
 1
3
 0
LINE
 8
PARTS
 10
  2.7000
 20
  7.0000
 30
0.0
 11
  2.4000
 21
  7.0000
 31
0.0
 0
TEXT
 8
PARTS
 10
  2.2300
 20
  6.9750
 30
0.0
 40
  0.0500
 1
2Y
 0
TEXT
 8
PARTS
 10
  2.4600
 20
  7.0300
 30
0.0
 40
  0.0500
 1
5
 0
LINE
 8
PARTS
 10
  2.7000
 20
  6.7000
 30
0.0
 11
  2.4000
 21
  6.7000
 31
0.0
 0
TEXT
 8
PARTS
 10
  2.2300
 20
  6.6750
 30
0.0
 40
  0.0500
 1
3Y
 0
TEXT
 8
PARTS
 10
  2.4600
 20
  6.7300
 30
0.0
 40
  0.0500
 1
11
 0
LINE
 8
PARTS
 10
  2.7000
 20
  6.4000
 30
0.0
 11
  2.4000
 21
  6.4000
 31
0.0
 0
TEXT
 8
PARTS
 10
  2.2300
 20
  6.3750
 30
0.0
 40
  0.0500
 1
4Y
 0
TEXT
 8
PARTS
 10
  2.4600
 20
  6.4300
 30
0.0
 40
  0.0500
 1
13
 0
POLYLINE
 8
PARTS
 66
1
 70
1
 10
0.0
 20
0.0
 30
0.0
 0
VERTEX
 8
PARTS
 10
  1.8000
 20
  7.4000
 30
0.0
 0
VERTEX
 8
PARTS
 10
  2.4000
 20
  7.4000
 30
0.0
 0
VERTEX
 8
PARTS
 10
  2.4000
 20
  5.9000
 30
0.0
 0
VERTEX
 8
PARTS
 10
  1.8000
 20
  5.9000
 30
0.0
 0
SEQEND
 8
PARTS
 0
TEXT
 8
PARTTEXT
 10
  8.3900
 20
  3.9186
 30
0.0
 40
  0.0514
 1
T4
 0
TEXT
 8
PARTTEXT
 10
  8.3900
 20
  3.8286
 30
0.0
 40
  0.0514
 1
16-HEADER
 0
LINE
 8
PARTS
 10
  7.5000
 20
  3.4000
 30
0.0
 11
  7.5000
 21
  3.7000
 31
0.0
 0
TEXT
 8
PARTS
 10
  7.5250
 20
  3.7900
 30
0.0
 40
  0.0500
 50
 90.0000
 1
1
 0
TEXT
 8
PARTS
 10
  7.4700
 20
  3.5800
 30
0.0
 40
  0.0500
 50
 90.0000
 1
1
 0
LINE
 8
PARTS
 10
  7.6000
 20
  3.4000
 30
0.0
 11
  7.6000
 21
  3.7000
 31
0.0
 0
TEXT
 8
PARTS
 10
  7.6250
 20
  3.7900
 30
0.0
 40
  0.0500
 50
 90.0000
 1
2
 0
TEXT
 8
PARTS
 10
  7.5700
 20
  3.5800
 30
0.0
 40
  0.0500
 50
 90.0000
 1
2
 0
LINE
 8
PARTS
 10
  7.7000
 20
  3.4000
 30
0.0
 11
  7.7000
 21
  3.7000
 31
0.0
 0
TEXT
 8
PARTS
 10
  7.7250
 20
  3.7900
 30
0.0
 40
  0.0500
 50
 90.0000
 1
3
 0
TEXT
 8
PARTS
 10
  7.6700
 20
  3.5800
 30
0.0
 40
  0.0500
 50
 90.0000
 1
3
 0
LINE
 8
PARTS
 10
  7.8000
 20
  3.4000
 30
0.0
 11
  7.8000
 21
  3.7000
 31
0.0
 0
TEXT
 8
PARTS
 10
  7.8250
 20
  3.7900
 30
0.0
 40
  0.0500
 50
 90.0000
 1
4
 0
TEXT
 8
PARTS
 10
  7.7700
 20
  3.5800
 30
0.0
 40
  0.0500
 50
 90.0000
 1
4
 0
LINE
 8
PARTS
 10
  7.9000
 20
  3.4000
 30
0.0
 11
  7.9000
 21
  3.7000
 31
0.0
 0
TEXT
 8
PARTS
 10
  7.9250
 20
  3.7900
 30
0.0
 40
  0.0500
 50
 90.0000
 1
5
 0
TEXT
 8
PARTS
 10
  7.8700
 20
  3.5800
 30
0.0
 40
  0.0500
 50
 90.0000
 1
5
 0
LINE
 8
PARTS
 10
  8.0000
 20
  3.4000
 30
0.0
 11
  8.0000
 21
  3.7000
 31
0.0
 0
TEXT
 8
PARTS
 10
  8.0250
 20
  3.7900
 30
0.0
 40
  0.0500
 50
 90.0000
 1
6
 0
TEXT
 8
PARTS
 10
  7.9700
 20
  3.5800
 30
0.0
 40
  0.0500
 50
 90.0000
 1
6
 0
LINE
 8
PARTS
 10
  8.1000
 20
  3.4000
 30
0.0
 11
  8.1000
 21
  3.7000
 31
0.0
 0
TEXT
 8
PARTS
 10
  8.1250
 20
  3.7900
 30
0.0
 40
  0.0500
 50
 90.0000
 1
7
 0
TEXT
 8
PARTS
 10
  8.0700
 20
  3.5800
 30
0.0
 40
  0.0500
 50
 90.0000
 1
7
 0
LINE
 8
PARTS
 10
  7.5000
 20
  4.3000
 30
0.0
 11
  7.5000
 21
  4.0000
 31
0.0
 0
TEXT
 8
PARTS
 10
  7.5250
 20
  3.8300
 30
0.0
 40
  0.0500
 50
 90.0000
 1
16
 0
TEXT
 8
PARTS
 10
  7.4700
 20
  4.0600
 30
0.0
 40
  0.0500
 50
 90.0000
 1
16
 0
LINE
 8
PARTS
 10
  7.6000
 20
  4.3000
 30
0.0
 11
  7.6000
 21
  4.0000
 31
0.0
 0
TEXT
 8
PARTS
 10
  7.6250
 20
  3.8300
 30
0.0
 40
  0.0500
 50
 90.0000
 1
15
 0
TEXT
 8
PARTS
 10
  7.5700
 20
  4.0600
 30
0.0
 40
  0.0500
 50
 90.0000
 1
15
 0
LINE
 8
PARTS
 10
  7.7000
 20
  4.3000
 30
0.0
 11
  7.7000
 21
  4.0000
 31
0.0
 0
TEXT
 8
PARTS
 10
  7.7250
 20
  3.8300
 30
0.0
 40
  0.0500
 50
 90.0000
 1
14
 0
TEXT
 8
PARTS
 10
  7.6700
 20
  4.0600
 30
0.0
 40
  0.0500
 50
 90.0000
 1
14
 0
LINE
 8
PARTS
 10
  7.8000
 20
  4.3000
 30
0.0
 11
  7.8000
 21
  4.0000
 31
0.0
 0
TEXT
 8
PARTS
 10
  7.8250
 20
  3.8300
 30
0.0
 40
  0.0500
 50
 90.0000
 1
13
 0
TEXT
 8
PARTS
 10
  7.7700
 20
  4.0600
 30
0.0
 40
  0.0500
 50
 90.0000
 1
13
 0
LINE
 8
PARTS
 10
  7.9000
 20
  4.3000
 30
0.0
 11
  7.9000
 21
  4.0000
 31
0.0
 0
TEXT
 8
PARTS
 10
  7.9250
 20
  3.8300
 30
0.0
 40
  0.0500
 50
 90.0000
 1
12
 0
TEXT
 8
PARTS
 10
  7.8700
 20
  4.0600
 30
0.0
 40
  0.0500
 50
 90.0000
 1
12
 0
LINE
 8
PARTS
 10
  8.0000
 20
  4.3000
 30
0.0
 11
  8.0000
 21
  4.0000
 31
0.0
 0
TEXT
 8
PARTS
 10
  8.0250
 20
  3.8300
 30
0.0
 40
  0.0500
 50
 90.0000
 1
11
 0
TEXT
 8
PARTS
 10
  7.9700
 20
  4.0600
 30
0.0
 40
  0.0500
 50
 90.0000
 1
11
 0
LINE
 8
PARTS
 10
  8.1000
 20
  4.3000
 30
0.0
 11
  8.1000
 21
  4.0000
 31
0.0
 0
TEXT
 8
PARTS
 10
  8.1250
 20
  3.8300
 30
0.0
 40
  0.0500
 50
 90.0000
 1
10
 0
TEXT
 8
PARTS
 10
  8.0700
 20
  4.0600
 30
0.0
 40
  0.0500
 50
 90.0000
 1
10
 0
LINE
 8
PARTS
 10
  8.2000
 20
  4.3000
 30
0.0
 11
  8.2000
 21
  4.0000
 31
0.0
 0
TEXT
 8
PARTS
 10
  8.2250
 20
  3.8700
 30
0.0
 40
  0.0500
 50
 90.0000
 1
9
 0
TEXT
 8
PARTS
 10
  8.1700
 20
  4.0600
 30
0.0
 40
  0.0500
 50
 90.0000
 1
9
 0
LINE
 8
PARTS
 10
  8.2000
 20
  3.4000
 30
0.0
 11
  8.2000
 21
  3.7000
 31
0.0
 0
TEXT
 8
PARTS
 10
  8.2250
 20
  3.7900
 30
0.0
 40
  0.0500
 50
 90.0000
 1
8
 0
TEXT
 8
PARTS
 10
  8.1700
 20
  3.5800
 30
0.0
 40
  0.0500
 50
 90.0000
 1
8
 0
POLYLINE
 8
PARTS
 66
1
 70
1
 10
0.0
 20
0.0
 30
0.0
 0
VERTEX
 8
PARTS
 10
  7.4000
 20
  3.7000
 30
0.0
 0
VERTEX
 8
PARTS
 10
  7.4000
 20
  4.0000
 30
0.0
 0
VERTEX
 8
PARTS
 10
  8.3000
 20
  4.0000
 30
0.0
 0
VERTEX
 8
PARTS
 10
  8.3000
 20
  3.7000
 30
0.0
 0
SEQEND
 8
PARTS
 0
POLYLINE
 8
WIRE
 66
1
 10
0.0
 20
0.0
 30
0.0
 0
VERTEX
 8
WIRE
 10
  8.7000
 20
  9.2000
 30
0.0
 0
VERTEX
 8
WIRE
 10
  9.1000
 20
  9.2000
 30
0.0
 0
SEQEND
 8
WIRE
 0
TEXT
 8
WIRETEXT
 10
  8.8000
 20
  9.2300
 30
0.0
 40
  0.0514
 1
D0
 0
POLYLINE
 8
WIRE
 66
1
 10
0.0
 20
0.0
 30
0.0
 0
VERTEX
 8
WIRE
 10
 14.2000
 20
  9.2000
 30
0.0
 0
VERTEX
 8
WIRE
 10
 14.7000
 20
  9.2000
 30
0.0
 0
SEQEND
 8
WIRE
 0
TEXT
 8
WIRETEXT
 10
 14.3000
 20
  9.2300
 30
0.0
 40
  0.0514
 1
IO35
 0
POLYLINE
 8
WIRE
 66
1
 10
0.0
 20
0.0
 30
0.0
 0
VERTEX
 8
WIRE
 10
  0.3000
 20
  9.1000
 30
0.0
 0
VERTEX
 8
WIRE
 10
  0.9000
 20
  9.1000
 30
0.0
 0
SEQEND
 8
WIRE
 0
POLYLINE
 8
WIRE
 66
1
 70
1
 10
0.0
 20
0.0
 30
0.0
 40
  0.0200
 41
  0.0200
 0
VERTEX
 8
WIRE
 10
  0.8900
 20
  9.1000
 30
0.0
 42
1.0
 0
VERTEX
 8
WIRE
 10
  0.9100
 20
  9.1000
 30
0.0
 42
1.0
 0
SEQEND
 8
WIRE
 0
TEXT
 8
WIRETEXT
 10
  0.4000
 20
  9.1300
 30
0.0
 40
  0.0514
 1
IO1
 0
POLYLINE
 8
WIRE
 66
1
 10
0.0
 20
0.0
 30
0.0
 0
VERTEX
 8
WIRE
 10
  2.7000
 20
  9.1000
 30
0.0
 0
VERTEX
 8
WIRE
 10
  3.1000
 20
  9.1000
 30
0.0
 0
SEQEND
 8
WIRE
 0
TEXT
 8
WIRETEXT
 10
  2.8000
 20
  9.1300
 30
0.0
 40
  0.0514
 1
D0
 0
POLYLINE
 8
WIRE
 66
1
 10
0.0
 20
0.0
 30
0.0
 0
VERTEX
 8
WIRE
 10
  5.6000
 20
  9.1000
 30
0.0
 0
VERTEX
 8
WIRE
 10
  6.0000
 20
  9.1000
 30
0.0
 0
SEQEND
 8
WIRE
 0
TEXT
 8
WIRETEXT
 10
  5.7000
 20
  9.1300
 30
0.0
 40
  0.0514
 1
D0
 0
POLYLINE
 8
WIRE
 66
1
 10
0.0
 20
0.0
 30
0.0
 0
VERTEX
 8
WIRE
 10
  8.7000
 20
  9.1000
 30
0.0
 0
VERTEX
 8
WIRE
 10
  9.1000
 20
  9.1000
 30
0.0
 0
SEQEND
 8
WIRE
 0
TEXT
 8
WIRETEXT
 10
  8.8000
 20
  9.1300
 30
0.0
 40
  0.0514
 1
D1
 0
POLYLINE
 8
WIRE
 66
1
 10
0.0
 20
0.0
 30
0.0
 0
VERTEX
 8
WIRE
 10
 14.2000
 20
  9.1000
 30
0.0
 0
VERTEX
 8
WIRE
 10
 14.7000
 20
  9.1000
 30
0.0
 0
SEQEND
 8
WIRE
 0
TEXT
 8
WIRETEXT
 10
 14.3000
 20
  9.1300
 30
0.0
 40
  0.0514
 1
IO36
 0
POLYLINE
 8
WIRE
 66
1
 10
0.0
 20
0.0
 30
0.0
 0
VERTEX
 8
WIRE
 10
  0.3000
 20
  9.0000
 30
0.0
 0
VERTEX
 8
WIRE
 10
  0.8000
 20
  9.0000
 30
0.0
 0
SEQEND
 8
WIRE
 0
TEXT
 8
WIRETEXT
 10
  0.4000
 20
  9.0300
 30
0.0
 40
  0.0514
 1
IO2
 0
POLYLINE
 8
WIRE
 66
1
 10
0.0
 20
0.0
 30
0.0
 0
VERTEX
 8
WIRE
 10
  1.4000
 20
  9.0000
 30
0.0
 0
VERTEX
 8
WIRE
 10
  1.5000
 20
  9.0000
 30
0.0
 0
SEQEND
 8
WIRE
 0
POLYLINE
 8
WIRE
 66
1
 70
1
 10
0.0
 20
0.0
 30
0.0
 40
  0.0200
 41
  0.0200
 0
VERTEX
 8
WIRE
 10
  1.3900
 20
  9.0000
 30
0.0
 42
1.0
 0
VERTEX
 8
WIRE
 10
  1.4100
 20
  9.0000
 30
0.0
 42
1.0
 0
SEQEND
 8
WIRE
 0
POLYLINE
 8
WIRE
 66
1
 10
0.0
 20
0.0
 30
0.0
 0
VERTEX
 8
WIRE
 10
  5.6000
 20
  9.0000
 30
0.0
 0
VERTEX
 8
WIRE
 10
  6.0000
 20
  9.0000
 30
0.0
 0
SEQEND
 8
WIRE
 0
TEXT
 8
WIRETEXT
 10
  5.7000
 20
  9.0300
 30
0.0
 40
  0.0514
 1
D1
 0
POLYLINE
 8
WIRE
 66
1
 10
0.0
 20
0.0
 30
0.0
 0
VERTEX
 8
WIRE
 10
  8.7000
 20
  9.0000
 30
0.0
 0
VERTEX
 8
WIRE
 10
  9.1000
 20
  9.0000
 30
0.0
 0
SEQEND
 8
WIRE
 0
TEXT
 8
WIRETEXT
 10
  8.8000
 20
  9.0300
 30
0.0
 40
  0.0514
 1
D2
 0
POLYLINE
 8
WIRE
 66
1
 10
0.0
 20
0.0
 30
0.0
 0
VERTEX
 8
WIRE
 10
  0.8000
 20
  8.9000
 30
0.0
 0
VERTEX
 8
WIRE
 10
  1.4000
 20
  8.9000
 30
0.0
 0
SEQEND
 8
WIRE
 0
POLYLINE
 8
WIRE
 66
1
 10
0.0
 20
0.0
 30
0.0
 0
VERTEX
 8
WIRE
 10
  5.6000
 20
  8.9000
 30
0.0
 0
VERTEX
 8
WIRE
 10
  6.0000
 20
  8.9000
 30
0.0
 0
SEQEND
 8
WIRE
 0
TEXT
 8
WIRETEXT
 10
  5.7000
 20
  8.9300
 30
0.0
 40
  0.0514
 1
D2
 0
POLYLINE
 8
WIRE
 66
1
 10
0.0
 20
0.0
 30
0.0
 0
VERTEX
 8
WIRE
 10
  8.7000
 20
  8.9000
 30
0.0
 0
VERTEX
 8
WIRE
 10
  9.1000
 20
  8.9000
 30
0.0
 0
SEQEND
 8
WIRE
 0
TEXT
 8
WIRETEXT
 10
  8.8000
 20
  8.9300
 30
0.0
 40
  0.0514
 1
D3
 0
POLYLINE
 8
WIRE
 66
1
 10
0.0
 20
0.0
 30
0.0
 0
VERTEX
 8
WIRE
 10
 14.2000
 20
  8.9000
 30
0.0
 0
VERTEX
 8
WIRE
 10
 14.7000
 20
  8.9000
 30
0.0
 0
SEQEND
 8
WIRE
 0
TEXT
 8
WIRETEXT
 10
 14.3000
 20
  8.9300
 30
0.0
 40
  0.0514
 1
IO37
 0
POLYLINE
 8
WIRE
 66
1
 10
0.0
 20
0.0
 30
0.0
 0
VERTEX
 8
WIRE
 10
  0.3000
 20
  8.8000
 30
0.0
 0
VERTEX
 8
WIRE
 10
  0.9000
 20
  8.8000
 30
0.0
 0
SEQEND
 8
WIRE
 0
TEXT
 8
WIRETEXT
 10
  0.4000
 20
  8.8300
 30
0.0
 40
  0.0514
 1
IO3
 0
POLYLINE
 8
WIRE
 66
1
 10
0.0
 20
0.0
 30
0.0
 0
VERTEX
 8
WIRE
 10
  2.7000
 20
  8.8000
 30
0.0
 0
VERTEX
 8
WIRE
 10
  3.1000
 20
  8.8000
 30
0.0
 0
SEQEND
 8
WIRE
 0
TEXT
 8
WIRETEXT
 10
  2.8000
 20
  8.8300
 30
0.0
 40
  0.0514
 1
D1
 0
POLYLINE
 8
WIRE
 66
1
 10
0.0
 20
0.0
 30
0.0
 0
VERTEX
 8
WIRE
 10
  5.6000
 20
  8.8000
 30
0.0
 0
VERTEX
 8
WIRE
 10
  6.0000
 20
  8.8000
 30
0.0
 0
SEQEND
 8
WIRE
 0
TEXT
 8
WIRETEXT
 10
  5.7000
 20
  8.8300
 30
0.0
 40
  0.0514
 1
D3
 0
POLYLINE
 8
WIRE
 66
1
 10
0.0
 20
0.0
 30
0.0
 0
VERTEX
 8
WIRE
 10
  8.7000
 20
  8.8000
 30
0.0
 0
VERTEX
 8
WIRE
 10
  9.1000
 20
  8.8000
 30
0.0
 0
SEQEND
 8
WIRE
 0
TEXT
 8
WIRETEXT
 10
  8.8000
 20
  8.8300
 30
0.0
 40
  0.0514
 1
D4
 0
POLYLINE
 8
WIRE
 66
1
 10
0.0
 20
0.0
 30
0.0
 0
VERTEX
 8
WIRE
 10
 14.2000
 20
  8.8000
 30
0.0
 0
VERTEX
 8
WIRE
 10
 14.7000
 20
  8.8000
 30
0.0
 0
SEQEND
 8
WIRE
 0
TEXT
 8
WIRETEXT
 10
 14.3000
 20
  8.8300
 30
0.0
 40
  0.0514
 1
IO38
 0
POLYLINE
 8
WIRE
 66
1
 10
0.0
 20
0.0
 30
0.0
 0
VERTEX
 8
WIRE
 10
  0.3000
 20
  8.7000
 30
0.0
 0
VERTEX
 8
WIRE
 10
  0.8000
 20
  8.7000
 30
0.0
 0
SEQEND
 8
WIRE
 0
TEXT
 8
WIRETEXT
 10
  0.4000
 20
  8.7300
 30
0.0
 40
  0.0514
 1
IO4
 0
POLYLINE
 8
WIRE
 66
1
 10
0.0
 20
0.0
 30
0.0
 0
VERTEX
 8
WIRE
 10
  1.4000
 20
  8.7000
 30
0.0
 0
VERTEX
 8
WIRE
 10
  1.5000
 20
  8.7000
 30
0.0
 0
SEQEND
 8
WIRE
 0
POLYLINE
 8
WIRE
 66
1
 10
0.0
 20
0.0
 30
0.0
 0
VERTEX
 8
WIRE
 10
  5.6000
 20
  8.7000
 30
0.0
 0
VERTEX
 8
WIRE
 10
  6.0000
 20
  8.7000
 30
0.0
 0
SEQEND
 8
WIRE
 0
TEXT
 8
WIRETEXT
 10
  5.7000
 20
  8.7300
 30
0.0
 40
  0.0514
 1
D4
 0
POLYLINE
 8
WIRE
 66
1
 10
0.0
 20
0.0
 30
0.0
 0
VERTEX
 8
WIRE
 10
  8.7000
 20
  8.7000
 30
0.0
 0
VERTEX
 8
WIRE
 10
  9.1000
 20
  8.7000
 30
0.0
 0
SEQEND
 8
WIRE
 0
TEXT
 8
WIRETEXT
 10
  8.8000
 20
  8.7300
 30
0.0
 40
  0.0514
 1
D5
 0
POLYLINE
 8
WIRE
 66
1
 10
0.0
 20
0.0
 30
0.0
 0
VERTEX
 8
WIRE
 10
  0.8000
 20
  8.6000
 30
0.0
 0
VERTEX
 8
WIRE
 10
  1.4000
 20
  8.6000
 30
0.0
 0
SEQEND
 8
WIRE
 0
POLYLINE
 8
WIRE
 66
1
 10
0.0
 20
0.0
 30
0.0
 0
VERTEX
 8
WIRE
 10
  5.6000
 20
  8.6000
 30
0.0
 0
VERTEX
 8
WIRE
 10
  6.0000
 20
  8.6000
 30
0.0
 0
SEQEND
 8
WIRE
 0
TEXT
 8
WIRETEXT
 10
  5.7000
 20
  8.6300
 30
0.0
 40
  0.0514
 1
D5
 0
POLYLINE
 8
WIRE
 66
1
 10
0.0
 20
0.0
 30
0.0
 0
VERTEX
 8
WIRE
 10
  8.7000
 20
  8.6000
 30
0.0
 0
VERTEX
 8
WIRE
 10
  9.1000
 20
  8.6000
 30
0.0
 0
SEQEND
 8
WIRE
 0
TEXT
 8
WIRETEXT
 10
  8.8000
 20
  8.6300
 30
0.0
 40
  0.0514
 1
D6
 0
POLYLINE
 8
WIRE
 66
1
 10
0.0
 20
0.0
 30
0.0
 0
VERTEX
 8
WIRE
 10
 12.9000
 20
  8.6000
 30
0.0
 0
VERTEX
 8
WIRE
 10
 13.0000
 20
  8.6000
 30
0.0
 0
SEQEND
 8
WIRE
 0
POLYLINE
 8
WIRE
 66
1
 10
0.0
 20
0.0
 30
0.0
 0
VERTEX
 8
WIRE
 10
 14.2000
 20
  8.6000
 30
0.0
 0
VERTEX
 8
WIRE
 10
 14.7000
 20
  8.6000
 30
0.0
 0
SEQEND
 8
WIRE
 0
TEXT
 8
WIRETEXT
 10
 14.3000
 20
  8.6300
 30
0.0
 40
  0.0514
 1
IO39
 0
POLYLINE
 8
WIRE
 66
1
 10
0.0
 20
0.0
 30
0.0
 0
VERTEX
 8
WIRE
 10
  0.3000
 20
  8.5000
 30
0.0
 0
VERTEX
 8
WIRE
 10
  0.9000
 20
  8.5000
 30
0.0
 0
SEQEND
 8
WIRE
 0
TEXT
 8
WIRETEXT
 10
  0.4000
 20
  8.5300
 30
0.0
 40
  0.0514
 1
IO5
 0
POLYLINE
 8
WIRE
 66
1
 10
0.0
 20
0.0
 30
0.0
 0
VERTEX
 8
WIRE
 10
  2.7000
 20
  8.5000
 30
0.0
 0
VERTEX
 8
WIRE
 10
  3.1000
 20
  8.5000
 30
0.0
 0
SEQEND
 8
WIRE
 0
TEXT
 8
WIRETEXT
 10
  2.8000
 20
  8.5300
 30
0.0
 40
  0.0514
 1
D2
 0
POLYLINE
 8
WIRE
 66
1
 10
0.0
 20
0.0
 30
0.0
 0
VERTEX
 8
WIRE
 10
  5.6000
 20
  8.5000
 30
0.0
 0
VERTEX
 8
WIRE
 10
  6.0000
 20
  8.5000
 30
0.0
 0
SEQEND
 8
WIRE
 0
TEXT
 8
WIRETEXT
 10
  5.7000
 20
  8.5300
 30
0.0
 40
  0.0514
 1
D6
 0
POLYLINE
 8
WIRE
 66
1
 10
0.0
 20
0.0
 30
0.0
 0
VERTEX
 8
WIRE
 10
  8.7000
 20
  8.5000
 30
0.0
 0
VERTEX
 8
WIRE
 10
  9.1000
 20
  8.5000
 30
0.0
 0
SEQEND
 8
WIRE
 0
TEXT
 8
WIRETEXT
 10
  8.8000
 20
  8.5300
 30
0.0
 40
  0.0514
 1
D7
 0
POLYLINE
 8
WIRE
 66
1
 10
0.0
 20
0.0
 30
0.0
 0
VERTEX
 8
WIRE
 10
 14.2000
 20
  8.5000
 30
0.0
 0
VERTEX
 8
WIRE
 10
 14.7000
 20
  8.5000
 30
0.0
 0
SEQEND
 8
WIRE
 0
TEXT
 8
WIRETEXT
 10
 14.3000
 20
  8.5300
 30
0.0
 40
  0.0514
 1
IO40
 0
POLYLINE
 8
WIRE
 66
1
 10
0.0
 20
0.0
 30
0.0
 0
VERTEX
 8
WIRE
 10
  0.3000
 20
  8.4000
 30
0.0
 0
VERTEX
 8
WIRE
 10
  0.8000
 20
  8.4000
 30
0.0
 0
SEQEND
 8
WIRE
 0
TEXT
 8
WIRETEXT
 10
  0.4000
 20
  8.4300
 30
0.0
 40
  0.0514
 1
IO6
 0
POLYLINE
 8
WIRE
 66
1
 10
0.0
 20
0.0
 30
0.0
 0
VERTEX
 8
WIRE
 10
  1.4000
 20
  8.4000
 30
0.0
 0
VERTEX
 8
WIRE
 10
  1.5000
 20
  8.4000
 30
0.0
 0
SEQEND
 8
WIRE
 0
POLYLINE
 8
WIRE
 66
1
 70
1
 10
0.0
 20
0.0
 30
0.0
 40
  0.0200
 41
  0.0200
 0
VERTEX
 8
WIRE
 10
  1.3900
 20
  8.4000
 30
0.0
 42
1.0
 0
VERTEX
 8
WIRE
 10
  1.4100
 20
  8.4000
 30
0.0
 42
1.0
 0
SEQEND
 8
WIRE
 0
POLYLINE
 8
WIRE
 66
1
 10
0.0
 20
0.0
 30
0.0
 0
VERTEX
 8
WIRE
 10
  5.6000
 20
  8.4000
 30
0.0
 0
VERTEX
 8
WIRE
 10
  6.0000
 20
  8.4000
 30
0.0
 0
SEQEND
 8
WIRE
 0
TEXT
 8
WIRETEXT
 10
  5.7000
 20
  8.4300
 30
0.0
 40
  0.0514
 1
D7
 0
POLYLINE
 8
WIRE
 66
1
 10
0.0
 20
0.0
 30
0.0
 0
VERTEX
 8
WIRE
 10
  0.8000
 20
  8.3000
 30
0.0
 0
VERTEX
 8
WIRE
 10
  1.4000
 20
  8.3000
 30
0.0
 0
SEQEND
 8
WIRE
 0
POLYLINE
 8
WIRE
 66
1
 10
0.0
 20
0.0
 30
0.0
 0
VERTEX
 8
WIRE
 10
 14.2000
 20
  8.3000
 30
0.0
 0
VERTEX
 8
WIRE
 10
 14.7000
 20
  8.3000
 30
0.0
 0
SEQEND
 8
WIRE
 0
TEXT
 8
WIRETEXT
 10
 14.3000
 20
  8.3300
 30
0.0
 40
  0.0514
 1
IO41
 0
POLYLINE
 8
WIRE
 66
1
 10
0.0
 20
0.0
 30
0.0
 0
VERTEX
 8
WIRE
 10
  0.3000
 20
  8.2000
 30
0.0
 0
VERTEX
 8
WIRE
 10
  0.9000
 20
  8.2000
 30
0.0
 0
SEQEND
 8
WIRE
 0
TEXT
 8
WIRETEXT
 10
  0.4000
 20
  8.2300
 30
0.0
 40
  0.0514
 1
IO7
 0
POLYLINE
 8
WIRE
 66
1
 10
0.0
 20
0.0
 30
0.0
 0
VERTEX
 8
WIRE
 10
  2.7000
 20
  8.2000
 30
0.0
 0
VERTEX
 8
WIRE
 10
  3.1000
 20
  8.2000
 30
0.0
 0
SEQEND
 8
WIRE
 0
TEXT
 8
WIRETEXT
 10
  2.8000
 20
  8.2300
 30
0.0
 40
  0.0514
 1
D3
 0
POLYLINE
 8
WIRE
 66
1
 10
0.0
 20
0.0
 30
0.0
 0
VERTEX
 8
WIRE
 10
 14.2000
 20
  8.2000
 30
0.0
 0
VERTEX
 8
WIRE
 10
 14.7000
 20
  8.2000
 30
0.0
 0
SEQEND
 8
WIRE
 0
TEXT
 8
WIRETEXT
 10
 14.3000
 20
  8.2300
 30
0.0
 40
  0.0514
 1
IO42
 0
POLYLINE
 8
WIRE
 66
1
 10
0.0
 20
0.0
 30
0.0
 0
VERTEX
 8
WIRE
 10
  0.3000
 20
  8.1000
 30
0.0
 0
VERTEX
 8
WIRE
 10
  0.8000
 20
  8.1000
 30
0.0
 0
SEQEND
 8
WIRE
 0
TEXT
 8
WIRETEXT
 10
  0.4000
 20
  8.1300
 30
0.0
 40
  0.0514
 1
IO8
 0
POLYLINE
 8
WIRE
 66
1
 10
0.0
 20
0.0
 30
0.0
 0
VERTEX
 8
WIRE
 10
  1.4000
 20
  8.1000
 30
0.0
 0
VERTEX
 8
WIRE
 10
  1.5000
 20
  8.1000
 30
0.0
 0
SEQEND
 8
WIRE
 0
POLYLINE
 8
WIRE
 66
1
 70
1
 10
0.0
 20
0.0
 30
0.0
 40
  0.0200
 41
  0.0200
 0
VERTEX
 8
WIRE
 10
  1.3900
 20
  8.1000
 30
0.0
 42
1.0
 0
VERTEX
 8
WIRE
 10
  1.4100
 20
  8.1000
 30
0.0
 42
1.0
 0
SEQEND
 8
WIRE
 0
POLYLINE
 8
WIRE
 66
1
 10
0.0
 20
0.0
 30
0.0
 0
VERTEX
 8
WIRE
 10
  0.8000
 20
  8.0000
 30
0.0
 0
VERTEX
 8
WIRE
 10
  1.4000
 20
  8.0000
 30
0.0
 0
SEQEND
 8
WIRE
 0
POLYLINE
 8
WIRE
 66
1
 10
0.0
 20
0.0
 30
0.0
 0
VERTEX
 8
WIRE
 10
  5.6000
 20
  7.7000
 30
0.0
 0
VERTEX
 8
WIRE
 10
  6.0000
 20
  7.7000
 30
0.0
 0
SEQEND
 8
WIRE
 0
TEXT
 8
WIRETEXT
 10
  5.7000
 20
  7.7300
 30
0.0
 40
  0.0514
 1
D8
 0
POLYLINE
 8
WIRE
 66
1
 10
0.0
 20
0.0
 30
0.0
 0
VERTEX
 8
WIRE
 10
  8.7000
 20
  7.7000
 30
0.0
 0
VERTEX
 8
WIRE
 10
  9.1000
 20
  7.7000
 30
0.0
 0
SEQEND
 8
WIRE
 0
TEXT
 8
WIRETEXT
 10
  8.8000
 20
  7.7300
 30
0.0
 40
  0.0514
 1
D8
 0
POLYLINE
 8
WIRE
 66
1
 10
0.0
 20
0.0
 30
0.0
 0
VERTEX
 8
WIRE
 10
  5.6000
 20
  7.6000
 30
0.0
 0
VERTEX
 8
WIRE
 10
  6.0000
 20
  7.6000
 30
0.0
 0
SEQEND
 8
WIRE
 0
TEXT
 8
WIRETEXT
 10
  5.7000
 20
  7.6300
 30
0.0
 40
  0.0514
 1
D9
 0
POLYLINE
 8
WIRE
 66
1
 10
0.0
 20
0.0
 30
0.0
 0
VERTEX
 8
WIRE
 10
  8.7000
 20
  7.6000
 30
0.0
 0
VERTEX
 8
WIRE
 10
  9.1000
 20
  7.6000
 30
0.0
 0
SEQEND
 8
WIRE
 0
TEXT
 8
WIRETEXT
 10
  8.8000
 20
  7.6300
 30
0.0
 40
  0.0514
 1
D9
 0
POLYLINE
 8
WIRE
 66
1
 10
0.0
 20
0.0
 30
0.0
 0
VERTEX
 8
WIRE
 10
  5.6000
 20
  7.5000
 30
0.0
 0
VERTEX
 8
WIRE
 10
  6.0000
 20
  7.5000
 30
0.0
 0
SEQEND
 8
WIRE
 0
TEXT
 8
WIRETEXT
 10
  5.7000
 20
  7.5300
 30
0.0
 40
  0.0514
 1
D10
 0
POLYLINE
 8
WIRE
 66
1
 10
0.0
 20
0.0
 30
0.0
 0
VERTEX
 8
WIRE
 10
  8.7000
 20
  7.5000
 30
0.0
 0
VERTEX
 8
WIRE
 10
  9.1000
 20
  7.5000
 30
0.0
 0
SEQEND
 8
WIRE
 0
TEXT
 8
WIRETEXT
 10
  8.8000
 20
  7.5300
 30
0.0
 40
  0.0514
 1
D10
 0
POLYLINE
 8
WIRE
 66
1
 10
0.0
 20
0.0
 30
0.0
 0
VERTEX
 8
WIRE
 10
 14.2000
 20
  7.5000
 30
0.0
 0
VERTEX
 8
WIRE
 10
 14.7000
 20
  7.5000
 30
0.0
 0
SEQEND
 8
WIRE
 0
TEXT
 8
WIRETEXT
 10
 14.3000
 20
  7.5300
 30
0.0
 40
  0.0514
 1
IO43
 0
POLYLINE
 8
WIRE
 66
1
 10
0.0
 20
0.0
 30
0.0
 0
VERTEX
 8
WIRE
 10
 14.2000
 20
  7.4000
 30
0.0
 0
VERTEX
 8
WIRE
 10
 14.7000
 20
  7.4000
 30
0.0
 0
SEQEND
 8
WIRE
 0
TEXT
 8
WIRETEXT
 10
 14.3000
 20
  7.4300
 30
0.0
 40
  0.0514
 1
IO44
 0
POLYLINE
 8
WIRE
 66
1
 10
0.0
 20
0.0
 30
0.0
 0
VERTEX
 8
WIRE
 10
  0.3000
 20
  7.3000
 30
0.0
 0
VERTEX
 8
WIRE
 10
  0.9000
 20
  7.3000
 30
0.0
 0
SEQEND
 8
WIRE
 0
TEXT
 8
WIRETEXT
 10
  0.4000
 20
  7.3300
 30
0.0
 40
  0.0514
 1
IO9
 0
POLYLINE
 8
WIRE
 66
1
 10
0.0
 20
0.0
 30
0.0
 0
VERTEX
 8
WIRE
 10
  2.7000
 20
  7.3000
 30
0.0
 0
VERTEX
 8
WIRE
 10
  3.1000
 20
  7.3000
 30
0.0
 0
SEQEND
 8
WIRE
 0
TEXT
 8
WIRETEXT
 10
  2.8000
 20
  7.3300
 30
0.0
 40
  0.0514
 1
D4
 0
POLYLINE
 8
WIRE
 66
1
 10
0.0
 20
0.0
 30
0.0
 0
VERTEX
 8
WIRE
 10
  5.8000
 20
  7.3000
 30
0.0
 0
VERTEX
 8
WIRE
 10
  6.0000
 20
  7.3000
 30
0.0
 0
SEQEND
 8
WIRE
 0
POLYLINE
 8
WIRE
 66
1
 10
0.0
 20
0.0
 30
0.0
 0
VERTEX
 8
WIRE
 10
  8.1000
 20
  7.3000
 30
0.0
 0
VERTEX
 8
WIRE
 10
  9.1000
 20
  7.3000
 30
0.0
 0
SEQEND
 8
WIRE
 0
POLYLINE
 8
WIRE
 66
1
 10
0.0
 20
0.0
 30
0.0
 0
VERTEX
 8
WIRE
 10
  0.3000
 20
  7.2000
 30
0.0
 0
VERTEX
 8
WIRE
 10
  0.8000
 20
  7.2000
 30
0.0
 0
SEQEND
 8
WIRE
 0
TEXT
 8
WIRETEXT
 10
  0.4000
 20
  7.2300
 30
0.0
 40
  0.0514
 1
IO10
 0
POLYLINE
 8
WIRE
 66
1
 10
0.0
 20
0.0
 30
0.0
 0
VERTEX
 8
WIRE
 10
  1.4000
 20
  7.2000
 30
0.0
 0
VERTEX
 8
WIRE
 10
  1.5000
 20
  7.2000
 30
0.0
 0
SEQEND
 8
WIRE
 0
POLYLINE
 8
WIRE
 66
1
 10
0.0
 20
0.0
 30
0.0
 0
VERTEX
 8
WIRE
 10
  4.6000
 20
  7.2000
 30
0.0
 0
VERTEX
 8
WIRE
 10
  6.0000
 20
  7.2000
 30
0.0
 0
SEQEND
 8
WIRE
 0
POLYLINE
 8
WIRE
 66
1
 10
0.0
 20
0.0
 30
0.0
 0
VERTEX
 8
WIRE
 10
  8.2000
 20
  7.2000
 30
0.0
 0
VERTEX
 8
WIRE
 10
  9.1000
 20
  7.2000
 30
0.0
 0
SEQEND
 8
WIRE
 0
POLYLINE
 8
WIRE
 66
1
 10
0.0
 20
0.0
 30
0.0
 0
VERTEX
 8
WIRE
 10
 14.2000
 20
  7.2000
 30
0.0
 0
VERTEX
 8
WIRE
 10
 14.7000
 20
  7.2000
 30
0.0
 0
SEQEND
 8
WIRE
 0
TEXT
 8
WIRETEXT
 10
 14.3000
 20
  7.2300
 30
0.0
 40
  0.0514
 1
IO45
 0
POLYLINE
 8
WIRE
 66
1
 10
0.0
 20
0.0
 30
0.0
 0
VERTEX
 8
WIRE
 10
  0.8000
 20
  7.1000
 30
0.0
 0
VERTEX
 8
WIRE
 10
  1.4000
 20
  7.1000
 30
0.0
 0
SEQEND
 8
WIRE
 0
POLYLINE
 8
WIRE
 66
1
 10
0.0
 20
0.0
 30
0.0
 0
VERTEX
 8
WIRE
 10
 14.2000
 20
  7.1000
 30
0.0
 0
VERTEX
 8
WIRE
 10
 14.7000
 20
  7.1000
 30
0.0
 0
SEQEND
 8
WIRE
 0
TEXT
 8
WIRETEXT
 10
 14.3000
 20
  7.1300
 30
0.0
 40
  0.0514
 1
IO46
 0
POLYLINE
 8
WIRE
 66
1
 10
0.0
 20
0.0
 30
0.0
 0
VERTEX
 8
WIRE
 10
  0.3000
 20
  7.0000
 30
0.0
 0
VERTEX
 8
WIRE
 10
  0.9000
 20
  7.0000
 30
0.0
 0
SEQEND
 8
WIRE
 0
TEXT
 8
WIRETEXT
 10
  0.4000
 20
  7.0300
 30
0.0
 40
  0.0514
 1
IO11
 0
POLYLINE
 8
WIRE
 66
1
 10
0.0
 20
0.0
 30
0.0
 0
VERTEX
 8
WIRE
 10
  2.7000
 20
  7.0000
 30
0.0
 0
VERTEX
 8
WIRE
 10
  3.1000
 20
  7.0000
 30
0.0
 0
SEQEND
 8
WIRE
 0
TEXT
 8
WIRETEXT
 10
  2.8000
 20
  7.0300
 30
0.0
 40
  0.0514
 1
D5
 0
POLYLINE
 8
WIRE
 66
1
 10
0.0
 20
0.0
 30
0.0
 0
VERTEX
 8
WIRE
 10
  0.3000
 20
  6.9000
 30
0.0
 0
VERTEX
 8
WIRE
 10
  0.8000
 20
  6.9000
 30
0.0
 0
SEQEND
 8
WIRE
 0
TEXT
 8
WIRETEXT
 10
  0.4000
 20
  6.9300
 30
0.0
 40
  0.0514
 1
IO12
 0
POLYLINE
 8
WIRE
 66
1
 10
0.0
 20
0.0
 30
0.0
 0
VERTEX
 8
WIRE
 10
  1.4000
 20
  6.9000
 30
0.0
 0
VERTEX
 8
WIRE
 10
  1.5000
 20
  6.9000
 30
0.0
 0
SEQEND
 8
WIRE
 0
POLYLINE
 8
WIRE
 66
1
 10
0.0
 20
0.0
 30
0.0
 0
VERTEX
 8
WIRE
 10
 11.8000
 20
  6.9000
 30
0.0
 0
VERTEX
 8
WIRE
 10
 13.0000
 20
  6.9000
 30
0.0
 0
SEQEND
 8
WIRE
 0
POLYLINE
 8
WIRE
 66
1
 10
0.0
 20
0.0
 30
0.0
 0
VERTEX
 8
WIRE
 10
 14.2000
 20
  6.9000
 30
0.0
 0
VERTEX
 8
WIRE
 10
 14.7000
 20
  6.9000
 30
0.0
 0
SEQEND
 8
WIRE
 0
TEXT
 8
WIRETEXT
 10
 14.3000
 20
  6.9300
 30
0.0
 40
  0.0514
 1
IO47
 0
POLYLINE
 8
WIRE
 66
1
 10
0.0
 20
0.0
 30
0.0
 0
VERTEX
 8
WIRE
 10
  0.8000
 20
  6.8000
 30
0.0
 0
VERTEX
 8
WIRE
 10
  1.4000
 20
  6.8000
 30
0.0
 0
SEQEND
 8
WIRE
 0
POLYLINE
 8
WIRE
 66
1
 10
0.0
 20
0.0
 30
0.0
 0
VERTEX
 8
WIRE
 10
 14.2000
 20
  6.8000
 30
0.0
 0
VERTEX
 8
WIRE
 10
 14.7000
 20
  6.8000
 30
0.0
 0
SEQEND
 8
WIRE
 0
TEXT
 8
WIRETEXT
 10
 14.3000
 20
  6.8300
 30
0.0
 40
  0.0514
 1
IO48
 0
POLYLINE
 8
WIRE
 66
1
 10
0.0
 20
0.0
 30
0.0
 0
VERTEX
 8
WIRE
 10
  0.3000
 20
  6.7000
 30
0.0
 0
VERTEX
 8
WIRE
 10
  0.9000
 20
  6.7000
 30
0.0
 0
SEQEND
 8
WIRE
 0
POLYLINE
 8
WIRE
 66
1
 70
1
 10
0.0
 20
0.0
 30
0.0
 40
  0.0200
 41
  0.0200
 0
VERTEX
 8
WIRE
 10
  0.8900
 20
  6.7000
 30
0.0
 42
1.0
 0
VERTEX
 8
WIRE
 10
  0.9100
 20
  6.7000
 30
0.0
 42
1.0
 0
SEQEND
 8
WIRE
 0
TEXT
 8
WIRETEXT
 10
  0.4000
 20
  6.7300
 30
0.0
 40
  0.0514
 1
IO13
 0
POLYLINE
 8
WIRE
 66
1
 10
0.0
 20
0.0
 30
0.0
 0
VERTEX
 8
WIRE
 10
  2.7000
 20
  6.7000
 30
0.0
 0
VERTEX
 8
WIRE
 10
  3.1000
 20
  6.7000
 30
0.0
 0
SEQEND
 8
WIRE
 0
TEXT
 8
WIRETEXT
 10
  2.8000
 20
  6.7300
 30
0.0
 40
  0.0514
 1
D6
 0
POLYLINE
 8
WIRE
 66
1
 10
0.0
 20
0.0
 30
0.0
 0
VERTEX
 8
WIRE
 10
  0.3000
 20
  6.6000
 30
0.0
 0
VERTEX
 8
WIRE
 10
  0.8000
 20
  6.6000
 30
0.0
 0
SEQEND
 8
WIRE
 0
TEXT
 8
WIRETEXT
 10
  0.4000
 20
  6.6300
 30
0.0
 40
  0.0514
 1
IO14
 0
POLYLINE
 8
WIRE
 66
1
 10
0.0
 20
0.0
 30
0.0
 0
VERTEX
 8
WIRE
 10
  1.4000
 20
  6.6000
 30
0.0
 0
VERTEX
 8
WIRE
 10
  1.5000
 20
  6.6000
 30
0.0
 0
SEQEND
 8
WIRE
 0
POLYLINE
 8
WIRE
 66
1
 70
1
 10
0.0
 20
0.0
 30
0.0
 40
  0.0200
 41
  0.0200
 0
VERTEX
 8
WIRE
 10
  1.3900
 20
  6.6000
 30
0.0
 42
1.0
 0
VERTEX
 8
WIRE
 10
  1.4100
 20
  6.6000
 30
0.0
 42
1.0
 0
SEQEND
 8
WIRE
 0
POLYLINE
 8
WIRE
 66
1
 10
0.0
 20
0.0
 30
0.0
 0
VERTEX
 8
WIRE
 10
 12.7000
 20
  6.6000
 30
0.0
 0
VERTEX
 8
WIRE
 10
 13.0000
 20
  6.6000
 30
0.0
 0
SEQEND
 8
WIRE
 0
POLYLINE
 8
WIRE
 66
1
 10
0.0
 20
0.0
 30
0.0
 0
VERTEX
 8
WIRE
 10
 14.2000
 20
  6.6000
 30
0.0
 0
VERTEX
 8
WIRE
 10
 14.7000
 20
  6.6000
 30
0.0
 0
SEQEND
 8
WIRE
 0
TEXT
 8
WIRETEXT
 10
 14.3000
 20
  6.6300
 30
0.0
 40
  0.0514
 1
IO49
 0
POLYLINE
 8
WIRE
 66
1
 10
0.0
 20
0.0
 30
0.0
 0
VERTEX
 8
WIRE
 10
  0.8000
 20
  6.5000
 30
0.0
 0
VERTEX
 8
WIRE
 10
  1.4000
 20
  6.5000
 30
0.0
 0
SEQEND
 8
WIRE
 0
POLYLINE
 8
WIRE
 66
1
 10
0.0
 20
0.0
 30
0.0
 0
VERTEX
 8
WIRE
 10
 14.2000
 20
  6.5000
 30
0.0
 0
VERTEX
 8
WIRE
 10
 14.7000
 20
  6.5000
 30
0.0
 0
SEQEND
 8
WIRE
 0
TEXT
 8
WIRETEXT
 10
 14.3000
 20
  6.5300
 30
0.0
 40
  0.0514
 1
IO50
 0
POLYLINE
 8
WIRE
 66
1
 10
0.0
 20
0.0
 30
0.0
 0
VERTEX
 8
WIRE
 10
  0.3000
 20
  6.4000
 30
0.0
 0
VERTEX
 8
WIRE
 10
  0.9000
 20
  6.4000
 30
0.0
 0
SEQEND
 8
WIRE
 0
POLYLINE
 8
WIRE
 66
1
 70
1
 10
0.0
 20
0.0
 30
0.0
 40
  0.0200
 41
  0.0200
 0
VERTEX
 8
WIRE
 10
  0.8900
 20
  6.4000
 30
0.0
 42
1.0
 0
VERTEX
 8
WIRE
 10
  0.9100
 20
  6.4000
 30
0.0
 42
1.0
 0
SEQEND
 8
WIRE
 0
TEXT
 8
WIRETEXT
 10
  0.4000
 20
  6.4300
 30
0.0
 40
  0.0514
 1
IO15
 0
POLYLINE
 8
WIRE
 66
1
 10
0.0
 20
0.0
 30
0.0
 0
VERTEX
 8
WIRE
 10
  2.7000
 20
  6.4000
 30
0.0
 0
VERTEX
 8
WIRE
 10
  3.1000
 20
  6.4000
 30
0.0
 0
SEQEND
 8
WIRE
 0
TEXT
 8
WIRETEXT
 10
  2.8000
 20
  6.4300
 30
0.0
 40
  0.0514
 1
D7
 0
POLYLINE
 8
WIRE
 66
1
 10
0.0
 20
0.0
 30
0.0
 0
VERTEX
 8
WIRE
 10
  5.8000
 20
  6.4000
 30
0.0
 0
VERTEX
 8
WIRE
 10
  7.5000
 20
  6.4000
 30
0.0
 0
SEQEND
 8
WIRE
 0
POLYLINE
 8
WIRE
 66
1
 10
0.0
 20
0.0
 30
0.0
 0
VERTEX
 8
WIRE
 10
  0.3000
 20
  6.3000
 30
0.0
 0
VERTEX
 8
WIRE
 10
  0.8000
 20
  6.3000
 30
0.0
 0
SEQEND
 8
WIRE
 0
TEXT
 8
WIRETEXT
 10
  0.4000
 20
  6.3300
 30
0.0
 40
  0.0514
 1
IO16
 0
POLYLINE
 8
WIRE
 66
1
 10
0.0
 20
0.0
 30
0.0
 0
VERTEX
 8
WIRE
 10
  1.4000
 20
  6.3000
 30
0.0
 0
VERTEX
 8
WIRE
 10
  1.5000
 20
  6.3000
 30
0.0
 0
SEQEND
 8
WIRE
 0
POLYLINE
 8
WIRE
 66
1
 10
0.0
 20
0.0
 30
0.0
 0
VERTEX
 8
WIRE
 10
  3.6000
 20
  6.3000
 30
0.0
 0
VERTEX
 8
WIRE
 10
  5.8000
 20
  6.3000
 30
0.0
 0
SEQEND
 8
WIRE
 0
POLYLINE
 8
WIRE
 66
1
 10
0.0
 20
0.0
 30
0.0
 0
VERTEX
 8
WIRE
 10
  0.8000
 20
  6.2000
 30
0.0
 0
VERTEX
 8
WIRE
 10
  1.4000
 20
  6.2000
 30
0.0
 0
SEQEND
 8
WIRE
 0
POLYLINE
 8
WIRE
 66
1
 10
0.0
 20
0.0
 30
0.0
 0
VERTEX
 8
WIRE
 10
  5.9000
 20
  6.1000
 30
0.0
 0
VERTEX
 8
WIRE
 10
  6.1000
 20
  6.1000
 30
0.0
 0
SEQEND
 8
WIRE
 0
TEXT
 8
WIRETEXT
 10
  5.9000
 20
  6.1300
 30
0.0
 40
  0.0514
 1
PU
 0
POLYLINE
 8
WIRE
 66
1
 10
0.0
 20
0.0
 30
0.0
 0
VERTEX
 8
WIRE
 10
  5.8000
 20
  6.0000
 30
0.0
 0
VERTEX
 8
WIRE
 10
  6.1000
 20
  6.0000
 30
0.0
 0
SEQEND
 8
WIRE
 0
POLYLINE
 8
WIRE
 66
1
 10
0.0
 20
0.0
 30
0.0
 0
VERTEX
 8
WIRE
 10
  7.5000
 20
  6.0000
 30
0.0
 0
VERTEX
 8
WIRE
 10
  8.1000
 20
  6.0000
 30
0.0
 0
SEQEND
 8
WIRE
 0
POLYLINE
 8
WIRE
 66
1
 10
0.0
 20
0.0
 30
0.0
 0
VERTEX
 8
WIRE
 10
 12.7000
 20
  6.0000
 30
0.0
 0
VERTEX
 8
WIRE
 10
 14.7000
 20
  6.0000
 30
0.0
 0
SEQEND
 8
WIRE
 0
POLYLINE
 8
WIRE
 66
1
 10
0.0
 20
0.0
 30
0.0
 0
VERTEX
 8
WIRE
 10
  5.7000
 20
  5.9000
 30
0.0
 0
VERTEX
 8
WIRE
 10
  6.1000
 20
  5.9000
 30
0.0
 0
SEQEND
 8
WIRE
 0
TEXT
 8
WIRETEXT
 10
  5.8000
 20
  5.9300
 30
0.0
 40
  0.0514
 1
D11
 0
POLYLINE
 8
WIRE
 66
1
 10
0.0
 20
0.0
 30
0.0
 0
VERTEX
 8
WIRE
 10
  7.5000
 20
  5.9000
 30
0.0
 0
VERTEX
 8
WIRE
 10
  9.1000
 20
  5.9000
 30
0.0
 0
SEQEND
 8
WIRE
 0
POLYLINE
 8
WIRE
 66
1
 10
0.0
 20
0.0
 30
0.0
 0
VERTEX
 8
WIRE
 10
  5.7000
 20
  5.8000
 30
0.0
 0
VERTEX
 8
WIRE
 10
  6.1000
 20
  5.8000
 30
0.0
 0
SEQEND
 8
WIRE
 0
TEXT
 8
WIRETEXT
 10
  5.8000
 20
  5.8300
 30
0.0
 40
  0.0514
 1
D12
 0
POLYLINE
 8
WIRE
 66
1
 10
0.0
 20
0.0
 30
0.0
 0
VERTEX
 8
WIRE
 10
  7.5000
 20
  5.8000
 30
0.0
 0
VERTEX
 8
WIRE
 10
  7.8000
 20
  5.8000
 30
0.0
 0
SEQEND
 8
WIRE
 0
TEXT
 8
WIRETEXT
 10
  7.5000
 20
  5.8300
 30
0.0
 40
  0.0514
 1
XferStrb
 0
POLYLINE
 8
WIRE
 66
1
 10
0.0
 20
0.0
 30
0.0
 0
VERTEX
 8
WIRE
 10
 10.2000
 20
  5.8000
 30
0.0
 0
VERTEX
 8
WIRE
 10
 10.3000
 20
  5.8000
 30
0.0
 0
SEQEND
 8
WIRE
 0
POLYLINE
 8
WIRE
 66
1
 10
0.0
 20
0.0
 30
0.0
 0
VERTEX
 8
WIRE
 10
 11.5000
 20
  5.8000
 30
0.0
 0
VERTEX
 8
WIRE
 10
 11.8000
 20
  5.8000
 30
0.0
 0
SEQEND
 8
WIRE
 0
POLYLINE
 8
WIRE
 66
1
 10
0.0
 20
0.0
 30
0.0
 0
VERTEX
 8
WIRE
 10
 12.1000
 20
  5.8000
 30
0.0
 0
VERTEX
 8
WIRE
 10
 14.6000
 20
  5.8000
 30
0.0
 0
SEQEND
 8
WIRE
 0
POLYLINE
 8
WIRE
 66
1
 10
0.0
 20
0.0
 30
0.0
 0
VERTEX
 8
WIRE
 10
  5.7000
 20
  5.7000
 30
0.0
 0
VERTEX
 8
WIRE
 10
  6.1000
 20
  5.7000
 30
0.0
 0
SEQEND
 8
WIRE
 0
TEXT
 8
WIRETEXT
 10
  5.8000
 20
  5.7300
 30
0.0
 40
  0.0514
 1
D13
 0
POLYLINE
 8
WIRE
 66
1
 10
0.0
 20
0.0
 30
0.0
 0
VERTEX
 8
WIRE
 10
  5.7000
 20
  5.6000
 30
0.0
 0
VERTEX
 8
WIRE
 10
  6.1000
 20
  5.6000
 30
0.0
 0
SEQEND
 8
WIRE
 0
TEXT
 8
WIRETEXT
 10
  5.8000
 20
  5.6300
 30
0.0
 40
  0.0514
 1
D14
 0
POLYLINE
 8
WIRE
 66
1
 10
0.0
 20
0.0
 30
0.0
 0
VERTEX
 8
WIRE
 10
 13.8000
 20
  5.6000
 30
0.0
 0
VERTEX
 8
WIRE
 10
 13.9000
 20
  5.6000
 30
0.0
 0
SEQEND
 8
WIRE
 0
POLYLINE
 8
WIRE
 66
1
 10
0.0
 20
0.0
 30
0.0
 0
VERTEX
 8
WIRE
 10
  0.3000
 20
  5.5000
 30
0.0
 0
VERTEX
 8
WIRE
 10
  0.9000
 20
  5.5000
 30
0.0
 0
SEQEND
 8
WIRE
 0
TEXT
 8
WIRETEXT
 10
  0.4000
 20
  5.5300
 30
0.0
 40
  0.0514
 1
IO17
 0
POLYLINE
 8
WIRE
 66
1
 10
0.0
 20
0.0
 30
0.0
 0
VERTEX
 8
WIRE
 10
  2.7000
 20
  5.5000
 30
0.0
 0
VERTEX
 8
WIRE
 10
  3.1000
 20
  5.5000
 30
0.0
 0
SEQEND
 8
WIRE
 0
TEXT
 8
WIRETEXT
 10
  2.8000
 20
  5.5300
 30
0.0
 40
  0.0514
 1
D8
 0
POLYLINE
 8
WIRE
 66
1
 10
0.0
 20
0.0
 30
0.0
 0
VERTEX
 8
WIRE
 10
  5.7000
 20
  5.5000
 30
0.0
 0
VERTEX
 8
WIRE
 10
  6.1000
 20
  5.5000
 30
0.0
 0
SEQEND
 8
WIRE
 0
TEXT
 8
WIRETEXT
 10
  5.8000
 20
  5.5300
 30
0.0
 40
  0.0514
 1
D15
 0
POLYLINE
 8
WIRE
 66
1
 10
0.0
 20
0.0
 30
0.0
 0
VERTEX
 8
WIRE
 10
 10.3000
 20
  5.5000
 30
0.0
 0
VERTEX
 8
WIRE
 10
 10.4000
 20
  5.5000
 30
0.0
 0
SEQEND
 8
WIRE
 0
POLYLINE
 8
WIRE
 66
1
 10
0.0
 20
0.0
 30
0.0
 0
VERTEX
 8
WIRE
 10
  0.3000
 20
  5.4000
 30
0.0
 0
VERTEX
 8
WIRE
 10
  0.8000
 20
  5.4000
 30
0.0
 0
SEQEND
 8
WIRE
 0
TEXT
 8
WIRETEXT
 10
  0.4000
 20
  5.4300
 30
0.0
 40
  0.0514
 1
IO18
 0
POLYLINE
 8
WIRE
 66
1
 10
0.0
 20
0.0
 30
0.0
 0
VERTEX
 8
WIRE
 10
  1.4000
 20
  5.4000
 30
0.0
 0
VERTEX
 8
WIRE
 10
  1.5000
 20
  5.4000
 30
0.0
 0
SEQEND
 8
WIRE
 0
POLYLINE
 8
WIRE
 66
1
 70
1
 10
0.0
 20
0.0
 30
0.0
 40
  0.0200
 41
  0.0200
 0
VERTEX
 8
WIRE
 10
  1.3900
 20
  5.4000
 30
0.0
 42
1.0
 0
VERTEX
 8
WIRE
 10
  1.4100
 20
  5.4000
 30
0.0
 42
1.0
 0
SEQEND
 8
WIRE
 0
POLYLINE
 8
WIRE
 66
1
 10
0.0
 20
0.0
 30
0.0
 0
VERTEX
 8
WIRE
 10
  0.8000
 20
  5.3000
 30
0.0
 0
VERTEX
 8
WIRE
 10
  1.4000
 20
  5.3000
 30
0.0
 0
SEQEND
 8
WIRE
 0
POLYLINE
 8
WIRE
 66
1
 10
0.0
 20
0.0
 30
0.0
 0
VERTEX
 8
WIRE
 10
 11.8000
 20
  5.3000
 30
0.0
 0
VERTEX
 8
WIRE
 10
 12.1000
 20
  5.3000
 30
0.0
 0
SEQEND
 8
WIRE
 0
POLYLINE
 8
WIRE
 66
1
 10
0.0
 20
0.0
 30
0.0
 0
VERTEX
 8
WIRE
 10
  0.3000
 20
  5.2000
 30
0.0
 0
VERTEX
 8
WIRE
 10
  0.9000
 20
  5.2000
 30
0.0
 0
SEQEND
 8
WIRE
 0
TEXT
 8
WIRETEXT
 10
  0.4000
 20
  5.2300
 30
0.0
 40
  0.0514
 1
IO19
 0
POLYLINE
 8
WIRE
 66
1
 10
0.0
 20
0.0
 30
0.0
 0
VERTEX
 8
WIRE
 10
  2.7000
 20
  5.2000
 30
0.0
 0
VERTEX
 8
WIRE
 10
  3.1000
 20
  5.2000
 30
0.0
 0
SEQEND
 8
WIRE
 0
TEXT
 8
WIRETEXT
 10
  2.8000
 20
  5.2300
 30
0.0
 40
  0.0514
 1
D9
 0
POLYLINE
 8
WIRE
 66
1
 10
0.0
 20
0.0
 30
0.0
 0
VERTEX
 8
WIRE
 10
 14.5000
 20
  5.2000
 30
0.0
 0
VERTEX
 8
WIRE
 10
 14.6000
 20
  5.2000
 30
0.0
 0
SEQEND
 8
WIRE
 0
POLYLINE
 8
WIRE
 66
1
 10
0.0
 20
0.0
 30
0.0
 0
VERTEX
 8
WIRE
 10
  0.3000
 20
  5.1000
 30
0.0
 0
VERTEX
 8
WIRE
 10
  0.8000
 20
  5.1000
 30
0.0
 0
SEQEND
 8
WIRE
 0
TEXT
 8
WIRETEXT
 10
  0.4000
 20
  5.1300
 30
0.0
 40
  0.0514
 1
IO20
 0
POLYLINE
 8
WIRE
 66
1
 10
0.0
 20
0.0
 30
0.0
 0
VERTEX
 8
WIRE
 10
  1.4000
 20
  5.1000
 30
0.0
 0
VERTEX
 8
WIRE
 10
  1.5000
 20
  5.1000
 30
0.0
 0
SEQEND
 8
WIRE
 0
POLYLINE
 8
WIRE
 66
1
 70
1
 10
0.0
 20
0.0
 30
0.0
 40
  0.0200
 41
  0.0200
 0
VERTEX
 8
WIRE
 10
  1.3900
 20
  5.1000
 30
0.0
 42
1.0
 0
VERTEX
 8
WIRE
 10
  1.4100
 20
  5.1000
 30
0.0
 42
1.0
 0
SEQEND
 8
WIRE
 0
POLYLINE
 8
WIRE
 66
1
 10
0.0
 20
0.0
 30
0.0
 0
VERTEX
 8
WIRE
 10
  0.8000
 20
  5.0000
 30
0.0
 0
VERTEX
 8
WIRE
 10
  1.4000
 20
  5.0000
 30
0.0
 0
SEQEND
 8
WIRE
 0
POLYLINE
 8
WIRE
 66
1
 10
0.0
 20
0.0
 30
0.0
 0
VERTEX
 8
WIRE
 10
  9.7000
 20
  5.0000
 30
0.0
 0
VERTEX
 8
WIRE
 10
 10.4000
 20
  5.0000
 30
0.0
 0
SEQEND
 8
WIRE
 0
POLYLINE
 8
WIRE
 66
1
 10
0.0
 20
0.0
 30
0.0
 0
VERTEX
 8
WIRE
 10
  0.3000
 20
  4.9000
 30
0.0
 0
VERTEX
 8
WIRE
 10
  0.9000
 20
  4.9000
 30
0.0
 0
SEQEND
 8
WIRE
 0
TEXT
 8
WIRETEXT
 10
  0.4000
 20
  4.9300
 30
0.0
 40
  0.0514
 1
IO21
 0
POLYLINE
 8
WIRE
 66
1
 10
0.0
 20
0.0
 30
0.0
 0
VERTEX
 8
WIRE
 10
  2.7000
 20
  4.9000
 30
0.0
 0
VERTEX
 8
WIRE
 10
  3.1000
 20
  4.9000
 30
0.0
 0
SEQEND
 8
WIRE
 0
TEXT
 8
WIRETEXT
 10
  2.8000
 20
  4.9300
 30
0.0
 40
  0.0514
 1
D10
 0
POLYLINE
 8
WIRE
 66
1
 10
0.0
 20
0.0
 30
0.0
 0
VERTEX
 8
WIRE
 10
  0.3000
 20
  4.8000
 30
0.0
 0
VERTEX
 8
WIRE
 10
  0.8000
 20
  4.8000
 30
0.0
 0
SEQEND
 8
WIRE
 0
TEXT
 8
WIRETEXT
 10
  0.4000
 20
  4.8300
 30
0.0
 40
  0.0514
 1
IO22
 0
POLYLINE
 8
WIRE
 66
1
 10
0.0
 20
0.0
 30
0.0
 0
VERTEX
 8
WIRE
 10
  1.4000
 20
  4.8000
 30
0.0
 0
VERTEX
 8
WIRE
 10
  1.5000
 20
  4.8000
 30
0.0
 0
SEQEND
 8
WIRE
 0
POLYLINE
 8
WIRE
 66
1
 10
0.0
 20
0.0
 30
0.0
 0
VERTEX
 8
WIRE
 10
 14.5000
 20
  4.8000
 30
0.0
 0
VERTEX
 8
WIRE
 10
 14.7000
 20
  4.8000
 30
0.0
 0
SEQEND
 8
WIRE
 0
POLYLINE
 8
WIRE
 66
1
 10
0.0
 20
0.0
 30
0.0
 0
VERTEX
 8
WIRE
 10
  0.8000
 20
  4.7000
 30
0.0
 0
VERTEX
 8
WIRE
 10
  1.4000
 20
  4.7000
 30
0.0
 0
SEQEND
 8
WIRE
 0
POLYLINE
 8
WIRE
 66
1
 10
0.0
 20
0.0
 30
0.0
 0
VERTEX
 8
WIRE
 10
  0.3000
 20
  4.6000
 30
0.0
 0
VERTEX
 8
WIRE
 10
  0.9000
 20
  4.6000
 30
0.0
 0
SEQEND
 8
WIRE
 0
TEXT
 8
WIRETEXT
 10
  0.4000
 20
  4.6300
 30
0.0
 40
  0.0514
 1
IO23
 0
POLYLINE
 8
WIRE
 66
1
 10
0.0
 20
0.0
 30
0.0
 0
VERTEX
 8
WIRE
 10
  2.7000
 20
  4.6000
 30
0.0
 0
VERTEX
 8
WIRE
 10
  3.1000
 20
  4.6000
 30
0.0
 0
SEQEND
 8
WIRE
 0
TEXT
 8
WIRETEXT
 10
  2.8000
 20
  4.6300
 30
0.0
 40
  0.0514
 1
D11
 0
POLYLINE
 8
WIRE
 66
1
 10
0.0
 20
0.0
 30
0.0
 0
VERTEX
 8
WIRE
 10
  0.3000
 20
  4.5000
 30
0.0
 0
VERTEX
 8
WIRE
 10
  0.8000
 20
  4.5000
 30
0.0
 0
SEQEND
 8
WIRE
 0
TEXT
 8
WIRETEXT
 10
  0.4000
 20
  4.5300
 30
0.0
 40
  0.0514
 1
IO24
 0
POLYLINE
 8
WIRE
 66
1
 10
0.0
 20
0.0
 30
0.0
 0
VERTEX
 8
WIRE
 10
  1.4000
 20
  4.5000
 30
0.0
 0
VERTEX
 8
WIRE
 10
  1.5000
 20
  4.5000
 30
0.0
 0
SEQEND
 8
WIRE
 0
POLYLINE
 8
WIRE
 66
1
 10
0.0
 20
0.0
 30
0.0
 0
VERTEX
 8
WIRE
 10
  0.8000
 20
  4.4000
 30
0.0
 0
VERTEX
 8
WIRE
 10
  1.4000
 20
  4.4000
 30
0.0
 0
SEQEND
 8
WIRE
 0
POLYLINE
 8
WIRE
 66
1
 10
0.0
 20
0.0
 30
0.0
 0
VERTEX
 8
WIRE
 10
  7.5000
 20
  4.3000
 30
0.0
 0
VERTEX
 8
WIRE
 10
  7.6000
 20
  4.3000
 30
0.0
 0
SEQEND
 8
WIRE
 0
POLYLINE
 8
WIRE
 66
1
 70
1
 10
0.0
 20
0.0
 30
0.0
 40
  0.0200
 41
  0.0200
 0
VERTEX
 8
WIRE
 10
  7.5900
 20
  4.3000
 30
0.0
 42
1.0
 0
VERTEX
 8
WIRE
 10
  7.6100
 20
  4.3000
 30
0.0
 42
1.0
 0
SEQEND
 8
WIRE
 0
POLYLINE
 8
WIRE
 66
1
 10
0.0
 20
0.0
 30
0.0
 0
VERTEX
 8
WIRE
 10
  0.3000
 20
  3.7000
 30
0.0
 0
VERTEX
 8
WIRE
 10
  0.9000
 20
  3.7000
 30
0.0
 0
SEQEND
 8
WIRE
 0
TEXT
 8
WIRETEXT
 10
  0.4000
 20
  3.7300
 30
0.0
 40
  0.0514
 1
IO25
 0
POLYLINE
 8
WIRE
 66
1
 10
0.0
 20
0.0
 30
0.0
 0
VERTEX
 8
WIRE
 10
  2.7000
 20
  3.7000
 30
0.0
 0
VERTEX
 8
WIRE
 10
  3.1000
 20
  3.7000
 30
0.0
 0
SEQEND
 8
WIRE
 0
TEXT
 8
WIRETEXT
 10
  2.8000
 20
  3.7300
 30
0.0
 40
  0.0514
 1
D12
 0
POLYLINE
 8
WIRE
 66
1
 10
0.0
 20
0.0
 30
0.0
 0
VERTEX
 8
WIRE
 10
  0.3000
 20
  3.6000
 30
0.0
 0
VERTEX
 8
WIRE
 10
  0.8000
 20
  3.6000
 30
0.0
 0
SEQEND
 8
WIRE
 0
TEXT
 8
WIRETEXT
 10
  0.4000
 20
  3.6300
 30
0.0
 40
  0.0514
 1
IO26
 0
POLYLINE
 8
WIRE
 66
1
 10
0.0
 20
0.0
 30
0.0
 0
VERTEX
 8
WIRE
 10
  1.4000
 20
  3.6000
 30
0.0
 0
VERTEX
 8
WIRE
 10
  1.5000
 20
  3.6000
 30
0.0
 0
SEQEND
 8
WIRE
 0
POLYLINE
 8
WIRE
 66
1
 10
0.0
 20
0.0
 30
0.0
 0
VERTEX
 8
WIRE
 10
  0.8000
 20
  3.5000
 30
0.0
 0
VERTEX
 8
WIRE
 10
  1.4000
 20
  3.5000
 30
0.0
 0
SEQEND
 8
WIRE
 0
POLYLINE
 8
WIRE
 66
1
 10
0.0
 20
0.0
 30
0.0
 0
VERTEX
 8
WIRE
 10
 11.5000
 20
  3.5000
 30
0.0
 0
VERTEX
 8
WIRE
 10
 11.7000
 20
  3.5000
 30
0.0
 0
SEQEND
 8
WIRE
 0
TEXT
 8
WIRETEXT
 10
 11.5000
 20
  3.5300
 30
0.0
 40
  0.0514
 1
D0
 0
POLYLINE
 8
WIRE
 66
1
 10
0.0
 20
0.0
 30
0.0
 0
VERTEX
 8
WIRE
 10
  0.3000
 20
  3.4000
 30
0.0
 0
VERTEX
 8
WIRE
 10
  0.9000
 20
  3.4000
 30
0.0
 0
SEQEND
 8
WIRE
 0
TEXT
 8
WIRETEXT
 10
  0.4000
 20
  3.4300
 30
0.0
 40
  0.0514
 1
IO27
 0
POLYLINE
 8
WIRE
 66
1
 10
0.0
 20
0.0
 30
0.0
 0
VERTEX
 8
WIRE
 10
  2.7000
 20
  3.4000
 30
0.0
 0
VERTEX
 8
WIRE
 10
  3.1000
 20
  3.4000
 30
0.0
 0
SEQEND
 8
WIRE
 0
TEXT
 8
WIRETEXT
 10
  2.8000
 20
  3.4300
 30
0.0
 40
  0.0514
 1
D13
 0
POLYLINE
 8
WIRE
 66
1
 10
0.0
 20
0.0
 30
0.0
 0
VERTEX
 8
WIRE
 10
  5.7000
 20
  3.4000
 30
0.0
 0
VERTEX
 8
WIRE
 10
  7.5000
 20
  3.4000
 30
0.0
 0
SEQEND
 8
WIRE
 0
POLYLINE
 8
WIRE
 66
1
 10
0.0
 20
0.0
 30
0.0
 0
VERTEX
 8
WIRE
 10
  0.3000
 20
  3.3000
 30
0.0
 0
VERTEX
 8
WIRE
 10
  0.8000
 20
  3.3000
 30
0.0
 0
SEQEND
 8
WIRE
 0
TEXT
 8
WIRETEXT
 10
  0.4000
 20
  3.3300
 30
0.0
 40
  0.0514
 1
IO28
 0
POLYLINE
 8
WIRE
 66
1
 10
0.0
 20
0.0
 30
0.0
 0
VERTEX
 8
WIRE
 10
  1.4000
 20
  3.3000
 30
0.0
 0
VERTEX
 8
WIRE
 10
  1.5000
 20
  3.3000
 30
0.0
 0
SEQEND
 8
WIRE
 0
POLYLINE
 8
WIRE
 66
1
 70
1
 10
0.0
 20
0.0
 30
0.0
 40
  0.0200
 41
  0.0200
 0
VERTEX
 8
WIRE
 10
  1.3900
 20
  3.3000
 30
0.0
 42
1.0
 0
VERTEX
 8
WIRE
 10
  1.4100
 20
  3.3000
 30
0.0
 42
1.0
 0
SEQEND
 8
WIRE
 0
POLYLINE
 8
WIRE
 66
1
 10
0.0
 20
0.0
 30
0.0
 0
VERTEX
 8
WIRE
 10
  6.7000
 20
  3.3000
 30
0.0
 0
VERTEX
 8
WIRE
 10
  7.6000
 20
  3.3000
 30
0.0
 0
SEQEND
 8
WIRE
 0
POLYLINE
 8
WIRE
 66
1
 10
0.0
 20
0.0
 30
0.0
 0
VERTEX
 8
WIRE
 10
  8.0000
 20
  3.3000
 30
0.0
 0
VERTEX
 8
WIRE
 10
 10.7000
 20
  3.3000
 30
0.0
 0
SEQEND
 8
WIRE
 0
POLYLINE
 8
WIRE
 66
1
 10
0.0
 20
0.0
 30
0.0
 0
VERTEX
 8
WIRE
 10
 11.0000
 20
  3.3000
 30
0.0
 0
VERTEX
 8
WIRE
 10
 11.7000
 20
  3.3000
 30
0.0
 0
SEQEND
 8
WIRE
 0
TEXT
 8
WIRETEXT
 10
 11.0000
 20
  3.3300
 30
0.0
 40
  0.0514
 1
XferStrb
 0
POLYLINE
 8
WIRE
 66
1
 10
0.0
 20
0.0
 30
0.0
 0
VERTEX
 8
WIRE
 10
  0.8000
 20
  3.2000
 30
0.0
 0
VERTEX
 8
WIRE
 10
  1.4000
 20
  3.2000
 30
0.0
 0
SEQEND
 8
WIRE
 0
POLYLINE
 8
WIRE
 66
1
 10
0.0
 20
0.0
 30
0.0
 0
VERTEX
 8
WIRE
 10
  7.9000
 20
  3.2000
 30
0.0
 0
VERTEX
 8
WIRE
 10
  9.7000
 20
  3.2000
 30
0.0
 0
SEQEND
 8
WIRE
 0
POLYLINE
 8
WIRE
 66
1
 10
0.0
 20
0.0
 30
0.0
 0
VERTEX
 8
WIRE
 10
  0.3000
 20
  3.1000
 30
0.0
 0
VERTEX
 8
WIRE
 10
  0.9000
 20
  3.1000
 30
0.0
 0
SEQEND
 8
WIRE
 0
TEXT
 8
WIRETEXT
 10
  0.4000
 20
  3.1300
 30
0.0
 40
  0.0514
 1
IO29
 0
POLYLINE
 8
WIRE
 66
1
 10
0.0
 20
0.0
 30
0.0
 0
VERTEX
 8
WIRE
 10
  2.7000
 20
  3.1000
 30
0.0
 0
VERTEX
 8
WIRE
 10
  3.1000
 20
  3.1000
 30
0.0
 0
SEQEND
 8
WIRE
 0
TEXT
 8
WIRETEXT
 10
  2.8000
 20
  3.1300
 30
0.0
 40
  0.0514
 1
D14
 0
POLYLINE
 8
WIRE
 66
1
 10
0.0
 20
0.0
 30
0.0
 0
VERTEX
 8
WIRE
 10
  7.8000
 20
  3.1000
 30
0.0
 0
VERTEX
 8
WIRE
 10
  8.7000
 20
  3.1000
 30
0.0
 0
SEQEND
 8
WIRE
 0
POLYLINE
 8
WIRE
 66
1
 10
0.0
 20
0.0
 30
0.0
 0
VERTEX
 8
WIRE
 10
 12.9000
 20
  3.1000
 30
0.0
 0
VERTEX
 8
WIRE
 10
 13.0000
 20
  3.1000
 30
0.0
 0
SEQEND
 8
WIRE
 0
POLYLINE
 8
WIRE
 66
1
 10
0.0
 20
0.0
 30
0.0
 0
VERTEX
 8
WIRE
 10
  0.3000
 20
  3.0000
 30
0.0
 0
VERTEX
 8
WIRE
 10
  0.8000
 20
  3.0000
 30
0.0
 0
SEQEND
 8
WIRE
 0
TEXT
 8
WIRETEXT
 10
  0.4000
 20
  3.0300
 30
0.0
 40
  0.0514
 1
IO30
 0
POLYLINE
 8
WIRE
 66
1
 10
0.0
 20
0.0
 30
0.0
 0
VERTEX
 8
WIRE
 10
  1.4000
 20
  3.0000
 30
0.0
 0
VERTEX
 8
WIRE
 10
  1.5000
 20
  3.0000
 30
0.0
 0
SEQEND
 8
WIRE
 0
POLYLINE
 8
WIRE
 66
1
 10
0.0
 20
0.0
 30
0.0
 0
VERTEX
 8
WIRE
 10
  0.8000
 20
  2.9000
 30
0.0
 0
VERTEX
 8
WIRE
 10
  1.4000
 20
  2.9000
 30
0.0
 0
SEQEND
 8
WIRE
 0
POLYLINE
 8
WIRE
 66
1
 10
0.0
 20
0.0
 30
0.0
 0
VERTEX
 8
WIRE
 10
  0.3000
 20
  2.8000
 30
0.0
 0
VERTEX
 8
WIRE
 10
  0.9000
 20
  2.8000
 30
0.0
 0
SEQEND
 8
WIRE
 0
TEXT
 8
WIRETEXT
 10
  0.4000
 20
  2.8300
 30
0.0
 40
  0.0514
 1
IO31
 0
POLYLINE
 8
WIRE
 66
1
 10
0.0
 20
0.0
 30
0.0
 0
VERTEX
 8
WIRE
 10
  2.7000
 20
  2.8000
 30
0.0
 0
VERTEX
 8
WIRE
 10
  3.1000
 20
  2.8000
 30
0.0
 0
SEQEND
 8
WIRE
 0
TEXT
 8
WIRETEXT
 10
  2.8000
 20
  2.8300
 30
0.0
 40
  0.0514
 1
D15
 0
POLYLINE
 8
WIRE
 66
1
 10
0.0
 20
0.0
 30
0.0
 0
VERTEX
 8
WIRE
 10
 13.8000
 20
  2.8000
 30
0.0
 0
VERTEX
 8
WIRE
 10
 13.9000
 20
  2.8000
 30
0.0
 0
SEQEND
 8
WIRE
 0
POLYLINE
 8
WIRE
 66
1
 10
0.0
 20
0.0
 30
0.0
 0
VERTEX
 8
WIRE
 10
  0.3000
 20
  2.7000
 30
0.0
 0
VERTEX
 8
WIRE
 10
  0.8000
 20
  2.7000
 30
0.0
 0
SEQEND
 8
WIRE
 0
TEXT
 8
WIRETEXT
 10
  0.4000
 20
  2.7300
 30
0.0
 40
  0.0514
 1
IO32
 0
POLYLINE
 8
WIRE
 66
1
 10
0.0
 20
0.0
 30
0.0
 0
VERTEX
 8
WIRE
 10
  1.4000
 20
  2.7000
 30
0.0
 0
VERTEX
 8
WIRE
 10
  1.5000
 20
  2.7000
 30
0.0
 0
SEQEND
 8
WIRE
 0
POLYLINE
 8
WIRE
 66
1
 10
0.0
 20
0.0
 30
0.0
 0
VERTEX
 8
WIRE
 10
  0.8000
 20
  2.6000
 30
0.0
 0
VERTEX
 8
WIRE
 10
  1.4000
 20
  2.6000
 30
0.0
 0
SEQEND
 8
WIRE
 0
POLYLINE
 8
WIRE
 66
1
 10
0.0
 20
0.0
 30
0.0
 0
VERTEX
 8
WIRE
 10
 13.8000
 20
  2.6000
 30
0.0
 0
VERTEX
 8
WIRE
 10
 13.9000
 20
  2.6000
 30
0.0
 0
SEQEND
 8
WIRE
 0
POLYLINE
 8
WIRE
 66
1
 10
0.0
 20
0.0
 30
0.0
 0
VERTEX
 8
WIRE
 10
  4.6000
 20
  2.2000
 30
0.0
 0
VERTEX
 8
WIRE
 10
  7.5000
 20
  2.2000
 30
0.0
 0
SEQEND
 8
WIRE
 0
POLYLINE
 8
WIRE
 66
1
 70
1
 10
0.0
 20
0.0
 30
0.0
 40
  0.0200
 41
  0.0200
 0
VERTEX
 8
WIRE
 10
  7.4900
 20
  2.2000
 30
0.0
 42
1.0
 0
VERTEX
 8
WIRE
 10
  7.5100
 20
  2.2000
 30
0.0
 42
1.0
 0
SEQEND
 8
WIRE
 0
POLYLINE
 8
WIRE
 66
1
 10
0.0
 20
0.0
 30
0.0
 0
VERTEX
 8
WIRE
 10
  0.3000
 20
  1.9000
 30
0.0
 0
VERTEX
 8
WIRE
 10
  0.9000
 20
  1.9000
 30
0.0
 0
SEQEND
 8
WIRE
 0
TEXT
 8
WIRETEXT
 10
  0.4000
 20
  1.9300
 30
0.0
 40
  0.0514
 1
IO33
 0
POLYLINE
 8
WIRE
 66
1
 10
0.0
 20
0.0
 30
0.0
 0
VERTEX
 8
WIRE
 10
  3.5000
 20
  1.9000
 30
0.0
 0
VERTEX
 8
WIRE
 10
  3.6000
 20
  1.9000
 30
0.0
 0
SEQEND
 8
WIRE
 0
POLYLINE
 8
WIRE
 66
1
 10
0.0
 20
0.0
 30
0.0
 0
VERTEX
 8
WIRE
 10
  0.3000
 20
  1.8000
 30
0.0
 0
VERTEX
 8
WIRE
 10
  0.8000
 20
  1.8000
 30
0.0
 0
SEQEND
 8
WIRE
 0
TEXT
 8
WIRETEXT
 10
  0.4000
 20
  1.8300
 30
0.0
 40
  0.0514
 1
IO34
 0
POLYLINE
 8
WIRE
 66
1
 10
0.0
 20
0.0
 30
0.0
 0
VERTEX
 8
WIRE
 10
  1.4000
 20
  1.8000
 30
0.0
 0
VERTEX
 8
WIRE
 10
  1.5000
 20
  1.8000
 30
0.0
 0
SEQEND
 8
WIRE
 0
POLYLINE
 8
WIRE
 66
1
 70
1
 10
0.0
 20
0.0
 30
0.0
 40
  0.0200
 41
  0.0200
 0
VERTEX
 8
WIRE
 10
  1.3900
 20
  1.8000
 30
0.0
 42
1.0
 0
VERTEX
 8
WIRE
 10
  1.4100
 20
  1.8000
 30
0.0
 42
1.0
 0
SEQEND
 8
WIRE
 0
POLYLINE
 8
WIRE
 66
1
 10
0.0
 20
0.0
 30
0.0
 0
VERTEX
 8
WIRE
 10
  0.8000
 20
  1.7000
 30
0.0
 0
VERTEX
 8
WIRE
 10
  1.4000
 20
  1.7000
 30
0.0
 0
SEQEND
 8
WIRE
 0
POLYLINE
 8
WIRE
 66
1
 10
0.0
 20
0.0
 30
0.0
 0
VERTEX
 8
WIRE
 10
 14.7000
 20
  1.6000
 30
0.0
 0
VERTEX
 8
WIRE
 10
 14.9000
 20
  1.6000
 30
0.0
 0
SEQEND
 8
WIRE
 0
TEXT
 8
WIRETEXT
 10
 14.7000
 20
  1.6300
 30
0.0
 40
  0.0514
 1
PU
 0
POLYLINE
 8
WIRE
 66
1
 10
0.0
 20
0.0
 30
0.0
 0
VERTEX
 8
WIRE
 10
  5.7000
 20
  1.3000
 30
0.0
 0
VERTEX
 8
WIRE
 10
  7.5000
 20
  1.3000
 30
0.0
 0
SEQEND
 8
WIRE
 0
POLYLINE
 8
WIRE
 66
1
 10
0.0
 20
0.0
 30
0.0
 0
VERTEX
 8
WIRE
 10
  6.7000
 20
  1.2000
 30
0.0
 0
VERTEX
 8
WIRE
 10
  7.6000
 20
  1.2000
 30
0.0
 0
SEQEND
 8
WIRE
 0
POLYLINE
 8
WIRE
 66
1
 10
0.0
 20
0.0
 30
0.0
 0
VERTEX
 8
WIRE
 10
  8.0000
 20
  1.2000
 30
0.0
 0
VERTEX
 8
WIRE
 10
 10.7000
 20
  1.2000
 30
0.0
 0
SEQEND
 8
WIRE
 0
POLYLINE
 8
WIRE
 66
1
 10
0.0
 20
0.0
 30
0.0
 0
VERTEX
 8
WIRE
 10
  7.9000
 20
  1.1000
 30
0.0
 0
VERTEX
 8
WIRE
 10
  9.7000
 20
  1.1000
 30
0.0
 0
SEQEND
 8
WIRE
 0
POLYLINE
 8
WIRE
 66
1
 10
0.0
 20
0.0
 30
0.0
 0
VERTEX
 8
WIRE
 10
  7.8000
 20
  1.0000
 30
0.0
 0
VERTEX
 8
WIRE
 10
  8.7000
 20
  1.0000
 30
0.0
 0
SEQEND
 8
WIRE
 0
POLYLINE
 8
WIRE
 66
1
 10
0.0
 20
0.0
 30
0.0
 0
VERTEX
 8
WIRE
 10
  4.6000
 20
  0.6000
 30
0.0
 0
VERTEX
 8
WIRE
 10
  4.7000
 20
  0.6000
 30
0.0
 0
SEQEND
 8
WIRE
 0
POLYLINE
 8
WIRE
 66
1
 10
0.0
 20
0.0
 30
0.0
 40
  0.0200
 41
  0.0200
 0
VERTEX
 8
WIRE
 10
  3.6000
 20
  9.4000
 30
0.0
 0
VERTEX
 8
WIRE
 10
  5.5000
 20
  9.4000
 30
0.0
 0
SEQEND
 8
WIRE
 0
POLYLINE
 8
WIRE
 66
1
 70
1
 10
0.0
 20
0.0
 30
0.0
 40
  0.0200
 41
  0.0200
 0
VERTEX
 8
WIRE
 10
  5.4900
 20
  9.4000
 30
0.0
 42
1.0
 0
VERTEX
 8
WIRE
 10
  5.5100
 20
  9.4000
 30
0.0
 42
1.0
 0
SEQEND
 8
WIRE
 0
POLYLINE
 8
WIRE
 66
1
 10
0.0
 20
0.0
 30
0.0
 0
VERTEX
 8
WIRE
 10
  0.8000
 20
  9.0000
 30
0.0
 0
VERTEX
 8
WIRE
 10
  0.8000
 20
  8.9000
 30
0.0
 0
SEQEND
 8
WIRE
 0
POLYLINE
 8
WIRE
 66
1
 10
0.0
 20
0.0
 30
0.0
 0
VERTEX
 8
WIRE
 10
  0.8000
 20
  8.7000
 30
0.0
 0
VERTEX
 8
WIRE
 10
  0.8000
 20
  8.6000
 30
0.0
 0
SEQEND
 8
WIRE
 0
POLYLINE
 8
WIRE
 66
1
 10
0.0
 20
0.0
 30
0.0
 0
VERTEX
 8
WIRE
 10
  0.8000
 20
  8.4000
 30
0.0
 0
VERTEX
 8
WIRE
 10
  0.8000
 20
  8.3000
 30
0.0
 0
SEQEND
 8
WIRE
 0
POLYLINE
 8
WIRE
 66
1
 10
0.0
 20
0.0
 30
0.0
 0
VERTEX
 8
WIRE
 10
  0.8000
 20
  8.1000
 30
0.0
 0
VERTEX
 8
WIRE
 10
  0.8000
 20
  8.0000
 30
0.0
 0
SEQEND
 8
WIRE
 0
POLYLINE
 8
WIRE
 66
1
 10
0.0
 20
0.0
 30
0.0
 0
VERTEX
 8
WIRE
 10
  0.8000
 20
  7.2000
 30
0.0
 0
VERTEX
 8
WIRE
 10
  0.8000
 20
  7.1000
 30
0.0
 0
SEQEND
 8
WIRE
 0
POLYLINE
 8
WIRE
 66
1
 10
0.0
 20
0.0
 30
0.0
 0
VERTEX
 8
WIRE
 10
  0.8000
 20
  6.9000
 30
0.0
 0
VERTEX
 8
WIRE
 10
  0.8000
 20
  6.8000
 30
0.0
 0
SEQEND
 8
WIRE
 0
POLYLINE
 8
WIRE
 66
1
 10
0.0
 20
0.0
 30
0.0
 0
VERTEX
 8
WIRE
 10
  0.8000
 20
  6.6000
 30
0.0
 0
VERTEX
 8
WIRE
 10
  0.8000
 20
  6.5000
 30
0.0
 0
SEQEND
 8
WIRE
 0
POLYLINE
 8
WIRE
 66
1
 10
0.0
 20
0.0
 30
0.0
 0
VERTEX
 8
WIRE
 10
  0.8000
 20
  6.3000
 30
0.0
 0
VERTEX
 8
WIRE
 10
  0.8000
 20
  6.2000
 30
0.0
 0
SEQEND
 8
WIRE
 0
POLYLINE
 8
WIRE
 66
1
 10
0.0
 20
0.0
 30
0.0
 0
VERTEX
 8
WIRE
 10
  0.8000
 20
  5.4000
 30
0.0
 0
VERTEX
 8
WIRE
 10
  0.8000
 20
  5.3000
 30
0.0
 0
SEQEND
 8
WIRE
 0
POLYLINE
 8
WIRE
 66
1
 10
0.0
 20
0.0
 30
0.0
 0
VERTEX
 8
WIRE
 10
  0.8000
 20
  5.1000
 30
0.0
 0
VERTEX
 8
WIRE
 10
  0.8000
 20
  5.0000
 30
0.0
 0
SEQEND
 8
WIRE
 0
POLYLINE
 8
WIRE
 66
1
 10
0.0
 20
0.0
 30
0.0
 0
VERTEX
 8
WIRE
 10
  0.8000
 20
  4.8000
 30
0.0
 0
VERTEX
 8
WIRE
 10
  0.8000
 20
  4.7000
 30
0.0
 0
SEQEND
 8
WIRE
 0
POLYLINE
 8
WIRE
 66
1
 10
0.0
 20
0.0
 30
0.0
 0
VERTEX
 8
WIRE
 10
  0.8000
 20
  4.5000
 30
0.0
 0
VERTEX
 8
WIRE
 10
  0.8000
 20
  4.4000
 30
0.0
 0
SEQEND
 8
WIRE
 0
POLYLINE
 8
WIRE
 66
1
 10
0.0
 20
0.0
 30
0.0
 0
VERTEX
 8
WIRE
 10
  0.8000
 20
  3.6000
 30
0.0
 0
VERTEX
 8
WIRE
 10
  0.8000
 20
  3.5000
 30
0.0
 0
SEQEND
 8
WIRE
 0
POLYLINE
 8
WIRE
 66
1
 10
0.0
 20
0.0
 30
0.0
 0
VERTEX
 8
WIRE
 10
  0.8000
 20
  3.3000
 30
0.0
 0
VERTEX
 8
WIRE
 10
  0.8000
 20
  3.2000
 30
0.0
 0
SEQEND
 8
WIRE
 0
POLYLINE
 8
WIRE
 66
1
 10
0.0
 20
0.0
 30
0.0
 0
VERTEX
 8
WIRE
 10
  0.8000
 20
  3.0000
 30
0.0
 0
VERTEX
 8
WIRE
 10
  0.8000
 20
  2.9000
 30
0.0
 0
SEQEND
 8
WIRE
 0
POLYLINE
 8
WIRE
 66
1
 10
0.0
 20
0.0
 30
0.0
 0
VERTEX
 8
WIRE
 10
  0.8000
 20
  2.7000
 30
0.0
 0
VERTEX
 8
WIRE
 10
  0.8000
 20
  2.6000
 30
0.0
 0
SEQEND
 8
WIRE
 0
POLYLINE
 8
WIRE
 66
1
 10
0.0
 20
0.0
 30
0.0
 0
VERTEX
 8
WIRE
 10
  0.8000
 20
  1.8000
 30
0.0
 0
VERTEX
 8
WIRE
 10
  0.8000
 20
  1.7000
 30
0.0
 0
SEQEND
 8
WIRE
 0
POLYLINE
 8
WIRE
 66
1
 10
0.0
 20
0.0
 30
0.0
 0
VERTEX
 8
WIRE
 10
  0.9000
 20
  9.1000
 30
0.0
 0
VERTEX
 8
WIRE
 10
  0.9000
 20
  9.0000
 30
0.0
 0
SEQEND
 8
WIRE
 0
POLYLINE
 8
WIRE
 66
1
 10
0.0
 20
0.0
 30
0.0
 0
VERTEX
 8
WIRE
 10
  0.9000
 20
  8.8000
 30
0.0
 0
VERTEX
 8
WIRE
 10
  0.9000
 20
  8.7000
 30
0.0
 0
SEQEND
 8
WIRE
 0
POLYLINE
 8
WIRE
 66
1
 70
1
 10
0.0
 20
0.0
 30
0.0
 40
  0.0200
 41
  0.0200
 0
VERTEX
 8
WIRE
 10
  0.8900
 20
  8.8000
 30
0.0
 42
1.0
 0
VERTEX
 8
WIRE
 10
  0.9100
 20
  8.8000
 30
0.0
 42
1.0
 0
SEQEND
 8
WIRE
 0
POLYLINE
 8
WIRE
 66
1
 10
0.0
 20
0.0
 30
0.0
 0
VERTEX
 8
WIRE
 10
  0.9000
 20
  8.5000
 30
0.0
 0
VERTEX
 8
WIRE
 10
  0.9000
 20
  8.4000
 30
0.0
 0
SEQEND
 8
WIRE
 0
POLYLINE
 8
WIRE
 66
1
 70
1
 10
0.0
 20
0.0
 30
0.0
 40
  0.0200
 41
  0.0200
 0
VERTEX
 8
WIRE
 10
  0.8900
 20
  8.5000
 30
0.0
 42
1.0
 0
VERTEX
 8
WIRE
 10
  0.9100
 20
  8.5000
 30
0.0
 42
1.0
 0
SEQEND
 8
WIRE
 0
POLYLINE
 8
WIRE
 66
1
 10
0.0
 20
0.0
 30
0.0
 0
VERTEX
 8
WIRE
 10
  0.9000
 20
  8.2000
 30
0.0
 0
VERTEX
 8
WIRE
 10
  0.9000
 20
  8.1000
 30
0.0
 0
SEQEND
 8
WIRE
 0
POLYLINE
 8
WIRE
 66
1
 70
1
 10
0.0
 20
0.0
 30
0.0
 40
  0.0200
 41
  0.0200
 0
VERTEX
 8
WIRE
 10
  0.8900
 20
  8.2000
 30
0.0
 42
1.0
 0
VERTEX
 8
WIRE
 10
  0.9100
 20
  8.2000
 30
0.0
 42
1.0
 0
SEQEND
 8
WIRE
 0
POLYLINE
 8
WIRE
 66
1
 10
0.0
 20
0.0
 30
0.0
 0
VERTEX
 8
WIRE
 10
  0.9000
 20
  7.3000
 30
0.0
 0
VERTEX
 8
WIRE
 10
  0.9000
 20
  7.2000
 30
0.0
 0
SEQEND
 8
WIRE
 0
POLYLINE
 8
WIRE
 66
1
 70
1
 10
0.0
 20
0.0
 30
0.0
 40
  0.0200
 41
  0.0200
 0
VERTEX
 8
WIRE
 10
  0.8900
 20
  7.3000
 30
0.0
 42
1.0
 0
VERTEX
 8
WIRE
 10
  0.9100
 20
  7.3000
 30
0.0
 42
1.0
 0
SEQEND
 8
WIRE
 0
POLYLINE
 8
WIRE
 66
1
 10
0.0
 20
0.0
 30
0.0
 0
VERTEX
 8
WIRE
 10
  0.9000
 20
  7.0000
 30
0.0
 0
VERTEX
 8
WIRE
 10
  0.9000
 20
  6.9000
 30
0.0
 0
SEQEND
 8
WIRE
 0
POLYLINE
 8
WIRE
 66
1
 70
1
 10
0.0
 20
0.0
 30
0.0
 40
  0.0200
 41
  0.0200
 0
VERTEX
 8
WIRE
 10
  0.8900
 20
  7.0000
 30
0.0
 42
1.0
 0
VERTEX
 8
WIRE
 10
  0.9100
 20
  7.0000
 30
0.0
 42
1.0
 0
SEQEND
 8
WIRE
 0
POLYLINE
 8
WIRE
 66
1
 10
0.0
 20
0.0
 30
0.0
 0
VERTEX
 8
WIRE
 10
  0.9000
 20
  6.7000
 30
0.0
 0
VERTEX
 8
WIRE
 10
  0.9000
 20
  6.6000
 30
0.0
 0
SEQEND
 8
WIRE
 0
POLYLINE
 8
WIRE
 66
1
 10
0.0
 20
0.0
 30
0.0
 0
VERTEX
 8
WIRE
 10
  0.9000
 20
  6.4000
 30
0.0
 0
VERTEX
 8
WIRE
 10
  0.9000
 20
  6.3000
 30
0.0
 0
SEQEND
 8
WIRE
 0
POLYLINE
 8
WIRE
 66
1
 10
0.0
 20
0.0
 30
0.0
 0
VERTEX
 8
WIRE
 10
  0.9000
 20
  5.5000
 30
0.0
 0
VERTEX
 8
WIRE
 10
  0.9000
 20
  5.4000
 30
0.0
 0
SEQEND
 8
WIRE
 0
POLYLINE
 8
WIRE
 66
1
 70
1
 10
0.0
 20
0.0
 30
0.0
 40
  0.0200
 41
  0.0200
 0
VERTEX
 8
WIRE
 10
  0.8900
 20
  5.5000
 30
0.0
 42
1.0
 0
VERTEX
 8
WIRE
 10
  0.9100
 20
  5.5000
 30
0.0
 42
1.0
 0
SEQEND
 8
WIRE
 0
POLYLINE
 8
WIRE
 66
1
 10
0.0
 20
0.0
 30
0.0
 0
VERTEX
 8
WIRE
 10
  0.9000
 20
  5.2000
 30
0.0
 0
VERTEX
 8
WIRE
 10
  0.9000
 20
  5.1000
 30
0.0
 0
SEQEND
 8
WIRE
 0
POLYLINE
 8
WIRE
 66
1
 70
1
 10
0.0
 20
0.0
 30
0.0
 40
  0.0200
 41
  0.0200
 0
VERTEX
 8
WIRE
 10
  0.8900
 20
  5.2000
 30
0.0
 42
1.0
 0
VERTEX
 8
WIRE
 10
  0.9100
 20
  5.2000
 30
0.0
 42
1.0
 0
SEQEND
 8
WIRE
 0
POLYLINE
 8
WIRE
 66
1
 10
0.0
 20
0.0
 30
0.0
 0
VERTEX
 8
WIRE
 10
  0.9000
 20
  4.9000
 30
0.0
 0
VERTEX
 8
WIRE
 10
  0.9000
 20
  4.8000
 30
0.0
 0
SEQEND
 8
WIRE
 0
POLYLINE
 8
WIRE
 66
1
 70
1
 10
0.0
 20
0.0
 30
0.0
 40
  0.0200
 41
  0.0200
 0
VERTEX
 8
WIRE
 10
  0.8900
 20
  4.9000
 30
0.0
 42
1.0
 0
VERTEX
 8
WIRE
 10
  0.9100
 20
  4.9000
 30
0.0
 42
1.0
 0
SEQEND
 8
WIRE
 0
POLYLINE
 8
WIRE
 66
1
 10
0.0
 20
0.0
 30
0.0
 0
VERTEX
 8
WIRE
 10
  0.9000
 20
  4.6000
 30
0.0
 0
VERTEX
 8
WIRE
 10
  0.9000
 20
  4.5000
 30
0.0
 0
SEQEND
 8
WIRE
 0
POLYLINE
 8
WIRE
 66
1
 70
1
 10
0.0
 20
0.0
 30
0.0
 40
  0.0200
 41
  0.0200
 0
VERTEX
 8
WIRE
 10
  0.8900
 20
  4.6000
 30
0.0
 42
1.0
 0
VERTEX
 8
WIRE
 10
  0.9100
 20
  4.6000
 30
0.0
 42
1.0
 0
SEQEND
 8
WIRE
 0
POLYLINE
 8
WIRE
 66
1
 10
0.0
 20
0.0
 30
0.0
 0
VERTEX
 8
WIRE
 10
  0.9000
 20
  3.7000
 30
0.0
 0
VERTEX
 8
WIRE
 10
  0.9000
 20
  3.6000
 30
0.0
 0
SEQEND
 8
WIRE
 0
POLYLINE
 8
WIRE
 66
1
 70
1
 10
0.0
 20
0.0
 30
0.0
 40
  0.0200
 41
  0.0200
 0
VERTEX
 8
WIRE
 10
  0.8900
 20
  3.7000
 30
0.0
 42
1.0
 0
VERTEX
 8
WIRE
 10
  0.9100
 20
  3.7000
 30
0.0
 42
1.0
 0
SEQEND
 8
WIRE
 0
POLYLINE
 8
WIRE
 66
1
 10
0.0
 20
0.0
 30
0.0
 0
VERTEX
 8
WIRE
 10
  0.9000
 20
  3.4000
 30
0.0
 0
VERTEX
 8
WIRE
 10
  0.9000
 20
  3.3000
 30
0.0
 0
SEQEND
 8
WIRE
 0
POLYLINE
 8
WIRE
 66
1
 70
1
 10
0.0
 20
0.0
 30
0.0
 40
  0.0200
 41
  0.0200
 0
VERTEX
 8
WIRE
 10
  0.8900
 20
  3.4000
 30
0.0
 42
1.0
 0
VERTEX
 8
WIRE
 10
  0.9100
 20
  3.4000
 30
0.0
 42
1.0
 0
SEQEND
 8
WIRE
 0
POLYLINE
 8
WIRE
 66
1
 10
0.0
 20
0.0
 30
0.0
 0
VERTEX
 8
WIRE
 10
  0.9000
 20
  3.1000
 30
0.0
 0
VERTEX
 8
WIRE
 10
  0.9000
 20
  3.0000
 30
0.0
 0
SEQEND
 8
WIRE
 0
POLYLINE
 8
WIRE
 66
1
 70
1
 10
0.0
 20
0.0
 30
0.0
 40
  0.0200
 41
  0.0200
 0
VERTEX
 8
WIRE
 10
  0.8900
 20
  3.1000
 30
0.0
 42
1.0
 0
VERTEX
 8
WIRE
 10
  0.9100
 20
  3.1000
 30
0.0
 42
1.0
 0
SEQEND
 8
WIRE
 0
POLYLINE
 8
WIRE
 66
1
 10
0.0
 20
0.0
 30
0.0
 0
VERTEX
 8
WIRE
 10
  0.9000
 20
  2.8000
 30
0.0
 0
VERTEX
 8
WIRE
 10
  0.9000
 20
  2.7000
 30
0.0
 0
SEQEND
 8
WIRE
 0
POLYLINE
 8
WIRE
 66
1
 70
1
 10
0.0
 20
0.0
 30
0.0
 40
  0.0200
 41
  0.0200
 0
VERTEX
 8
WIRE
 10
  0.8900
 20
  2.8000
 30
0.0
 42
1.0
 0
VERTEX
 8
WIRE
 10
  0.9100
 20
  2.8000
 30
0.0
 42
1.0
 0
SEQEND
 8
WIRE
 0
POLYLINE
 8
WIRE
 66
1
 10
0.0
 20
0.0
 30
0.0
 0
VERTEX
 8
WIRE
 10
  0.9000
 20
  1.9000
 30
0.0
 0
VERTEX
 8
WIRE
 10
  0.9000
 20
  1.8000
 30
0.0
 0
SEQEND
 8
WIRE
 0
POLYLINE
 8
WIRE
 66
1
 70
1
 10
0.0
 20
0.0
 30
0.0
 40
  0.0200
 41
  0.0200
 0
VERTEX
 8
WIRE
 10
  0.8900
 20
  1.9000
 30
0.0
 42
1.0
 0
VERTEX
 8
WIRE
 10
  0.9100
 20
  1.9000
 30
0.0
 42
1.0
 0
SEQEND
 8
WIRE
 0
POLYLINE
 8
WIRE
 66
1
 10
0.0
 20
0.0
 30
0.0
 0
VERTEX
 8
WIRE
 10
  1.4000
 20
  9.0000
 30
0.0
 0
VERTEX
 8
WIRE
 10
  1.4000
 20
  8.9000
 30
0.0
 0
SEQEND
 8
WIRE
 0
POLYLINE
 8
WIRE
 66
1
 10
0.0
 20
0.0
 30
0.0
 0
VERTEX
 8
WIRE
 10
  1.4000
 20
  8.7000
 30
0.0
 0
VERTEX
 8
WIRE
 10
  1.4000
 20
  8.6000
 30
0.0
 0
SEQEND
 8
WIRE
 0
POLYLINE
 8
WIRE
 66
1
 70
1
 10
0.0
 20
0.0
 30
0.0
 40
  0.0200
 41
  0.0200
 0
VERTEX
 8
WIRE
 10
  1.3900
 20
  8.7000
 30
0.0
 42
1.0
 0
VERTEX
 8
WIRE
 10
  1.4100
 20
  8.7000
 30
0.0
 42
1.0
 0
SEQEND
 8
WIRE
 0
POLYLINE
 8
WIRE
 66
1
 10
0.0
 20
0.0
 30
0.0
 0
VERTEX
 8
WIRE
 10
  1.4000
 20
  8.4000
 30
0.0
 0
VERTEX
 8
WIRE
 10
  1.4000
 20
  8.3000
 30
0.0
 0
SEQEND
 8
WIRE
 0
POLYLINE
 8
WIRE
 66
1
 10
0.0
 20
0.0
 30
0.0
 0
VERTEX
 8
WIRE
 10
  1.4000
 20
  8.1000
 30
0.0
 0
VERTEX
 8
WIRE
 10
  1.4000
 20
  8.0000
 30
0.0
 0
SEQEND
 8
WIRE
 0
POLYLINE
 8
WIRE
 66
1
 10
0.0
 20
0.0
 30
0.0
 0
VERTEX
 8
WIRE
 10
  1.4000
 20
  7.2000
 30
0.0
 0
VERTEX
 8
WIRE
 10
  1.4000
 20
  7.1000
 30
0.0
 0
SEQEND
 8
WIRE
 0
POLYLINE
 8
WIRE
 66
1
 70
1
 10
0.0
 20
0.0
 30
0.0
 40
  0.0200
 41
  0.0200
 0
VERTEX
 8
WIRE
 10
  1.3900
 20
  7.2000
 30
0.0
 42
1.0
 0
VERTEX
 8
WIRE
 10
  1.4100
 20
  7.2000
 30
0.0
 42
1.0
 0
SEQEND
 8
WIRE
 0
POLYLINE
 8
WIRE
 66
1
 10
0.0
 20
0.0
 30
0.0
 0
VERTEX
 8
WIRE
 10
  1.4000
 20
  6.9000
 30
0.0
 0
VERTEX
 8
WIRE
 10
  1.4000
 20
  6.8000
 30
0.0
 0
SEQEND
 8
WIRE
 0
POLYLINE
 8
WIRE
 66
1
 70
1
 10
0.0
 20
0.0
 30
0.0
 40
  0.0200
 41
  0.0200
 0
VERTEX
 8
WIRE
 10
  1.3900
 20
  6.9000
 30
0.0
 42
1.0
 0
VERTEX
 8
WIRE
 10
  1.4100
 20
  6.9000
 30
0.0
 42
1.0
 0
SEQEND
 8
WIRE
 0
POLYLINE
 8
WIRE
 66
1
 10
0.0
 20
0.0
 30
0.0
 0
VERTEX
 8
WIRE
 10
  1.4000
 20
  6.6000
 30
0.0
 0
VERTEX
 8
WIRE
 10
  1.4000
 20
  6.5000
 30
0.0
 0
SEQEND
 8
WIRE
 0
POLYLINE
 8
WIRE
 66
1
 10
0.0
 20
0.0
 30
0.0
 0
VERTEX
 8
WIRE
 10
  1.4000
 20
  6.3000
 30
0.0
 0
VERTEX
 8
WIRE
 10
  1.4000
 20
  6.2000
 30
0.0
 0
SEQEND
 8
WIRE
 0
POLYLINE
 8
WIRE
 66
1
 70
1
 10
0.0
 20
0.0
 30
0.0
 40
  0.0200
 41
  0.0200
 0
VERTEX
 8
WIRE
 10
  1.3900
 20
  6.3000
 30
0.0
 42
1.0
 0
VERTEX
 8
WIRE
 10
  1.4100
 20
  6.3000
 30
0.0
 42
1.0
 0
SEQEND
 8
WIRE
 0
POLYLINE
 8
WIRE
 66
1
 10
0.0
 20
0.0
 30
0.0
 0
VERTEX
 8
WIRE
 10
  1.4000
 20
  5.4000
 30
0.0
 0
VERTEX
 8
WIRE
 10
  1.4000
 20
  5.3000
 30
0.0
 0
SEQEND
 8
WIRE
 0
POLYLINE
 8
WIRE
 66
1
 10
0.0
 20
0.0
 30
0.0
 0
VERTEX
 8
WIRE
 10
  1.4000
 20
  5.1000
 30
0.0
 0
VERTEX
 8
WIRE
 10
  1.4000
 20
  5.0000
 30
0.0
 0
SEQEND
 8
WIRE
 0
POLYLINE
 8
WIRE
 66
1
 10
0.0
 20
0.0
 30
0.0
 0
VERTEX
 8
WIRE
 10
  1.4000
 20
  4.8000
 30
0.0
 0
VERTEX
 8
WIRE
 10
  1.4000
 20
  4.7000
 30
0.0
 0
SEQEND
 8
WIRE
 0
POLYLINE
 8
WIRE
 66
1
 70
1
 10
0.0
 20
0.0
 30
0.0
 40
  0.0200
 41
  0.0200
 0
VERTEX
 8
WIRE
 10
  1.3900
 20
  4.8000
 30
0.0
 42
1.0
 0
VERTEX
 8
WIRE
 10
  1.4100
 20
  4.8000
 30
0.0
 42
1.0
 0
SEQEND
 8
WIRE
 0
POLYLINE
 8
WIRE
 66
1
 10
0.0
 20
0.0
 30
0.0
 0
VERTEX
 8
WIRE
 10
  1.4000
 20
  4.5000
 30
0.0
 0
VERTEX
 8
WIRE
 10
  1.4000
 20
  4.4000
 30
0.0
 0
SEQEND
 8
WIRE
 0
POLYLINE
 8
WIRE
 66
1
 70
1
 10
0.0
 20
0.0
 30
0.0
 40
  0.0200
 41
  0.0200
 0
VERTEX
 8
WIRE
 10
  1.3900
 20
  4.5000
 30
0.0
 42
1.0
 0
VERTEX
 8
WIRE
 10
  1.4100
 20
  4.5000
 30
0.0
 42
1.0
 0
SEQEND
 8
WIRE
 0
POLYLINE
 8
WIRE
 66
1
 10
0.0
 20
0.0
 30
0.0
 0
VERTEX
 8
WIRE
 10
  1.4000
 20
  3.6000
 30
0.0
 0
VERTEX
 8
WIRE
 10
  1.4000
 20
  3.5000
 30
0.0
 0
SEQEND
 8
WIRE
 0
POLYLINE
 8
WIRE
 66
1
 70
1
 10
0.0
 20
0.0
 30
0.0
 40
  0.0200
 41
  0.0200
 0
VERTEX
 8
WIRE
 10
  1.3900
 20
  3.6000
 30
0.0
 42
1.0
 0
VERTEX
 8
WIRE
 10
  1.4100
 20
  3.6000
 30
0.0
 42
1.0
 0
SEQEND
 8
WIRE
 0
POLYLINE
 8
WIRE
 66
1
 10
0.0
 20
0.0
 30
0.0
 0
VERTEX
 8
WIRE
 10
  1.4000
 20
  3.3000
 30
0.0
 0
VERTEX
 8
WIRE
 10
  1.4000
 20
  3.2000
 30
0.0
 0
SEQEND
 8
WIRE
 0
POLYLINE
 8
WIRE
 66
1
 10
0.0
 20
0.0
 30
0.0
 0
VERTEX
 8
WIRE
 10
  1.4000
 20
  3.0000
 30
0.0
 0
VERTEX
 8
WIRE
 10
  1.4000
 20
  2.9000
 30
0.0
 0
SEQEND
 8
WIRE
 0
POLYLINE
 8
WIRE
 66
1
 70
1
 10
0.0
 20
0.0
 30
0.0
 40
  0.0200
 41
  0.0200
 0
VERTEX
 8
WIRE
 10
  1.3900
 20
  3.0000
 30
0.0
 42
1.0
 0
VERTEX
 8
WIRE
 10
  1.4100
 20
  3.0000
 30
0.0
 42
1.0
 0
SEQEND
 8
WIRE
 0
POLYLINE
 8
WIRE
 66
1
 10
0.0
 20
0.0
 30
0.0
 0
VERTEX
 8
WIRE
 10
  1.4000
 20
  2.7000
 30
0.0
 0
VERTEX
 8
WIRE
 10
  1.4000
 20
  2.6000
 30
0.0
 0
SEQEND
 8
WIRE
 0
POLYLINE
 8
WIRE
 66
1
 70
1
 10
0.0
 20
0.0
 30
0.0
 40
  0.0200
 41
  0.0200
 0
VERTEX
 8
WIRE
 10
  1.3900
 20
  2.7000
 30
0.0
 42
1.0
 0
VERTEX
 8
WIRE
 10
  1.4100
 20
  2.7000
 30
0.0
 42
1.0
 0
SEQEND
 8
WIRE
 0
POLYLINE
 8
WIRE
 66
1
 10
0.0
 20
0.0
 30
0.0
 0
VERTEX
 8
WIRE
 10
  1.4000
 20
  1.8000
 30
0.0
 0
VERTEX
 8
WIRE
 10
  1.4000
 20
  1.7000
 30
0.0
 0
SEQEND
 8
WIRE
 0
POLYLINE
 8
WIRE
 66
1
 10
0.0
 20
0.0
 30
0.0
 0
VERTEX
 8
WIRE
 10
  1.5000
 20
  7.9000
 30
0.0
 0
VERTEX
 8
WIRE
 10
  1.5000
 20
  7.8000
 30
0.0
 0
SEQEND
 8
WIRE
 0
POLYLINE
 8
WIRE
 66
1
 70
1
 10
0.0
 20
0.0
 30
0.0
 40
  0.0200
 41
  0.0200
 0
VERTEX
 8
WIRE
 10
  1.4900
 20
  7.8000
 30
0.0
 42
1.0
 0
VERTEX
 8
WIRE
 10
  1.5100
 20
  7.8000
 30
0.0
 42
1.0
 0
SEQEND
 8
WIRE
 0
POLYLINE
 8
WIRE
 66
1
 10
0.0
 20
0.0
 30
0.0
 0
VERTEX
 8
WIRE
 10
  1.5000
 20
  6.1000
 30
0.0
 0
VERTEX
 8
WIRE
 10
  1.5000
 20
  6.0000
 30
0.0
 0
SEQEND
 8
WIRE
 0
POLYLINE
 8
WIRE
 66
1
 70
1
 10
0.0
 20
0.0
 30
0.0
 40
  0.0200
 41
  0.0200
 0
VERTEX
 8
WIRE
 10
  1.4900
 20
  6.0000
 30
0.0
 42
1.0
 0
VERTEX
 8
WIRE
 10
  1.5100
 20
  6.0000
 30
0.0
 42
1.0
 0
SEQEND
 8
WIRE
 0
POLYLINE
 8
WIRE
 66
1
 10
0.0
 20
0.0
 30
0.0
 0
VERTEX
 8
WIRE
 10
  1.5000
 20
  4.3000
 30
0.0
 0
VERTEX
 8
WIRE
 10
  1.5000
 20
  4.2000
 30
0.0
 0
SEQEND
 8
WIRE
 0
POLYLINE
 8
WIRE
 66
1
 70
1
 10
0.0
 20
0.0
 30
0.0
 40
  0.0200
 41
  0.0200
 0
VERTEX
 8
WIRE
 10
  1.4900
 20
  4.2000
 30
0.0
 42
1.0
 0
VERTEX
 8
WIRE
 10
  1.5100
 20
  4.2000
 30
0.0
 42
1.0
 0
SEQEND
 8
WIRE
 0
POLYLINE
 8
WIRE
 66
1
 10
0.0
 20
0.0
 30
0.0
 0
VERTEX
 8
WIRE
 10
  1.5000
 20
  2.5000
 30
0.0
 0
VERTEX
 8
WIRE
 10
  1.5000
 20
  2.4000
 30
0.0
 0
SEQEND
 8
WIRE
 0
POLYLINE
 8
WIRE
 66
1
 70
1
 10
0.0
 20
0.0
 30
0.0
 40
  0.0200
 41
  0.0200
 0
VERTEX
 8
WIRE
 10
  1.4900
 20
  2.4000
 30
0.0
 42
1.0
 0
VERTEX
 8
WIRE
 10
  1.5100
 20
  2.4000
 30
0.0
 42
1.0
 0
SEQEND
 8
WIRE
 0
POLYLINE
 8
WIRE
 66
1
 10
0.0
 20
0.0
 30
0.0
 0
VERTEX
 8
WIRE
 10
  1.5000
 20
  0.7000
 30
0.0
 0
VERTEX
 8
WIRE
 10
  1.5000
 20
  0.6000
 30
0.0
 0
SEQEND
 8
WIRE
 0
POLYLINE
 8
WIRE
 66
1
 70
1
 10
0.0
 20
0.0
 30
0.0
 40
  0.0200
 41
  0.0200
 0
VERTEX
 8
WIRE
 10
  1.4900
 20
  0.6000
 30
0.0
 42
1.0
 0
VERTEX
 8
WIRE
 10
  1.5100
 20
  0.6000
 30
0.0
 42
1.0
 0
SEQEND
 8
WIRE
 0
POLYLINE
 8
WIRE
 66
1
 10
0.0
 20
0.0
 30
0.0
 0
VERTEX
 8
WIRE
 10
  3.6000
 20
  6.3000
 30
0.0
 0
VERTEX
 8
WIRE
 10
  3.6000
 20
  1.9000
 30
0.0
 0
SEQEND
 8
WIRE
 0
POLYLINE
 8
WIRE
 66
1
 10
0.0
 20
0.0
 30
0.0
 0
VERTEX
 8
WIRE
 10
  4.6000
 20
  7.2000
 30
0.0
 0
VERTEX
 8
WIRE
 10
  4.6000
 20
  2.2000
 30
0.0
 0
SEQEND
 8
WIRE
 0
POLYLINE
 8
WIRE
 66
1
 10
0.0
 20
0.0
 30
0.0
 0
VERTEX
 8
WIRE
 10
  4.7000
 20
  2.7000
 30
0.0
 0
VERTEX
 8
WIRE
 10
  4.7000
 20
  0.6000
 30
0.0
 0
SEQEND
 8
WIRE
 0
POLYLINE
 8
WIRE
 66
1
 70
1
 10
0.0
 20
0.0
 30
0.0
 40
  0.0200
 41
  0.0200
 0
VERTEX
 8
WIRE
 10
  4.6900
 20
  0.6000
 30
0.0
 42
1.0
 0
VERTEX
 8
WIRE
 10
  4.7100
 20
  0.6000
 30
0.0
 42
1.0
 0
SEQEND
 8
WIRE
 0
POLYLINE
 8
WIRE
 66
1
 10
0.0
 20
0.0
 30
0.0
 0
VERTEX
 8
WIRE
 10
  5.7000
 20
  3.4000
 30
0.0
 0
VERTEX
 8
WIRE
 10
  5.7000
 20
  2.7000
 30
0.0
 0
SEQEND
 8
WIRE
 0
POLYLINE
 8
WIRE
 66
1
 70
1
 10
0.0
 20
0.0
 30
0.0
 40
  0.0200
 41
  0.0200
 0
VERTEX
 8
WIRE
 10
  5.6900
 20
  2.7000
 30
0.0
 42
1.0
 0
VERTEX
 8
WIRE
 10
  5.7100
 20
  2.7000
 30
0.0
 42
1.0
 0
SEQEND
 8
WIRE
 0
POLYLINE
 8
WIRE
 66
1
 10
0.0
 20
0.0
 30
0.0
 0
VERTEX
 8
WIRE
 10
  5.7000
 20
  1.3000
 30
0.0
 0
VERTEX
 8
WIRE
 10
  5.7000
 20
  0.6000
 30
0.0
 0
SEQEND
 8
WIRE
 0
POLYLINE
 8
WIRE
 66
1
 70
1
 10
0.0
 20
0.0
 30
0.0
 40
  0.0200
 41
  0.0200
 0
VERTEX
 8
WIRE
 10
  5.6900
 20
  0.6000
 30
0.0
 42
1.0
 0
VERTEX
 8
WIRE
 10
  5.7100
 20
  0.6000
 30
0.0
 42
1.0
 0
SEQEND
 8
WIRE
 0
POLYLINE
 8
WIRE
 66
1
 10
0.0
 20
0.0
 30
0.0
 0
VERTEX
 8
WIRE
 10
  5.8000
 20
  7.3000
 30
0.0
 0
VERTEX
 8
WIRE
 10
  5.8000
 20
  6.4000
 30
0.0
 0
SEQEND
 8
WIRE
 0
POLYLINE
 8
WIRE
 66
1
 10
0.0
 20
0.0
 30
0.0
 0
VERTEX
 8
WIRE
 10
  5.8000
 20
  6.3000
 30
0.0
 0
VERTEX
 8
WIRE
 10
  5.8000
 20
  6.0000
 30
0.0
 0
SEQEND
 8
WIRE
 0
POLYLINE
 8
WIRE
 66
1
 10
0.0
 20
0.0
 30
0.0
 0
VERTEX
 8
WIRE
 10
  6.0000
 20
  8.2000
 30
0.0
 0
VERTEX
 8
WIRE
 10
  6.0000
 20
  8.1000
 30
0.0
 0
SEQEND
 8
WIRE
 0
POLYLINE
 8
WIRE
 66
1
 70
1
 10
0.0
 20
0.0
 30
0.0
 40
  0.0200
 41
  0.0200
 0
VERTEX
 8
WIRE
 10
  5.9900
 20
  8.1000
 30
0.0
 42
1.0
 0
VERTEX
 8
WIRE
 10
  6.0100
 20
  8.1000
 30
0.0
 42
1.0
 0
SEQEND
 8
WIRE
 0
POLYLINE
 8
WIRE
 66
1
 10
0.0
 20
0.0
 30
0.0
 0
VERTEX
 8
WIRE
 10
  6.0000
 20
  7.1000
 30
0.0
 0
VERTEX
 8
WIRE
 10
  6.0000
 20
  7.0000
 30
0.0
 0
SEQEND
 8
WIRE
 0
POLYLINE
 8
WIRE
 66
1
 70
1
 10
0.0
 20
0.0
 30
0.0
 40
  0.0200
 41
  0.0200
 0
VERTEX
 8
WIRE
 10
  5.9900
 20
  7.0000
 30
0.0
 42
1.0
 0
VERTEX
 8
WIRE
 10
  6.0100
 20
  7.0000
 30
0.0
 42
1.0
 0
SEQEND
 8
WIRE
 0
POLYLINE
 8
WIRE
 66
1
 10
0.0
 20
0.0
 30
0.0
 0
VERTEX
 8
WIRE
 10
  6.1000
 20
  5.4000
 30
0.0
 0
VERTEX
 8
WIRE
 10
  6.1000
 20
  5.3000
 30
0.0
 0
SEQEND
 8
WIRE
 0
POLYLINE
 8
WIRE
 66
1
 70
1
 10
0.0
 20
0.0
 30
0.0
 40
  0.0200
 41
  0.0200
 0
VERTEX
 8
WIRE
 10
  6.0900
 20
  5.3000
 30
0.0
 42
1.0
 0
VERTEX
 8
WIRE
 10
  6.1100
 20
  5.3000
 30
0.0
 42
1.0
 0
SEQEND
 8
WIRE
 0
POLYLINE
 8
WIRE
 66
1
 10
0.0
 20
0.0
 30
0.0
 0
VERTEX
 8
WIRE
 10
  6.7000
 20
  3.3000
 30
0.0
 0
VERTEX
 8
WIRE
 10
  6.7000
 20
  2.7000
 30
0.0
 0
SEQEND
 8
WIRE
 0
POLYLINE
 8
WIRE
 66
1
 70
1
 10
0.0
 20
0.0
 30
0.0
 40
  0.0200
 41
  0.0200
 0
VERTEX
 8
WIRE
 10
  6.6900
 20
  2.7000
 30
0.0
 42
1.0
 0
VERTEX
 8
WIRE
 10
  6.7100
 20
  2.7000
 30
0.0
 42
1.0
 0
SEQEND
 8
WIRE
 0
POLYLINE
 8
WIRE
 66
1
 10
0.0
 20
0.0
 30
0.0
 0
VERTEX
 8
WIRE
 10
  6.7000
 20
  1.2000
 30
0.0
 0
VERTEX
 8
WIRE
 10
  6.7000
 20
  0.6000
 30
0.0
 0
SEQEND
 8
WIRE
 0
POLYLINE
 8
WIRE
 66
1
 70
1
 10
0.0
 20
0.0
 30
0.0
 40
  0.0200
 41
  0.0200
 0
VERTEX
 8
WIRE
 10
  6.6900
 20
  0.6000
 30
0.0
 42
1.0
 0
VERTEX
 8
WIRE
 10
  6.7100
 20
  0.6000
 30
0.0
 42
1.0
 0
SEQEND
 8
WIRE
 0
POLYLINE
 8
WIRE
 66
1
 10
0.0
 20
0.0
 30
0.0
 0
VERTEX
 8
WIRE
 10
  7.5000
 20
  6.4000
 30
0.0
 0
VERTEX
 8
WIRE
 10
  7.5000
 20
  6.1000
 30
0.0
 0
SEQEND
 8
WIRE
 0
POLYLINE
 8
WIRE
 66
1
 10
0.0
 20
0.0
 30
0.0
 0
VERTEX
 8
WIRE
 10
  7.6000
 20
  3.4000
 30
0.0
 0
VERTEX
 8
WIRE
 10
  7.6000
 20
  3.3000
 30
0.0
 0
SEQEND
 8
WIRE
 0
POLYLINE
 8
WIRE
 66
1
 10
0.0
 20
0.0
 30
0.0
 0
VERTEX
 8
WIRE
 10
  7.6000
 20
  1.3000
 30
0.0
 0
VERTEX
 8
WIRE
 10
  7.6000
 20
  1.2000
 30
0.0
 0
SEQEND
 8
WIRE
 0
POLYLINE
 8
WIRE
 66
1
 10
0.0
 20
0.0
 30
0.0
 0
VERTEX
 8
WIRE
 10
  7.7000
 20
  3.4000
 30
0.0
 0
VERTEX
 8
WIRE
 10
  7.7000
 20
  2.7000
 30
0.0
 0
SEQEND
 8
WIRE
 0
POLYLINE
 8
WIRE
 66
1
 70
1
 10
0.0
 20
0.0
 30
0.0
 40
  0.0200
 41
  0.0200
 0
VERTEX
 8
WIRE
 10
  7.6900
 20
  2.7000
 30
0.0
 42
1.0
 0
VERTEX
 8
WIRE
 10
  7.7100
 20
  2.7000
 30
0.0
 42
1.0
 0
SEQEND
 8
WIRE
 0
POLYLINE
 8
WIRE
 66
1
 10
0.0
 20
0.0
 30
0.0
 0
VERTEX
 8
WIRE
 10
  7.7000
 20
  1.3000
 30
0.0
 0
VERTEX
 8
WIRE
 10
  7.7000
 20
  0.6000
 30
0.0
 0
SEQEND
 8
WIRE
 0
POLYLINE
 8
WIRE
 66
1
 70
1
 10
0.0
 20
0.0
 30
0.0
 40
  0.0200
 41
  0.0200
 0
VERTEX
 8
WIRE
 10
  7.6900
 20
  0.6000
 30
0.0
 42
1.0
 0
VERTEX
 8
WIRE
 10
  7.7100
 20
  0.6000
 30
0.0
 42
1.0
 0
SEQEND
 8
WIRE
 0
POLYLINE
 8
WIRE
 66
1
 10
0.0
 20
0.0
 30
0.0
 0
VERTEX
 8
WIRE
 10
  7.8000
 20
  3.4000
 30
0.0
 0
VERTEX
 8
WIRE
 10
  7.8000
 20
  3.1000
 30
0.0
 0
SEQEND
 8
WIRE
 0
POLYLINE
 8
WIRE
 66
1
 10
0.0
 20
0.0
 30
0.0
 0
VERTEX
 8
WIRE
 10
  7.8000
 20
  1.3000
 30
0.0
 0
VERTEX
 8
WIRE
 10
  7.8000
 20
  1.0000
 30
0.0
 0
SEQEND
 8
WIRE
 0
POLYLINE
 8
WIRE
 66
1
 10
0.0
 20
0.0
 30
0.0
 0
VERTEX
 8
WIRE
 10
  7.9000
 20
  3.4000
 30
0.0
 0
VERTEX
 8
WIRE
 10
  7.9000
 20
  3.2000
 30
0.0
 0
SEQEND
 8
WIRE
 0
POLYLINE
 8
WIRE
 66
1
 10
0.0
 20
0.0
 30
0.0
 0
VERTEX
 8
WIRE
 10
  7.9000
 20
  1.3000
 30
0.0
 0
VERTEX
 8
WIRE
 10
  7.9000
 20
  1.1000
 30
0.0
 0
SEQEND
 8
WIRE
 0
POLYLINE
 8
WIRE
 66
1
 10
0.0
 20
0.0
 30
0.0
 0
VERTEX
 8
WIRE
 10
  8.0000
 20
  3.4000
 30
0.0
 0
VERTEX
 8
WIRE
 10
  8.0000
 20
  3.3000
 30
0.0
 0
SEQEND
 8
WIRE
 0
POLYLINE
 8
WIRE
 66
1
 10
0.0
 20
0.0
 30
0.0
 0
VERTEX
 8
WIRE
 10
  8.0000
 20
  1.3000
 30
0.0
 0
VERTEX
 8
WIRE
 10
  8.0000
 20
  1.2000
 30
0.0
 0
SEQEND
 8
WIRE
 0
POLYLINE
 8
WIRE
 66
1
 10
0.0
 20
0.0
 30
0.0
 0
VERTEX
 8
WIRE
 10
  8.1000
 20
  7.3000
 30
0.0
 0
VERTEX
 8
WIRE
 10
  8.1000
 20
  6.0000
 30
0.0
 0
SEQEND
 8
WIRE
 0
POLYLINE
 8
WIRE
 66
1
 10
0.0
 20
0.0
 30
0.0
 0
VERTEX
 8
WIRE
 10
  8.2000
 20
  7.2000
 30
0.0
 0
VERTEX
 8
WIRE
 10
  8.2000
 20
  4.3000
 30
0.0
 0
SEQEND
 8
WIRE
 0
POLYLINE
 8
WIRE
 66
1
 10
0.0
 20
0.0
 30
0.0
 0
VERTEX
 8
WIRE
 10
  8.7000
 20
  3.1000
 30
0.0
 0
VERTEX
 8
WIRE
 10
  8.7000
 20
  2.7000
 30
0.0
 0
SEQEND
 8
WIRE
 0
POLYLINE
 8
WIRE
 66
1
 70
1
 10
0.0
 20
0.0
 30
0.0
 40
  0.0200
 41
  0.0200
 0
VERTEX
 8
WIRE
 10
  8.6900
 20
  2.7000
 30
0.0
 42
1.0
 0
VERTEX
 8
WIRE
 10
  8.7100
 20
  2.7000
 30
0.0
 42
1.0
 0
SEQEND
 8
WIRE
 0
POLYLINE
 8
WIRE
 66
1
 10
0.0
 20
0.0
 30
0.0
 0
VERTEX
 8
WIRE
 10
  8.7000
 20
  1.0000
 30
0.0
 0
VERTEX
 8
WIRE
 10
  8.7000
 20
  0.6000
 30
0.0
 0
SEQEND
 8
WIRE
 0
POLYLINE
 8
WIRE
 66
1
 70
1
 10
0.0
 20
0.0
 30
0.0
 40
  0.0200
 41
  0.0200
 0
VERTEX
 8
WIRE
 10
  8.6900
 20
  0.6000
 30
0.0
 42
1.0
 0
VERTEX
 8
WIRE
 10
  8.7100
 20
  0.6000
 30
0.0
 42
1.0
 0
SEQEND
 8
WIRE
 0
POLYLINE
 8
WIRE
 66
1
 10
0.0
 20
0.0
 30
0.0
 0
VERTEX
 8
WIRE
 10
  9.1000
 20
  8.3000
 30
0.0
 0
VERTEX
 8
WIRE
 10
  9.1000
 20
  8.2000
 30
0.0
 0
SEQEND
 8
WIRE
 0
POLYLINE
 8
WIRE
 66
1
 70
1
 10
0.0
 20
0.0
 30
0.0
 40
  0.0200
 41
  0.0200
 0
VERTEX
 8
WIRE
 10
  9.0900
 20
  8.2000
 30
0.0
 42
1.0
 0
VERTEX
 8
WIRE
 10
  9.1100
 20
  8.2000
 30
0.0
 42
1.0
 0
SEQEND
 8
WIRE
 0
POLYLINE
 8
WIRE
 66
1
 10
0.0
 20
0.0
 30
0.0
 0
VERTEX
 8
WIRE
 10
  9.1000
 20
  7.1000
 30
0.0
 0
VERTEX
 8
WIRE
 10
  9.1000
 20
  7.0000
 30
0.0
 0
SEQEND
 8
WIRE
 0
POLYLINE
 8
WIRE
 66
1
 70
1
 10
0.0
 20
0.0
 30
0.0
 40
  0.0200
 41
  0.0200
 0
VERTEX
 8
WIRE
 10
  9.0900
 20
  7.0000
 30
0.0
 42
1.0
 0
VERTEX
 8
WIRE
 10
  9.1100
 20
  7.0000
 30
0.0
 42
1.0
 0
SEQEND
 8
WIRE
 0
POLYLINE
 8
WIRE
 66
1
 10
0.0
 20
0.0
 30
0.0
 0
VERTEX
 8
WIRE
 10
  9.1000
 20
  5.9000
 30
0.0
 0
VERTEX
 8
WIRE
 10
  9.1000
 20
  5.6000
 30
0.0
 0
SEQEND
 8
WIRE
 0
POLYLINE
 8
WIRE
 66
1
 10
0.0
 20
0.0
 30
0.0
 0
VERTEX
 8
WIRE
 10
  9.1000
 20
  5.4000
 30
0.0
 0
VERTEX
 8
WIRE
 10
  9.1000
 20
  5.3000
 30
0.0
 0
SEQEND
 8
WIRE
 0
POLYLINE
 8
WIRE
 66
1
 10
0.0
 20
0.0
 30
0.0
 0
VERTEX
 8
WIRE
 10
  9.7000
 20
  5.0000
 30
0.0
 0
VERTEX
 8
WIRE
 10
  9.7000
 20
  4.7000
 30
0.0
 0
SEQEND
 8
WIRE
 0
POLYLINE
 8
WIRE
 66
1
 10
0.0
 20
0.0
 30
0.0
 0
VERTEX
 8
WIRE
 10
  9.7000
 20
  3.2000
 30
0.0
 0
VERTEX
 8
WIRE
 10
  9.7000
 20
  2.7000
 30
0.0
 0
SEQEND
 8
WIRE
 0
POLYLINE
 8
WIRE
 66
1
 70
1
 10
0.0
 20
0.0
 30
0.0
 40
  0.0200
 41
  0.0200
 0
VERTEX
 8
WIRE
 10
  9.6900
 20
  2.7000
 30
0.0
 42
1.0
 0
VERTEX
 8
WIRE
 10
  9.7100
 20
  2.7000
 30
0.0
 42
1.0
 0
SEQEND
 8
WIRE
 0
POLYLINE
 8
WIRE
 66
1
 10
0.0
 20
0.0
 30
0.0
 0
VERTEX
 8
WIRE
 10
  9.7000
 20
  1.1000
 30
0.0
 0
VERTEX
 8
WIRE
 10
  9.7000
 20
  0.6000
 30
0.0
 0
SEQEND
 8
WIRE
 0
POLYLINE
 8
WIRE
 66
1
 70
1
 10
0.0
 20
0.0
 30
0.0
 40
  0.0200
 41
  0.0200
 0
VERTEX
 8
WIRE
 10
  9.6900
 20
  0.6000
 30
0.0
 42
1.0
 0
VERTEX
 8
WIRE
 10
  9.7100
 20
  0.6000
 30
0.0
 42
1.0
 0
SEQEND
 8
WIRE
 0
POLYLINE
 8
WIRE
 66
1
 10
0.0
 20
0.0
 30
0.0
 0
VERTEX
 8
WIRE
 10
 10.4000
 20
  5.5000
 30
0.0
 0
VERTEX
 8
WIRE
 10
 10.4000
 20
  5.0000
 30
0.0
 0
SEQEND
 8
WIRE
 0
POLYLINE
 8
WIRE
 66
1
 10
0.0
 20
0.0
 30
0.0
 0
VERTEX
 8
WIRE
 10
 10.7000
 20
  3.3000
 30
0.0
 0
VERTEX
 8
WIRE
 10
 10.7000
 20
  2.7000
 30
0.0
 0
SEQEND
 8
WIRE
 0
POLYLINE
 8
WIRE
 66
1
 10
0.0
 20
0.0
 30
0.0
 0
VERTEX
 8
WIRE
 10
 10.7000
 20
  1.2000
 30
0.0
 0
VERTEX
 8
WIRE
 10
 10.7000
 20
  0.6000
 30
0.0
 0
SEQEND
 8
WIRE
 0
POLYLINE
 8
WIRE
 66
1
 10
0.0
 20
0.0
 30
0.0
 0
VERTEX
 8
WIRE
 10
 10.9000
 20
  6.3000
 30
0.0
 0
VERTEX
 8
WIRE
 10
 10.9000
 20
  6.2000
 30
0.0
 0
SEQEND
 8
WIRE
 0
TEXT
 8
WIRETEXT
 10
 10.9000
 20
  6.2300
 30
0.0
 40
  0.0514
 1
PU
 0
POLYLINE
 8
WIRE
 66
1
 10
0.0
 20
0.0
 30
0.0
 0
VERTEX
 8
WIRE
 10
 10.9000
 20
  5.0000
 30
0.0
 0
VERTEX
 8
WIRE
 10
 10.9000
 20
  4.6000
 30
0.0
 0
SEQEND
 8
WIRE
 0
POLYLINE
 8
WIRE
 66
1
 10
0.0
 20
0.0
 30
0.0
 0
VERTEX
 8
WIRE
 10
 11.8000
 20
  6.9000
 30
0.0
 0
VERTEX
 8
WIRE
 10
 11.8000
 20
  5.8000
 30
0.0
 0
SEQEND
 8
WIRE
 0
POLYLINE
 8
WIRE
 66
1
 70
1
 10
0.0
 20
0.0
 30
0.0
 40
  0.0200
 41
  0.0200
 0
VERTEX
 8
WIRE
 10
 11.7900
 20
  5.8000
 30
0.0
 42
1.0
 0
VERTEX
 8
WIRE
 10
 11.8100
 20
  5.8000
 30
0.0
 42
1.0
 0
SEQEND
 8
WIRE
 0
POLYLINE
 8
WIRE
 66
1
 10
0.0
 20
0.0
 30
0.0
 0
VERTEX
 8
WIRE
 10
 12.1000
 20
  5.8000
 30
0.0
 0
VERTEX
 8
WIRE
 10
 12.1000
 20
  5.5000
 30
0.0
 0
SEQEND
 8
WIRE
 0
POLYLINE
 8
WIRE
 66
1
 10
0.0
 20
0.0
 30
0.0
 0
VERTEX
 8
WIRE
 10
 12.3000
 20
  4.0000
 30
0.0
 0
VERTEX
 8
WIRE
 10
 12.3000
 20
  3.9000
 30
0.0
 0
SEQEND
 8
WIRE
 0
TEXT
 8
WIRETEXT
 10
 12.3000
 20
  3.9300
 30
0.0
 40
  0.0514
 1
PU
 0
POLYLINE
 8
WIRE
 66
1
 10
0.0
 20
0.0
 30
0.0
 0
VERTEX
 8
WIRE
 10
 12.3000
 20
  2.7000
 30
0.0
 0
VERTEX
 8
WIRE
 10
 12.3000
 20
  2.6000
 30
0.0
 0
SEQEND
 8
WIRE
 0
TEXT
 8
WIRETEXT
 10
 12.3000
 20
  2.6300
 30
0.0
 40
  0.0514
 1
PU
 0
POLYLINE
 8
WIRE
 66
1
 10
0.0
 20
0.0
 30
0.0
 0
VERTEX
 8
WIRE
 10
 12.7000
 20
  6.6000
 30
0.0
 0
VERTEX
 8
WIRE
 10
 12.7000
 20
  6.0000
 30
0.0
 0
SEQEND
 8
WIRE
 0
POLYLINE
 8
WIRE
 66
1
 10
0.0
 20
0.0
 30
0.0
 0
VERTEX
 8
WIRE
 10
 12.9000
 20
  8.6000
 30
0.0
 0
VERTEX
 8
WIRE
 10
 12.9000
 20
  8.5000
 30
0.0
 0
SEQEND
 8
WIRE
 0
POLYLINE
 8
WIRE
 66
1
 10
0.0
 20
0.0
 30
0.0
 0
VERTEX
 8
WIRE
 10
 13.0000
 20
  8.1000
 30
0.0
 0
VERTEX
 8
WIRE
 10
 13.0000
 20
  8.0000
 30
0.0
 0
SEQEND
 8
WIRE
 0
POLYLINE
 8
WIRE
 66
1
 70
1
 10
0.0
 20
0.0
 30
0.0
 40
  0.0200
 41
  0.0200
 0
VERTEX
 8
WIRE
 10
 12.9900
 20
  8.0000
 30
0.0
 42
1.0
 0
VERTEX
 8
WIRE
 10
 13.0100
 20
  8.0000
 30
0.0
 42
1.0
 0
SEQEND
 8
WIRE
 0
POLYLINE
 8
WIRE
 66
1
 10
0.0
 20
0.0
 30
0.0
 0
VERTEX
 8
WIRE
 10
 13.0000
 20
  6.4000
 30
0.0
 0
VERTEX
 8
WIRE
 10
 13.0000
 20
  6.3000
 30
0.0
 0
SEQEND
 8
WIRE
 0
POLYLINE
 8
WIRE
 66
1
 70
1
 10
0.0
 20
0.0
 30
0.0
 40
  0.0200
 41
  0.0200
 0
VERTEX
 8
WIRE
 10
 12.9900
 20
  6.3000
 30
0.0
 42
1.0
 0
VERTEX
 8
WIRE
 10
 13.0100
 20
  6.3000
 30
0.0
 42
1.0
 0
SEQEND
 8
WIRE
 0
POLYLINE
 8
WIRE
 66
1
 10
0.0
 20
0.0
 30
0.0
 0
VERTEX
 8
WIRE
 10
 13.3000
 20
  5.4000
 30
0.0
 0
VERTEX
 8
WIRE
 10
 13.3000
 20
  5.2000
 30
0.0
 0
SEQEND
 8
WIRE
 0
POLYLINE
 8
WIRE
 66
1
 10
0.0
 20
0.0
 30
0.0
 0
VERTEX
 8
WIRE
 10
 13.3000
 20
  5.0000
 30
0.0
 0
VERTEX
 8
WIRE
 10
 13.3000
 20
  4.7000
 30
0.0
 0
SEQEND
 8
WIRE
 0
POLYLINE
 8
WIRE
 66
1
 10
0.0
 20
0.0
 30
0.0
 0
VERTEX
 8
WIRE
 10
 13.8000
 20
  2.9000
 30
0.0
 0
VERTEX
 8
WIRE
 10
 13.8000
 20
  2.8000
 30
0.0
 0
SEQEND
 8
WIRE
 0
POLYLINE
 8
WIRE
 66
1
 10
0.0
 20
0.0
 30
0.0
 0
VERTEX
 8
WIRE
 10
 13.8000
 20
  2.6000
 30
0.0
 0
VERTEX
 8
WIRE
 10
 13.8000
 20
  2.5000
 30
0.0
 0
SEQEND
 8
WIRE
 0
POLYLINE
 8
WIRE
 66
1
 10
0.0
 20
0.0
 30
0.0
 0
VERTEX
 8
WIRE
 10
 13.9000
 20
  4.4000
 30
0.0
 0
VERTEX
 8
WIRE
 10
 13.9000
 20
  4.3000
 30
0.0
 0
SEQEND
 8
WIRE
 0
TEXT
 8
WIRETEXT
 10
 13.9000
 20
  4.3300
 30
0.0
 40
  0.0514
 1
PU
 0
POLYLINE
 8
WIRE
 66
1
 10
0.0
 20
0.0
 30
0.0
 0
VERTEX
 8
WIRE
 10
 14.6000
 20
  5.8000
 30
0.0
 0
VERTEX
 8
WIRE
 10
 14.6000
 20
  5.2000
 30
0.0
 0
SEQEND
 8
WIRE
 0
POLYLINE
 8
WIRE
 66
1
 10
0.0
 20
0.0
 30
0.0
 0
VERTEX
 8
WIRE
 10
 14.7000
 20
  6.0000
 30
0.0
 0
VERTEX
 8
WIRE
 10
 14.7000
 20
  4.8000
 30
0.0
 0
SEQEND
 8
WIRE
 0
POLYLINE
 8
WIRE
 66
1
 10
0.0
 20
0.0
 30
0.0
 40
  0.0200
 41
  0.0200
 0
VERTEX
 8
WIRE
 10
  5.6000
 20
  6.1000
 30
0.0
 0
VERTEX
 8
WIRE
 10
  5.6000
 20
  5.6000
 30
0.0
 0
SEQEND
 8
WIRE
 0
POLYLINE
 8
WIRE
 66
1
 10
0.0
 20
0.0
 30
0.0
 0
VERTEX
 8
WIRE
 10
 11.8000
 20
  5.8000
 30
0.0
 0
VERTEX
 8
WIRE
 10
 11.8000
 20
  5.3000
 30
0.0
 0
SEQEND
 8
WIRE
 0
POLYLINE
 8
WIRE
 66
1
 10
0.0
 20
0.0
 30
0.0
 40
  0.0200
 41
  0.0200
 0
VERTEX
 8
WIRE
 10
  3.3000
 20
  9.4000
 30
0.0
 0
VERTEX
 8
WIRE
 10
  3.2000
 20
  9.3000
 30
0.0
 0
SEQEND
 8
WIRE
 0
POLYLINE
 8
WIRE
 66
1
 10
0.0
 20
0.0
 30
0.0
 40
  0.0200
 41
  0.0200
 0
VERTEX
 8
WIRE
 10
  0.3000
 20
  9.5000
 30
0.0
 0
VERTEX
 8
WIRE
 10
  0.2000
 20
  9.4000
 30
0.0
 0
SEQEND
 8
WIRE
 0
POLYLINE
 8
WIRE
 66
1
 10
0.0
 20
0.0
 30
0.0
 40
  0.0200
 41
  0.0200
 0
VERTEX
 8
WIRE
 10
 14.8000
 20
  9.4000
 30
0.0
 0
VERTEX
 8
WIRE
 10
 14.7000
 20
  9.5000
 30
0.0
 0
SEQEND
 8
WIRE
 0
POLYLINE
 8
WIRE
 66
1
 10
0.0
 20
0.0
 30
0.0
 40
  0.0200
 41
  0.0200
 0
VERTEX
 8
WIRE
 10
  5.6000
 20
  6.1000
 30
0.0
 0
VERTEX
 8
WIRE
 10
  5.5000
 20
  6.2000
 30
0.0
 0
SEQEND
 8
WIRE
 0
POLYLINE
 8
WIRE
 66
1
 10
0.0
 20
0.0
 30
0.0
 40
  0.0200
 41
  0.0200
 0
VERTEX
 8
WIRE
 10
  3.2000
 20
  9.3000
 30
0.0
 0
VERTEX
 8
WIRE
 10
  3.2000
 20
  2.9000
 30
0.0
 0
SEQEND
 8
WIRE
 0
POLYLINE
 8
WIRE
 66
1
 10
0.0
 20
0.0
 30
0.0
 40
  0.0200
 41
  0.0200
 0
VERTEX
 8
WIRE
 10
 14.8000
 20
  7.6000
 30
0.0
 0
VERTEX
 8
WIRE
 10
 14.8000
 20
  6.6000
 30
0.0
 0
SEQEND
 8
WIRE
 0
POLYLINE
 8
WIRE
 66
1
 10
0.0
 20
0.0
 30
0.0
 40
  0.0200
 41
  0.0200
 0
VERTEX
 8
WIRE
 10
 14.8000
 20
  9.4000
 30
0.0
 0
VERTEX
 8
WIRE
 10
 14.8000
 20
  7.6000
 30
0.0
 0
SEQEND
 8
WIRE
 0
POLYLINE
 8
WIRE
 66
1
 10
0.0
 20
0.0
 30
0.0
 40
  0.0200
 41
  0.0200
 0
VERTEX
 8
WIRE
 10
  0.2000
 20
  8.2000
 30
0.0
 0
VERTEX
 8
WIRE
 10
  0.2000
 20
  7.4000
 30
0.0
 0
SEQEND
 8
WIRE
 0
POLYLINE
 8
WIRE
 66
1
 10
0.0
 20
0.0
 30
0.0
 40
  0.0200
 41
  0.0200
 0
VERTEX
 8
WIRE
 10
  0.2000
 20
  3.7000
 30
0.0
 0
VERTEX
 8
WIRE
 10
  0.2000
 20
  1.9000
 30
0.0
 0
SEQEND
 8
WIRE
 0
POLYLINE
 8
WIRE
 66
1
 10
0.0
 20
0.0
 30
0.0
 40
  0.0200
 41
  0.0200
 0
VERTEX
 8
WIRE
 10
  0.2000
 20
  7.4000
 30
0.0
 0
VERTEX
 8
WIRE
 10
  0.2000
 20
  3.7000
 30
0.0
 0
SEQEND
 8
WIRE
 0
POLYLINE
 8
WIRE
 66
1
 10
0.0
 20
0.0
 30
0.0
 40
  0.0200
 41
  0.0200
 0
VERTEX
 8
WIRE
 10
  0.2000
 20
  8.3000
 30
0.0
 0
VERTEX
 8
WIRE
 10
  0.2000
 20
  8.2000
 30
0.0
 0
SEQEND
 8
WIRE
 0
POLYLINE
 8
WIRE
 66
1
 10
0.0
 20
0.0
 30
0.0
 40
  0.0200
 41
  0.0200
 0
VERTEX
 8
WIRE
 10
  0.2000
 20
  9.4000
 30
0.0
 0
VERTEX
 8
WIRE
 10
  0.2000
 20
  8.3000
 30
0.0
 0
SEQEND
 8
WIRE
 0
POLYLINE
 8
WIRE
 66
1
 10
0.0
 20
0.0
 30
0.0
 40
  0.0200
 41
  0.0200
 0
VERTEX
 8
WIRE
 10
  5.5000
 20
  8.5000
 30
0.0
 0
VERTEX
 8
WIRE
 10
  5.5000
 20
  7.8000
 30
0.0
 0
SEQEND
 8
WIRE
 0
POLYLINE
 8
WIRE
 66
1
 10
0.0
 20
0.0
 30
0.0
 40
  0.0200
 41
  0.0200
 0
VERTEX
 8
WIRE
 10
  5.5000
 20
  7.8000
 30
0.0
 0
VERTEX
 8
WIRE
 10
  5.5000
 20
  7.6000
 30
0.0
 0
SEQEND
 8
WIRE
 0
POLYLINE
 8
WIRE
 66
1
 10
0.0
 20
0.0
 30
0.0
 40
  0.0200
 41
  0.0200
 0
VERTEX
 8
WIRE
 10
  5.5000
 20
  9.4000
 30
0.0
 0
VERTEX
 8
WIRE
 10
  5.5000
 20
  9.1000
 30
0.0
 0
SEQEND
 8
WIRE
 0
POLYLINE
 8
WIRE
 66
1
 10
0.0
 20
0.0
 30
0.0
 40
  0.0200
 41
  0.0200
 0
VERTEX
 8
WIRE
 10
  8.6000
 20
  9.4000
 30
0.0
 0
VERTEX
 8
WIRE
 10
  8.6000
 20
  9.2000
 30
0.0
 0
SEQEND
 8
WIRE
 0
POLYLINE
 8
WIRE
 66
1
 10
0.0
 20
0.0
 30
0.0
 40
  0.0200
 41
  0.0200
 0
VERTEX
 8
WIRE
 10
  5.5000
 20
  9.4000
 30
0.0
 0
VERTEX
 8
WIRE
 10
  8.6000
 20
  9.4000
 30
0.0
 0
SEQEND
 8
WIRE
 0
POLYLINE
 8
WIRE
 66
1
 10
0.0
 20
0.0
 30
0.0
 0
VERTEX
 8
WIRE
 10
  0.9000
 20
  9.1000
 30
0.0
 0
VERTEX
 8
WIRE
 10
  1.5000
 20
  9.1000
 30
0.0
 0
SEQEND
 8
WIRE
 0
POLYLINE
 8
WIRE
 66
1
 10
0.0
 20
0.0
 30
0.0
 0
VERTEX
 8
WIRE
 10
  0.9000
 20
  8.8000
 30
0.0
 0
VERTEX
 8
WIRE
 10
  1.5000
 20
  8.8000
 30
0.0
 0
SEQEND
 8
WIRE
 0
POLYLINE
 8
WIRE
 66
1
 10
0.0
 20
0.0
 30
0.0
 0
VERTEX
 8
WIRE
 10
  0.9000
 20
  8.5000
 30
0.0
 0
VERTEX
 8
WIRE
 10
  1.5000
 20
  8.5000
 30
0.0
 0
SEQEND
 8
WIRE
 0
POLYLINE
 8
WIRE
 66
1
 10
0.0
 20
0.0
 30
0.0
 0
VERTEX
 8
WIRE
 10
  0.9000
 20
  8.2000
 30
0.0
 0
VERTEX
 8
WIRE
 10
  1.5000
 20
  8.2000
 30
0.0
 0
SEQEND
 8
WIRE
 0
POLYLINE
 8
WIRE
 66
1
 10
0.0
 20
0.0
 30
0.0
 0
VERTEX
 8
WIRE
 10
  0.9000
 20
  7.3000
 30
0.0
 0
VERTEX
 8
WIRE
 10
  1.5000
 20
  7.3000
 30
0.0
 0
SEQEND
 8
WIRE
 0
POLYLINE
 8
WIRE
 66
1
 10
0.0
 20
0.0
 30
0.0
 0
VERTEX
 8
WIRE
 10
  0.9000
 20
  7.0000
 30
0.0
 0
VERTEX
 8
WIRE
 10
  1.5000
 20
  7.0000
 30
0.0
 0
SEQEND
 8
WIRE
 0
POLYLINE
 8
WIRE
 66
1
 10
0.0
 20
0.0
 30
0.0
 0
VERTEX
 8
WIRE
 10
  0.9000
 20
  6.7000
 30
0.0
 0
VERTEX
 8
WIRE
 10
  1.5000
 20
  6.7000
 30
0.0
 0
SEQEND
 8
WIRE
 0
POLYLINE
 8
WIRE
 66
1
 10
0.0
 20
0.0
 30
0.0
 0
VERTEX
 8
WIRE
 10
  0.9000
 20
  6.4000
 30
0.0
 0
VERTEX
 8
WIRE
 10
  1.5000
 20
  6.4000
 30
0.0
 0
SEQEND
 8
WIRE
 0
POLYLINE
 8
WIRE
 66
1
 10
0.0
 20
0.0
 30
0.0
 0
VERTEX
 8
WIRE
 10
  0.9000
 20
  5.5000
 30
0.0
 0
VERTEX
 8
WIRE
 10
  1.5000
 20
  5.5000
 30
0.0
 0
SEQEND
 8
WIRE
 0
POLYLINE
 8
WIRE
 66
1
 10
0.0
 20
0.0
 30
0.0
 0
VERTEX
 8
WIRE
 10
  0.9000
 20
  5.2000
 30
0.0
 0
VERTEX
 8
WIRE
 10
  1.5000
 20
  5.2000
 30
0.0
 0
SEQEND
 8
WIRE
 0
POLYLINE
 8
WIRE
 66
1
 10
0.0
 20
0.0
 30
0.0
 0
VERTEX
 8
WIRE
 10
  0.9000
 20
  4.9000
 30
0.0
 0
VERTEX
 8
WIRE
 10
  1.5000
 20
  4.9000
 30
0.0
 0
SEQEND
 8
WIRE
 0
POLYLINE
 8
WIRE
 66
1
 10
0.0
 20
0.0
 30
0.0
 0
VERTEX
 8
WIRE
 10
  0.9000
 20
  4.6000
 30
0.0
 0
VERTEX
 8
WIRE
 10
  1.5000
 20
  4.6000
 30
0.0
 0
SEQEND
 8
WIRE
 0
POLYLINE
 8
WIRE
 66
1
 10
0.0
 20
0.0
 30
0.0
 0
VERTEX
 8
WIRE
 10
  0.9000
 20
  3.7000
 30
0.0
 0
VERTEX
 8
WIRE
 10
  1.5000
 20
  3.7000
 30
0.0
 0
SEQEND
 8
WIRE
 0
POLYLINE
 8
WIRE
 66
1
 10
0.0
 20
0.0
 30
0.0
 0
VERTEX
 8
WIRE
 10
  0.9000
 20
  3.4000
 30
0.0
 0
VERTEX
 8
WIRE
 10
  1.5000
 20
  3.4000
 30
0.0
 0
SEQEND
 8
WIRE
 0
POLYLINE
 8
WIRE
 66
1
 10
0.0
 20
0.0
 30
0.0
 0
VERTEX
 8
WIRE
 10
  0.9000
 20
  3.1000
 30
0.0
 0
VERTEX
 8
WIRE
 10
  1.5000
 20
  3.1000
 30
0.0
 0
SEQEND
 8
WIRE
 0
POLYLINE
 8
WIRE
 66
1
 10
0.0
 20
0.0
 30
0.0
 0
VERTEX
 8
WIRE
 10
  0.9000
 20
  2.8000
 30
0.0
 0
VERTEX
 8
WIRE
 10
  1.5000
 20
  2.8000
 30
0.0
 0
SEQEND
 8
WIRE
 0
POLYLINE
 8
WIRE
 66
1
 10
0.0
 20
0.0
 30
0.0
 0
VERTEX
 8
WIRE
 10
  0.9000
 20
  1.9000
 30
0.0
 0
VERTEX
 8
WIRE
 10
  1.5000
 20
  1.9000
 30
0.0
 0
SEQEND
 8
WIRE
 0
POLYLINE
 8
WIRE
 66
1
 10
0.0
 20
0.0
 30
0.0
 0
VERTEX
 8
WIRE
 10
  1.5000
 20
  6.0000
 30
0.0
 0
VERTEX
 8
WIRE
 10
  1.5000
 20
  5.9000
 30
0.0
 0
SEQEND
 8
WIRE
 0
POLYLINE
 8
WIRE
 66
1
 10
0.0
 20
0.0
 30
0.0
 0
VERTEX
 8
WIRE
 10
 13.0000
 20
  8.0000
 30
0.0
 0
VERTEX
 8
WIRE
 10
 13.0000
 20
  7.9000
 30
0.0
 0
SEQEND
 8
WIRE
 0
POLYLINE
 8
WIRE
 66
1
 10
0.0
 20
0.0
 30
0.0
 0
VERTEX
 8
WIRE
 10
 13.0000
 20
  6.3000
 30
0.0
 0
VERTEX
 8
WIRE
 10
 13.0000
 20
  6.2000
 30
0.0
 0
SEQEND
 8
WIRE
 0
POLYLINE
 8
WIRE
 66
1
 10
0.0
 20
0.0
 30
0.0
 0
VERTEX
 8
WIRE
 10
  6.0000
 20
  7.0000
 30
0.0
 0
VERTEX
 8
WIRE
 10
  6.0000
 20
  6.8000
 30
0.0
 0
SEQEND
 8
WIRE
 0
POLYLINE
 8
WIRE
 66
1
 70
1
 10
0.0
 20
0.0
 30
0.0
 40
  0.0200
 41
  0.0200
 0
VERTEX
 8
WIRE
 10
  5.9900
 20
  6.8000
 30
0.0
 42
1.0
 0
VERTEX
 8
WIRE
 10
  6.0100
 20
  6.8000
 30
0.0
 42
1.0
 0
SEQEND
 8
WIRE
 0
POLYLINE
 8
WIRE
 66
1
 10
0.0
 20
0.0
 30
0.0
 0
VERTEX
 8
WIRE
 10
  6.0000
 20
  6.8000
 30
0.0
 0
VERTEX
 8
WIRE
 10
  6.0000
 20
  6.7000
 30
0.0
 0
SEQEND
 8
WIRE
 0
POLYLINE
 8
WIRE
 66
1
 70
1
 10
0.0
 20
0.0
 30
0.0
 40
  0.0200
 41
  0.0200
 0
VERTEX
 8
WIRE
 10
  5.9900
 20
  6.7000
 30
0.0
 42
1.0
 0
VERTEX
 8
WIRE
 10
  6.0100
 20
  6.7000
 30
0.0
 42
1.0
 0
SEQEND
 8
WIRE
 0
POLYLINE
 8
WIRE
 66
1
 10
0.0
 20
0.0
 30
0.0
 0
VERTEX
 8
WIRE
 10
  6.0000
 20
  6.7000
 30
0.0
 0
VERTEX
 8
WIRE
 10
  6.0000
 20
  6.6000
 30
0.0
 0
SEQEND
 8
WIRE
 0
POLYLINE
 8
WIRE
 66
1
 10
0.0
 20
0.0
 30
0.0
 0
VERTEX
 8
WIRE
 10
  1.5000
 20
  2.4000
 30
0.0
 0
VERTEX
 8
WIRE
 10
  1.5000
 20
  2.3000
 30
0.0
 0
SEQEND
 8
WIRE
 0
POLYLINE
 8
WIRE
 66
1
 10
0.0
 20
0.0
 30
0.0
 0
VERTEX
 8
WIRE
 10
  7.6000
 20
  4.3000
 30
0.0
 0
VERTEX
 8
WIRE
 10
  7.7000
 20
  4.3000
 30
0.0
 0
SEQEND
 8
WIRE
 0
POLYLINE
 8
WIRE
 66
1
 70
1
 10
0.0
 20
0.0
 30
0.0
 40
  0.0200
 41
  0.0200
 0
VERTEX
 8
WIRE
 10
  7.6900
 20
  4.3000
 30
0.0
 42
1.0
 0
VERTEX
 8
WIRE
 10
  7.7100
 20
  4.3000
 30
0.0
 42
1.0
 0
SEQEND
 8
WIRE
 0
POLYLINE
 8
WIRE
 66
1
 10
0.0
 20
0.0
 30
0.0
 0
VERTEX
 8
WIRE
 10
  7.7000
 20
  4.3000
 30
0.0
 0
VERTEX
 8
WIRE
 10
  7.8000
 20
  4.3000
 30
0.0
 0
SEQEND
 8
WIRE
 0
POLYLINE
 8
WIRE
 66
1
 70
1
 10
0.0
 20
0.0
 30
0.0
 40
  0.0200
 41
  0.0200
 0
VERTEX
 8
WIRE
 10
  7.7900
 20
  4.3000
 30
0.0
 42
1.0
 0
VERTEX
 8
WIRE
 10
  7.8100
 20
  4.3000
 30
0.0
 42
1.0
 0
SEQEND
 8
WIRE
 0
POLYLINE
 8
WIRE
 66
1
 10
0.0
 20
0.0
 30
0.0
 0
VERTEX
 8
WIRE
 10
  7.8000
 20
  4.3000
 30
0.0
 0
VERTEX
 8
WIRE
 10
  7.9000
 20
  4.3000
 30
0.0
 0
SEQEND
 8
WIRE
 0
POLYLINE
 8
WIRE
 66
1
 70
1
 10
0.0
 20
0.0
 30
0.0
 40
  0.0200
 41
  0.0200
 0
VERTEX
 8
WIRE
 10
  7.8900
 20
  4.3000
 30
0.0
 42
1.0
 0
VERTEX
 8
WIRE
 10
  7.9100
 20
  4.3000
 30
0.0
 42
1.0
 0
SEQEND
 8
WIRE
 0
POLYLINE
 8
WIRE
 66
1
 10
0.0
 20
0.0
 30
0.0
 0
VERTEX
 8
WIRE
 10
  7.9000
 20
  4.3000
 30
0.0
 0
VERTEX
 8
WIRE
 10
  8.0000
 20
  4.3000
 30
0.0
 0
SEQEND
 8
WIRE
 0
POLYLINE
 8
WIRE
 66
1
 70
1
 10
0.0
 20
0.0
 30
0.0
 40
  0.0200
 41
  0.0200
 0
VERTEX
 8
WIRE
 10
  7.9900
 20
  4.3000
 30
0.0
 42
1.0
 0
VERTEX
 8
WIRE
 10
  8.0100
 20
  4.3000
 30
0.0
 42
1.0
 0
SEQEND
 8
WIRE
 0
POLYLINE
 8
WIRE
 66
1
 10
0.0
 20
0.0
 30
0.0
 0
VERTEX
 8
WIRE
 10
  8.0000
 20
  4.3000
 30
0.0
 0
VERTEX
 8
WIRE
 10
  8.1000
 20
  4.3000
 30
0.0
 0
SEQEND
 8
WIRE
 0
POLYLINE
 8
WIRE
 66
1
 70
1
 10
0.0
 20
0.0
 30
0.0
 40
  0.0200
 41
  0.0200
 0
VERTEX
 8
WIRE
 10
  8.0900
 20
  4.3000
 30
0.0
 42
1.0
 0
VERTEX
 8
WIRE
 10
  8.1100
 20
  4.3000
 30
0.0
 42
1.0
 0
SEQEND
 8
WIRE
 0
POLYLINE
 8
WIRE
 66
1
 10
0.0
 20
0.0
 30
0.0
 0
VERTEX
 8
WIRE
 10
  8.1000
 20
  4.3000
 30
0.0
 0
VERTEX
 8
WIRE
 10
  8.2000
 20
  4.3000
 30
0.0
 0
SEQEND
 8
WIRE
 0
POLYLINE
 8
WIRE
 66
1
 70
1
 10
0.0
 20
0.0
 30
0.0
 40
  0.0200
 41
  0.0200
 0
VERTEX
 8
WIRE
 10
  8.1900
 20
  4.3000
 30
0.0
 42
1.0
 0
VERTEX
 8
WIRE
 10
  8.2100
 20
  4.3000
 30
0.0
 42
1.0
 0
SEQEND
 8
WIRE
 0
POLYLINE
 8
WIRE
 66
1
 10
0.0
 20
0.0
 30
0.0
 0
VERTEX
 8
WIRE
 10
  6.1000
 20
  5.3000
 30
0.0
 0
VERTEX
 8
WIRE
 10
  6.1000
 20
  5.2000
 30
0.0
 0
SEQEND
 8
WIRE
 0
POLYLINE
 8
WIRE
 66
1
 70
1
 10
0.0
 20
0.0
 30
0.0
 40
  0.0200
 41
  0.0200
 0
VERTEX
 8
WIRE
 10
  6.0900
 20
  5.2000
 30
0.0
 42
1.0
 0
VERTEX
 8
WIRE
 10
  6.1100
 20
  5.2000
 30
0.0
 42
1.0
 0
SEQEND
 8
WIRE
 0
POLYLINE
 8
WIRE
 66
1
 10
0.0
 20
0.0
 30
0.0
 0
VERTEX
 8
WIRE
 10
  6.1000
 20
  5.2000
 30
0.0
 0
VERTEX
 8
WIRE
 10
  6.1000
 20
  5.1000
 30
0.0
 0
SEQEND
 8
WIRE
 0
POLYLINE
 8
WIRE
 66
1
 10
0.0
 20
0.0
 30
0.0
 0
VERTEX
 8
WIRE
 10
  1.5000
 20
  7.8000
 30
0.0
 0
VERTEX
 8
WIRE
 10
  1.5000
 20
  7.7000
 30
0.0
 0
SEQEND
 8
WIRE
 0
POLYLINE
 8
WIRE
 66
1
 10
0.0
 20
0.0
 30
0.0
 0
VERTEX
 8
WIRE
 10
  9.1000
 20
  7.0000
 30
0.0
 0
VERTEX
 8
WIRE
 10
  9.1000
 20
  6.8000
 30
0.0
 0
SEQEND
 8
WIRE
 0
POLYLINE
 8
WIRE
 66
1
 70
1
 10
0.0
 20
0.0
 30
0.0
 40
  0.0200
 41
  0.0200
 0
VERTEX
 8
WIRE
 10
  9.0900
 20
  6.8000
 30
0.0
 42
1.0
 0
VERTEX
 8
WIRE
 10
  9.1100
 20
  6.8000
 30
0.0
 42
1.0
 0
SEQEND
 8
WIRE
 0
POLYLINE
 8
WIRE
 66
1
 10
0.0
 20
0.0
 30
0.0
 0
VERTEX
 8
WIRE
 10
  9.1000
 20
  6.8000
 30
0.0
 0
VERTEX
 8
WIRE
 10
  9.1000
 20
  6.7000
 30
0.0
 0
SEQEND
 8
WIRE
 0
POLYLINE
 8
WIRE
 66
1
 70
1
 10
0.0
 20
0.0
 30
0.0
 40
  0.0200
 41
  0.0200
 0
VERTEX
 8
WIRE
 10
  9.0900
 20
  6.7000
 30
0.0
 42
1.0
 0
VERTEX
 8
WIRE
 10
  9.1100
 20
  6.7000
 30
0.0
 42
1.0
 0
SEQEND
 8
WIRE
 0
POLYLINE
 8
WIRE
 66
1
 10
0.0
 20
0.0
 30
0.0
 0
VERTEX
 8
WIRE
 10
  9.1000
 20
  6.7000
 30
0.0
 0
VERTEX
 8
WIRE
 10
  9.1000
 20
  6.6000
 30
0.0
 0
SEQEND
 8
WIRE
 0
POLYLINE
 8
WIRE
 66
1
 10
0.0
 20
0.0
 30
0.0
 0
VERTEX
 8
WIRE
 10
  9.1000
 20
  8.2000
 30
0.0
 0
VERTEX
 8
WIRE
 10
  9.1000
 20
  8.1000
 30
0.0
 0
SEQEND
 8
WIRE
 0
POLYLINE
 8
WIRE
 66
1
 10
0.0
 20
0.0
 30
0.0
 0
VERTEX
 8
WIRE
 10
  7.5000
 20
  2.2000
 30
0.0
 0
VERTEX
 8
WIRE
 10
  7.6000
 20
  2.2000
 30
0.0
 0
SEQEND
 8
WIRE
 0
POLYLINE
 8
WIRE
 66
1
 70
1
 10
0.0
 20
0.0
 30
0.0
 40
  0.0200
 41
  0.0200
 0
VERTEX
 8
WIRE
 10
  7.5900
 20
  2.2000
 30
0.0
 42
1.0
 0
VERTEX
 8
WIRE
 10
  7.6100
 20
  2.2000
 30
0.0
 42
1.0
 0
SEQEND
 8
WIRE
 0
POLYLINE
 8
WIRE
 66
1
 10
0.0
 20
0.0
 30
0.0
 0
VERTEX
 8
WIRE
 10
  7.6000
 20
  2.2000
 30
0.0
 0
VERTEX
 8
WIRE
 10
  7.7000
 20
  2.2000
 30
0.0
 0
SEQEND
 8
WIRE
 0
POLYLINE
 8
WIRE
 66
1
 70
1
 10
0.0
 20
0.0
 30
0.0
 40
  0.0200
 41
  0.0200
 0
VERTEX
 8
WIRE
 10
  7.6900
 20
  2.2000
 30
0.0
 42
1.0
 0
VERTEX
 8
WIRE
 10
  7.7100
 20
  2.2000
 30
0.0
 42
1.0
 0
SEQEND
 8
WIRE
 0
POLYLINE
 8
WIRE
 66
1
 10
0.0
 20
0.0
 30
0.0
 0
VERTEX
 8
WIRE
 10
  7.7000
 20
  2.2000
 30
0.0
 0
VERTEX
 8
WIRE
 10
  7.8000
 20
  2.2000
 30
0.0
 0
SEQEND
 8
WIRE
 0
POLYLINE
 8
WIRE
 66
1
 70
1
 10
0.0
 20
0.0
 30
0.0
 40
  0.0200
 41
  0.0200
 0
VERTEX
 8
WIRE
 10
  7.7900
 20
  2.2000
 30
0.0
 42
1.0
 0
VERTEX
 8
WIRE
 10
  7.8100
 20
  2.2000
 30
0.0
 42
1.0
 0
SEQEND
 8
WIRE
 0
POLYLINE
 8
WIRE
 66
1
 10
0.0
 20
0.0
 30
0.0
 0
VERTEX
 8
WIRE
 10
  7.8000
 20
  2.2000
 30
0.0
 0
VERTEX
 8
WIRE
 10
  7.9000
 20
  2.2000
 30
0.0
 0
SEQEND
 8
WIRE
 0
POLYLINE
 8
WIRE
 66
1
 70
1
 10
0.0
 20
0.0
 30
0.0
 40
  0.0200
 41
  0.0200
 0
VERTEX
 8
WIRE
 10
  7.8900
 20
  2.2000
 30
0.0
 42
1.0
 0
VERTEX
 8
WIRE
 10
  7.9100
 20
  2.2000
 30
0.0
 42
1.0
 0
SEQEND
 8
WIRE
 0
POLYLINE
 8
WIRE
 66
1
 10
0.0
 20
0.0
 30
0.0
 0
VERTEX
 8
WIRE
 10
  7.9000
 20
  2.2000
 30
0.0
 0
VERTEX
 8
WIRE
 10
  8.0000
 20
  2.2000
 30
0.0
 0
SEQEND
 8
WIRE
 0
POLYLINE
 8
WIRE
 66
1
 70
1
 10
0.0
 20
0.0
 30
0.0
 40
  0.0200
 41
  0.0200
 0
VERTEX
 8
WIRE
 10
  7.9900
 20
  2.2000
 30
0.0
 42
1.0
 0
VERTEX
 8
WIRE
 10
  8.0100
 20
  2.2000
 30
0.0
 42
1.0
 0
SEQEND
 8
WIRE
 0
POLYLINE
 8
WIRE
 66
1
 10
0.0
 20
0.0
 30
0.0
 0
VERTEX
 8
WIRE
 10
  8.0000
 20
  2.2000
 30
0.0
 0
VERTEX
 8
WIRE
 10
  8.1000
 20
  2.2000
 30
0.0
 0
SEQEND
 8
WIRE
 0
POLYLINE
 8
WIRE
 66
1
 70
1
 10
0.0
 20
0.0
 30
0.0
 40
  0.0200
 41
  0.0200
 0
VERTEX
 8
WIRE
 10
  8.0900
 20
  2.2000
 30
0.0
 42
1.0
 0
VERTEX
 8
WIRE
 10
  8.1100
 20
  2.2000
 30
0.0
 42
1.0
 0
SEQEND
 8
WIRE
 0
POLYLINE
 8
WIRE
 66
1
 10
0.0
 20
0.0
 30
0.0
 0
VERTEX
 8
WIRE
 10
  8.1000
 20
  2.2000
 30
0.0
 0
VERTEX
 8
WIRE
 10
  8.2000
 20
  2.2000
 30
0.0
 0
SEQEND
 8
WIRE
 0
POLYLINE
 8
WIRE
 66
1
 10
0.0
 20
0.0
 30
0.0
 0
VERTEX
 8
WIRE
 10
  1.5000
 20
  0.6000
 30
0.0
 0
VERTEX
 8
WIRE
 10
  1.5000
 20
  0.5000
 30
0.0
 0
SEQEND
 8
WIRE
 0
POLYLINE
 8
WIRE
 66
1
 10
0.0
 20
0.0
 30
0.0
 0
VERTEX
 8
WIRE
 10
  1.5000
 20
  4.2000
 30
0.0
 0
VERTEX
 8
WIRE
 10
  1.5000
 20
  4.1000
 30
0.0
 0
SEQEND
 8
WIRE
 0
POLYLINE
 8
WIRE
 66
1
 10
0.0
 20
0.0
 30
0.0
 0
VERTEX
 8
WIRE
 10
  6.0000
 20
  8.1000
 30
0.0
 0
VERTEX
 8
WIRE
 10
  6.0000
 20
  8.0000
 30
0.0
 0
SEQEND
 8
WIRE
 0
POLYLINE
 8
WIRE
 66
1
 10
0.0
 20
0.0
 30
0.0
 40
  0.0200
 41
  0.0200
 0
VERTEX
 8
WIRE
 10
  5.5000
 20
  9.0000
 30
0.0
 0
VERTEX
 8
WIRE
 10
  5.5000
 20
  8.5000
 30
0.0
 0
SEQEND
 8
WIRE
 0
POLYLINE
 8
WIRE
 66
1
 10
0.0
 20
0.0
 30
0.0
 40
  0.0200
 41
  0.0200
 0
VERTEX
 8
WIRE
 10
  5.5000
 20
  9.1000
 30
0.0
 0
VERTEX
 8
WIRE
 10
  5.5000
 20
  9.0000
 30
0.0
 0
SEQEND
 8
WIRE
 0
POLYLINE
 8
WIRE
 66
1
 10
0.0
 20
0.0
 30
0.0
 40
  0.0200
 41
  0.0200
 0
VERTEX
 8
WIRE
 10
  8.6000
 20
  9.2000
 30
0.0
 0
VERTEX
 8
WIRE
 10
  8.6000
 20
  7.6000
 30
0.0
 0
SEQEND
 8
WIRE
 0
POLYLINE
 8
PARTS
 66
1
 10
0.0
 20
0.0
 30
0.0
 0
VERTEX
 8
PARTS
 10
 12.9000
 20
  7.9000
 30
0.0
 0
VERTEX
 8
PARTS
 10
 13.1000
 20
  7.9000
 30
0.0
 0
SEQEND
 8
PARTS
 0
POLYLINE
 8
PARTS
 66
1
 10
0.0
 20
0.0
 30
0.0
 0
VERTEX
 8
PARTS
 10
 12.9300
 20
  7.8700
 30
0.0
 0
VERTEX
 8
PARTS
 10
 13.0700
 20
  7.8700
 30
0.0
 0
SEQEND
 8
PARTS
 0
POLYLINE
 8
PARTS
 66
1
 10
0.0
 20
0.0
 30
0.0
 0
VERTEX
 8
PARTS
 10
 13.0400
 20
  7.8400
 30
0.0
 0
VERTEX
 8
PARTS
 10
 12.9600
 20
  7.8400
 30
0.0
 0
SEQEND
 8
PARTS
 0
POLYLINE
 8
PARTS
 66
1
 10
0.0
 20
0.0
 30
0.0
 0
VERTEX
 8
PARTS
 10
 12.9900
 20
  7.8100
 30
0.0
 0
VERTEX
 8
PARTS
 10
 13.0100
 20
  7.8100
 30
0.0
 0
SEQEND
 8
PARTS
 0
POLYLINE
 8
PARTS
 66
1
 10
0.0
 20
0.0
 30
0.0
 0
VERTEX
 8
PARTS
 10
 12.9000
 20
  6.2000
 30
0.0
 0
VERTEX
 8
PARTS
 10
 13.1000
 20
  6.2000
 30
0.0
 0
SEQEND
 8
PARTS
 0
POLYLINE
 8
PARTS
 66
1
 10
0.0
 20
0.0
 30
0.0
 0
VERTEX
 8
PARTS
 10
 12.9300
 20
  6.1700
 30
0.0
 0
VERTEX
 8
PARTS
 10
 13.0700
 20
  6.1700
 30
0.0
 0
SEQEND
 8
PARTS
 0
POLYLINE
 8
PARTS
 66
1
 10
0.0
 20
0.0
 30
0.0
 0
VERTEX
 8
PARTS
 10
 13.0400
 20
  6.1400
 30
0.0
 0
VERTEX
 8
PARTS
 10
 12.9600
 20
  6.1400
 30
0.0
 0
SEQEND
 8
PARTS
 0
POLYLINE
 8
PARTS
 66
1
 10
0.0
 20
0.0
 30
0.0
 0
VERTEX
 8
PARTS
 10
 12.9900
 20
  6.1100
 30
0.0
 0
VERTEX
 8
PARTS
 10
 13.0100
 20
  6.1100
 30
0.0
 0
SEQEND
 8
PARTS
 0
POLYLINE
 8
PARTS
 66
1
 10
0.0
 20
0.0
 30
0.0
 0
VERTEX
 8
PARTS
 10
  1.4000
 20
  0.5000
 30
0.0
 0
VERTEX
 8
PARTS
 10
  1.6000
 20
  0.5000
 30
0.0
 0
SEQEND
 8
PARTS
 0
POLYLINE
 8
PARTS
 66
1
 10
0.0
 20
0.0
 30
0.0
 0
VERTEX
 8
PARTS
 10
  1.4300
 20
  0.4700
 30
0.0
 0
VERTEX
 8
PARTS
 10
  1.5700
 20
  0.4700
 30
0.0
 0
SEQEND
 8
PARTS
 0
POLYLINE
 8
PARTS
 66
1
 10
0.0
 20
0.0
 30
0.0
 0
VERTEX
 8
PARTS
 10
  1.5400
 20
  0.4400
 30
0.0
 0
VERTEX
 8
PARTS
 10
  1.4600
 20
  0.4400
 30
0.0
 0
SEQEND
 8
PARTS
 0
POLYLINE
 8
PARTS
 66
1
 10
0.0
 20
0.0
 30
0.0
 0
VERTEX
 8
PARTS
 10
  1.4900
 20
  0.4100
 30
0.0
 0
VERTEX
 8
PARTS
 10
  1.5100
 20
  0.4100
 30
0.0
 0
SEQEND
 8
PARTS
 0
POLYLINE
 8
PARTS
 66
1
 10
0.0
 20
0.0
 30
0.0
 0
VERTEX
 8
PARTS
 10
  1.4000
 20
  2.3000
 30
0.0
 0
VERTEX
 8
PARTS
 10
  1.6000
 20
  2.3000
 30
0.0
 0
SEQEND
 8
PARTS
 0
POLYLINE
 8
PARTS
 66
1
 10
0.0
 20
0.0
 30
0.0
 0
VERTEX
 8
PARTS
 10
  1.4300
 20
  2.2700
 30
0.0
 0
VERTEX
 8
PARTS
 10
  1.5700
 20
  2.2700
 30
0.0
 0
SEQEND
 8
PARTS
 0
POLYLINE
 8
PARTS
 66
1
 10
0.0
 20
0.0
 30
0.0
 0
VERTEX
 8
PARTS
 10
  1.5400
 20
  2.2400
 30
0.0
 0
VERTEX
 8
PARTS
 10
  1.4600
 20
  2.2400
 30
0.0
 0
SEQEND
 8
PARTS
 0
POLYLINE
 8
PARTS
 66
1
 10
0.0
 20
0.0
 30
0.0
 0
VERTEX
 8
PARTS
 10
  1.4900
 20
  2.2100
 30
0.0
 0
VERTEX
 8
PARTS
 10
  1.5100
 20
  2.2100
 30
0.0
 0
SEQEND
 8
PARTS
 0
POLYLINE
 8
PARTS
 66
1
 10
0.0
 20
0.0
 30
0.0
 0
VERTEX
 8
PARTS
 10
  1.4000
 20
  4.1000
 30
0.0
 0
VERTEX
 8
PARTS
 10
  1.6000
 20
  4.1000
 30
0.0
 0
SEQEND
 8
PARTS
 0
POLYLINE
 8
PARTS
 66
1
 10
0.0
 20
0.0
 30
0.0
 0
VERTEX
 8
PARTS
 10
  1.4300
 20
  4.0700
 30
0.0
 0
VERTEX
 8
PARTS
 10
  1.5700
 20
  4.0700
 30
0.0
 0
SEQEND
 8
PARTS
 0
POLYLINE
 8
PARTS
 66
1
 10
0.0
 20
0.0
 30
0.0
 0
VERTEX
 8
PARTS
 10
  1.5400
 20
  4.0400
 30
0.0
 0
VERTEX
 8
PARTS
 10
  1.4600
 20
  4.0400
 30
0.0
 0
SEQEND
 8
PARTS
 0
POLYLINE
 8
PARTS
 66
1
 10
0.0
 20
0.0
 30
0.0
 0
VERTEX
 8
PARTS
 10
  1.4900
 20
  4.0100
 30
0.0
 0
VERTEX
 8
PARTS
 10
  1.5100
 20
  4.0100
 30
0.0
 0
SEQEND
 8
PARTS
 0
POLYLINE
 8
PARTS
 66
1
 10
0.0
 20
0.0
 30
0.0
 0
VERTEX
 8
PARTS
 10
  1.4000
 20
  5.9000
 30
0.0
 0
VERTEX
 8
PARTS
 10
  1.6000
 20
  5.9000
 30
0.0
 0
SEQEND
 8
PARTS
 0
POLYLINE
 8
PARTS
 66
1
 10
0.0
 20
0.0
 30
0.0
 0
VERTEX
 8
PARTS
 10
  1.4300
 20
  5.8700
 30
0.0
 0
VERTEX
 8
PARTS
 10
  1.5700
 20
  5.8700
 30
0.0
 0
SEQEND
 8
PARTS
 0
POLYLINE
 8
PARTS
 66
1
 10
0.0
 20
0.0
 30
0.0
 0
VERTEX
 8
PARTS
 10
  1.5400
 20
  5.8400
 30
0.0
 0
VERTEX
 8
PARTS
 10
  1.4600
 20
  5.8400
 30
0.0
 0
SEQEND
 8
PARTS
 0
POLYLINE
 8
PARTS
 66
1
 10
0.0
 20
0.0
 30
0.0
 0
VERTEX
 8
PARTS
 10
  1.4900
 20
  5.8100
 30
0.0
 0
VERTEX
 8
PARTS
 10
  1.5100
 20
  5.8100
 30
0.0
 0
SEQEND
 8
PARTS
 0
POLYLINE
 8
PARTS
 66
1
 10
0.0
 20
0.0
 30
0.0
 0
VERTEX
 8
PARTS
 10
  1.4000
 20
  7.7000
 30
0.0
 0
VERTEX
 8
PARTS
 10
  1.6000
 20
  7.7000
 30
0.0
 0
SEQEND
 8
PARTS
 0
POLYLINE
 8
PARTS
 66
1
 10
0.0
 20
0.0
 30
0.0
 0
VERTEX
 8
PARTS
 10
  1.4300
 20
  7.6700
 30
0.0
 0
VERTEX
 8
PARTS
 10
  1.5700
 20
  7.6700
 30
0.0
 0
SEQEND
 8
PARTS
 0
POLYLINE
 8
PARTS
 66
1
 10
0.0
 20
0.0
 30
0.0
 0
VERTEX
 8
PARTS
 10
  1.5400
 20
  7.6400
 30
0.0
 0
VERTEX
 8
PARTS
 10
  1.4600
 20
  7.6400
 30
0.0
 0
SEQEND
 8
PARTS
 0
POLYLINE
 8
PARTS
 66
1
 10
0.0
 20
0.0
 30
0.0
 0
VERTEX
 8
PARTS
 10
  1.4900
 20
  7.6100
 30
0.0
 0
VERTEX
 8
PARTS
 10
  1.5100
 20
  7.6100
 30
0.0
 0
SEQEND
 8
PARTS
 0
POLYLINE
 8
PARTS
 66
1
 10
0.0
 20
0.0
 30
0.0
 0
VERTEX
 8
PARTS
 10
  5.9000
 20
  8.0000
 30
0.0
 0
VERTEX
 8
PARTS
 10
  6.1000
 20
  8.0000
 30
0.0
 0
SEQEND
 8
PARTS
 0
POLYLINE
 8
PARTS
 66
1
 10
0.0
 20
0.0
 30
0.0
 0
VERTEX
 8
PARTS
 10
  5.9300
 20
  7.9700
 30
0.0
 0
VERTEX
 8
PARTS
 10
  6.0700
 20
  7.9700
 30
0.0
 0
SEQEND
 8
PARTS
 0
POLYLINE
 8
PARTS
 66
1
 10
0.0
 20
0.0
 30
0.0
 0
VERTEX
 8
PARTS
 10
  6.0400
 20
  7.9400
 30
0.0
 0
VERTEX
 8
PARTS
 10
  5.9600
 20
  7.9400
 30
0.0
 0
SEQEND
 8
PARTS
 0
POLYLINE
 8
PARTS
 66
1
 10
0.0
 20
0.0
 30
0.0
 0
VERTEX
 8
PARTS
 10
  5.9900
 20
  7.9100
 30
0.0
 0
VERTEX
 8
PARTS
 10
  6.0100
 20
  7.9100
 30
0.0
 0
SEQEND
 8
PARTS
 0
POLYLINE
 8
PARTS
 66
1
 10
0.0
 20
0.0
 30
0.0
 0
VERTEX
 8
PARTS
 10
  5.9000
 20
  6.6000
 30
0.0
 0
VERTEX
 8
PARTS
 10
  6.1000
 20
  6.6000
 30
0.0
 0
SEQEND
 8
PARTS
 0
POLYLINE
 8
PARTS
 66
1
 10
0.0
 20
0.0
 30
0.0
 0
VERTEX
 8
PARTS
 10
  5.9300
 20
  6.5700
 30
0.0
 0
VERTEX
 8
PARTS
 10
  6.0700
 20
  6.5700
 30
0.0
 0
SEQEND
 8
PARTS
 0
POLYLINE
 8
PARTS
 66
1
 10
0.0
 20
0.0
 30
0.0
 0
VERTEX
 8
PARTS
 10
  6.0400
 20
  6.5400
 30
0.0
 0
VERTEX
 8
PARTS
 10
  5.9600
 20
  6.5400
 30
0.0
 0
SEQEND
 8
PARTS
 0
POLYLINE
 8
PARTS
 66
1
 10
0.0
 20
0.0
 30
0.0
 0
VERTEX
 8
PARTS
 10
  5.9900
 20
  6.5100
 30
0.0
 0
VERTEX
 8
PARTS
 10
  6.0100
 20
  6.5100
 30
0.0
 0
SEQEND
 8
PARTS
 0
POLYLINE
 8
PARTS
 66
1
 10
0.0
 20
0.0
 30
0.0
 0
VERTEX
 8
PARTS
 10
  9.0000
 20
  5.3000
 30
0.0
 0
VERTEX
 8
PARTS
 10
  9.2000
 20
  5.3000
 30
0.0
 0
SEQEND
 8
PARTS
 0
POLYLINE
 8
PARTS
 66
1
 10
0.0
 20
0.0
 30
0.0
 0
VERTEX
 8
PARTS
 10
  9.0300
 20
  5.2700
 30
0.0
 0
VERTEX
 8
PARTS
 10
  9.1700
 20
  5.2700
 30
0.0
 0
SEQEND
 8
PARTS
 0
POLYLINE
 8
PARTS
 66
1
 10
0.0
 20
0.0
 30
0.0
 0
VERTEX
 8
PARTS
 10
  9.1400
 20
  5.2400
 30
0.0
 0
VERTEX
 8
PARTS
 10
  9.0600
 20
  5.2400
 30
0.0
 0
SEQEND
 8
PARTS
 0
POLYLINE
 8
PARTS
 66
1
 10
0.0
 20
0.0
 30
0.0
 0
VERTEX
 8
PARTS
 10
  9.0900
 20
  5.2100
 30
0.0
 0
VERTEX
 8
PARTS
 10
  9.1100
 20
  5.2100
 30
0.0
 0
SEQEND
 8
PARTS
 0
POLYLINE
 8
PARTS
 66
1
 10
0.0
 20
0.0
 30
0.0
 0
VERTEX
 8
PARTS
 10
 12.8000
 20
  8.5000
 30
0.0
 0
VERTEX
 8
PARTS
 10
 13.0000
 20
  8.5000
 30
0.0
 0
SEQEND
 8
PARTS
 0
POLYLINE
 8
PARTS
 66
1
 10
0.0
 20
0.0
 30
0.0
 0
VERTEX
 8
PARTS
 10
 12.8300
 20
  8.4700
 30
0.0
 0
VERTEX
 8
PARTS
 10
 12.9700
 20
  8.4700
 30
0.0
 0
SEQEND
 8
PARTS
 0
POLYLINE
 8
PARTS
 66
1
 10
0.0
 20
0.0
 30
0.0
 0
VERTEX
 8
PARTS
 10
 12.9400
 20
  8.4400
 30
0.0
 0
VERTEX
 8
PARTS
 10
 12.8600
 20
  8.4400
 30
0.0
 0
SEQEND
 8
PARTS
 0
POLYLINE
 8
PARTS
 66
1
 10
0.0
 20
0.0
 30
0.0
 0
VERTEX
 8
PARTS
 10
 12.8900
 20
  8.4100
 30
0.0
 0
VERTEX
 8
PARTS
 10
 12.9100
 20
  8.4100
 30
0.0
 0
SEQEND
 8
PARTS
 0
POLYLINE
 8
PARTS
 66
1
 10
0.0
 20
0.0
 30
0.0
 0
VERTEX
 8
PARTS
 10
  6.0000
 20
  5.1000
 30
0.0
 0
VERTEX
 8
PARTS
 10
  6.2000
 20
  5.1000
 30
0.0
 0
SEQEND
 8
PARTS
 0
POLYLINE
 8
PARTS
 66
1
 10
0.0
 20
0.0
 30
0.0
 0
VERTEX
 8
PARTS
 10
  6.0300
 20
  5.0700
 30
0.0
 0
VERTEX
 8
PARTS
 10
  6.1700
 20
  5.0700
 30
0.0
 0
SEQEND
 8
PARTS
 0
POLYLINE
 8
PARTS
 66
1
 10
0.0
 20
0.0
 30
0.0
 0
VERTEX
 8
PARTS
 10
  6.1400
 20
  5.0400
 30
0.0
 0
VERTEX
 8
PARTS
 10
  6.0600
 20
  5.0400
 30
0.0
 0
SEQEND
 8
PARTS
 0
POLYLINE
 8
PARTS
 66
1
 10
0.0
 20
0.0
 30
0.0
 0
VERTEX
 8
PARTS
 10
  6.0900
 20
  5.0100
 30
0.0
 0
VERTEX
 8
PARTS
 10
  6.1100
 20
  5.0100
 30
0.0
 0
SEQEND
 8
PARTS
 0
POLYLINE
 8
PARTS
 66
1
 10
0.0
 20
0.0
 30
0.0
 0
VERTEX
 8
PARTS
 10
  9.0000
 20
  8.1000
 30
0.0
 0
VERTEX
 8
PARTS
 10
  9.2000
 20
  8.1000
 30
0.0
 0
SEQEND
 8
PARTS
 0
POLYLINE
 8
PARTS
 66
1
 10
0.0
 20
0.0
 30
0.0
 0
VERTEX
 8
PARTS
 10
  9.0300
 20
  8.0700
 30
0.0
 0
VERTEX
 8
PARTS
 10
  9.1700
 20
  8.0700
 30
0.0
 0
SEQEND
 8
PARTS
 0
POLYLINE
 8
PARTS
 66
1
 10
0.0
 20
0.0
 30
0.0
 0
VERTEX
 8
PARTS
 10
  9.1400
 20
  8.0400
 30
0.0
 0
VERTEX
 8
PARTS
 10
  9.0600
 20
  8.0400
 30
0.0
 0
SEQEND
 8
PARTS
 0
POLYLINE
 8
PARTS
 66
1
 10
0.0
 20
0.0
 30
0.0
 0
VERTEX
 8
PARTS
 10
  9.0900
 20
  8.0100
 30
0.0
 0
VERTEX
 8
PARTS
 10
  9.1100
 20
  8.0100
 30
0.0
 0
SEQEND
 8
PARTS
 0
POLYLINE
 8
PARTS
 66
1
 10
0.0
 20
0.0
 30
0.0
 0
VERTEX
 8
PARTS
 10
  9.0000
 20
  6.6000
 30
0.0
 0
VERTEX
 8
PARTS
 10
  9.2000
 20
  6.6000
 30
0.0
 0
SEQEND
 8
PARTS
 0
POLYLINE
 8
PARTS
 66
1
 10
0.0
 20
0.0
 30
0.0
 0
VERTEX
 8
PARTS
 10
  9.0300
 20
  6.5700
 30
0.0
 0
VERTEX
 8
PARTS
 10
  9.1700
 20
  6.5700
 30
0.0
 0
SEQEND
 8
PARTS
 0
POLYLINE
 8
PARTS
 66
1
 10
0.0
 20
0.0
 30
0.0
 0
VERTEX
 8
PARTS
 10
  9.1400
 20
  6.5400
 30
0.0
 0
VERTEX
 8
PARTS
 10
  9.0600
 20
  6.5400
 30
0.0
 0
SEQEND
 8
PARTS
 0
POLYLINE
 8
PARTS
 66
1
 10
0.0
 20
0.0
 30
0.0
 0
VERTEX
 8
PARTS
 10
  9.0900
 20
  6.5100
 30
0.0
 0
VERTEX
 8
PARTS
 10
  9.1100
 20
  6.5100
 30
0.0
 0
SEQEND
 8
PARTS
 0
POLYLINE
 8
PARTS
 66
1
 10
0.0
 20
0.0
 30
0.0
 0
VERTEX
 8
PARTS
 10
 13.7000
 20
  2.5000
 30
0.0
 0
VERTEX
 8
PARTS
 10
 13.9000
 20
  2.5000
 30
0.0
 0
SEQEND
 8
PARTS
 0
POLYLINE
 8
PARTS
 66
1
 10
0.0
 20
0.0
 30
0.0
 0
VERTEX
 8
PARTS
 10
 13.7300
 20
  2.4700
 30
0.0
 0
VERTEX
 8
PARTS
 10
 13.8700
 20
  2.4700
 30
0.0
 0
SEQEND
 8
PARTS
 0
POLYLINE
 8
PARTS
 66
1
 10
0.0
 20
0.0
 30
0.0
 0
VERTEX
 8
PARTS
 10
 13.8400
 20
  2.4400
 30
0.0
 0
VERTEX
 8
PARTS
 10
 13.7600
 20
  2.4400
 30
0.0
 0
SEQEND
 8
PARTS
 0
POLYLINE
 8
PARTS
 66
1
 10
0.0
 20
0.0
 30
0.0
 0
VERTEX
 8
PARTS
 10
 13.7900
 20
  2.4100
 30
0.0
 0
VERTEX
 8
PARTS
 10
 13.8100
 20
  2.4100
 30
0.0
 0
SEQEND
 8
PARTS
 0
TEXT
 8
PARTTEXT
 10
 13.7000
 20
  3.4186
 30
0.0
 40
  0.0514
 1
VCC
 0
POLYLINE
 8
PARTS
 66
1
 10
0.0
 20
0.0
 30
0.0
 0
VERTEX
 8
PARTS
 10
 13.8000
 20
  3.3400
 30
0.0
 0
VERTEX
 8
PARTS
 10
 13.8000
 20
  3.3000
 30
0.0
 0
SEQEND
 8
PARTS
 0
POLYLINE
 8
PARTS
 66
1
 70
1
 10
0.0
 20
0.0
 30
0.0
 0
VERTEX
 8
PARTS
 10
 13.8300
 20
  3.3700
 30
0.0
 42
  0.0985
 0
VERTEX
 8
PARTS
 10
 13.8277
 20
  3.3815
 30
0.0
 42
  0.0985
 0
VERTEX
 8
PARTS
 10
 13.8212
 20
  3.3912
 30
0.0
 42
  0.0985
 0
VERTEX
 8
PARTS
 10
 13.8115
 20
  3.3977
 30
0.0
 42
  0.0985
 0
VERTEX
 8
PARTS
 10
 13.8000
 20
  3.4000
 30
0.0
 42
  0.0985
 0
VERTEX
 8
PARTS
 10
 13.7885
 20
  3.3977
 30
0.0
 42
  0.0985
 0
VERTEX
 8
PARTS
 10
 13.7788
 20
  3.3912
 30
0.0
 42
  0.0985
 0
VERTEX
 8
PARTS
 10
 13.7723
 20
  3.3815
 30
0.0
 42
  0.0985
 0
VERTEX
 8
PARTS
 10
 13.7700
 20
  3.3700
 30
0.0
 42
  0.0985
 0
VERTEX
 8
PARTS
 10
 13.7723
 20
  3.3585
 30
0.0
 42
  0.0985
 0
VERTEX
 8
PARTS
 10
 13.7788
 20
  3.3488
 30
0.0
 42
  0.0985
 0
VERTEX
 8
PARTS
 10
 13.7885
 20
  3.3423
 30
0.0
 42
  0.0985
 0
VERTEX
 8
PARTS
 10
 13.8000
 20
  3.3400
 30
0.0
 42
  0.0985
 0
VERTEX
 8
PARTS
 10
 13.8115
 20
  3.3423
 30
0.0
 42
  0.0985
 0
VERTEX
 8
PARTS
 10
 13.8212
 20
  3.3488
 30
0.0
 42
  0.0985
 0
VERTEX
 8
PARTS
 10
 13.8277
 20
  3.3585
 30
0.0
 42
  0.0985
 0
SEQEND
 8
PARTS
 0
TEXT
 8
PARTTEXT
 10
  0.6200
 20
  9.4686
 30
0.0
 40
  0.0514
 1
IO[1..50]
 0
POLYLINE
 8
PARTS
 66
1
 10
0.0
 20
0.0
 30
0.0
 0
VERTEX
 8
PARTS
 10
  0.3000
 20
  9.5000
 30
0.0
 0
VERTEX
 8
PARTS
 10
  0.4000
 20
  9.5500
 30
0.0
 0
SEQEND
 8
PARTS
 0
POLYLINE
 8
PARTS
 66
1
 10
0.0
 20
0.0
 30
0.0
 0
VERTEX
 8
PARTS
 10
  0.4000
 20
  9.5500
 30
0.0
 0
VERTEX
 8
PARTS
 10
  0.6000
 20
  9.5500
 30
0.0
 0
SEQEND
 8
PARTS
 0
POLYLINE
 8
PARTS
 66
1
 10
0.0
 20
0.0
 30
0.0
 0
VERTEX
 8
PARTS
 10
  0.6000
 20
  9.5500
 30
0.0
 0
VERTEX
 8
PARTS
 10
  0.6000
 20
  9.4500
 30
0.0
 0
SEQEND
 8
PARTS
 0
POLYLINE
 8
PARTS
 66
1
 10
0.0
 20
0.0
 30
0.0
 0
VERTEX
 8
PARTS
 10
  0.6000
 20
  9.4500
 30
0.0
 0
VERTEX
 8
PARTS
 10
  0.4000
 20
  9.4500
 30
0.0
 0
SEQEND
 8
PARTS
 0
POLYLINE
 8
PARTS
 66
1
 10
0.0
 20
0.0
 30
0.0
 0
VERTEX
 8
PARTS
 10
  0.4000
 20
  9.4500
 30
0.0
 0
VERTEX
 8
PARTS
 10
  0.3000
 20
  9.5000
 30
0.0
 0
SEQEND
 8
PARTS
 0
TEXT
 8
PARTTEXT
 10
 14.0000
 20
  9.4686
 30
0.0
 40
  0.0514
 1
IO[1..50]
 0
POLYLINE
 8
PARTS
 66
1
 10
0.0
 20
0.0
 30
0.0
 0
VERTEX
 8
PARTS
 10
 14.7000
 20
  9.5500
 30
0.0
 0
VERTEX
 8
PARTS
 10
 14.5000
 20
  9.5500
 30
0.0
 0
SEQEND
 8
PARTS
 0
POLYLINE
 8
PARTS
 66
1
 10
0.0
 20
0.0
 30
0.0
 0
VERTEX
 8
PARTS
 10
 14.5000
 20
  9.5500
 30
0.0
 0
VERTEX
 8
PARTS
 10
 14.4000
 20
  9.5000
 30
0.0
 0
SEQEND
 8
PARTS
 0
POLYLINE
 8
PARTS
 66
1
 10
0.0
 20
0.0
 30
0.0
 0
VERTEX
 8
PARTS
 10
 14.4000
 20
  9.5000
 30
0.0
 0
VERTEX
 8
PARTS
 10
 14.5000
 20
  9.4500
 30
0.0
 0
SEQEND
 8
PARTS
 0
POLYLINE
 8
PARTS
 66
1
 10
0.0
 20
0.0
 30
0.0
 0
VERTEX
 8
PARTS
 10
 14.5000
 20
  9.4500
 30
0.0
 0
VERTEX
 8
PARTS
 10
 14.7000
 20
  9.4500
 30
0.0
 0
SEQEND
 8
PARTS
 0
POLYLINE
 8
PARTS
 66
1
 10
0.0
 20
0.0
 30
0.0
 0
VERTEX
 8
PARTS
 10
 14.7000
 20
  9.4500
 30
0.0
 0
VERTEX
 8
PARTS
 10
 14.7000
 20
  9.5500
 30
0.0
 0
SEQEND
 8
PARTS
 0
TEXT
 8
PARTTEXT
 10
  3.3300
 20
  9.4586
 30
0.0
 40
  0.0514
 1
D[0..15]
 0
POLYLINE
 8
PARTS
 66
1
 10
0.0
 20
0.0
 30
0.0
 0
VERTEX
 8
PARTS
 10
  3.3000
 20
  9.4000
 30
0.0
 0
VERTEX
 8
PARTS
 10
  3.4000
 20
  9.4500
 30
0.0
 0
SEQEND
 8
PARTS
 0
POLYLINE
 8
PARTS
 66
1
 10
0.0
 20
0.0
 30
0.0
 0
VERTEX
 8
PARTS
 10
  3.4000
 20
  9.4500
 30
0.0
 0
VERTEX
 8
PARTS
 10
  3.5000
 20
  9.4500
 30
0.0
 0
SEQEND
 8
PARTS
 0
POLYLINE
 8
PARTS
 66
1
 10
0.0
 20
0.0
 30
0.0
 0
VERTEX
 8
PARTS
 10
  3.5000
 20
  9.4500
 30
0.0
 0
VERTEX
 8
PARTS
 10
  3.6000
 20
  9.4000
 30
0.0
 0
SEQEND
 8
PARTS
 0
POLYLINE
 8
PARTS
 66
1
 10
0.0
 20
0.0
 30
0.0
 0
VERTEX
 8
PARTS
 10
  3.6000
 20
  9.4000
 30
0.0
 0
VERTEX
 8
PARTS
 10
  3.5000
 20
  9.3500
 30
0.0
 0
SEQEND
 8
PARTS
 0
POLYLINE
 8
PARTS
 66
1
 10
0.0
 20
0.0
 30
0.0
 0
VERTEX
 8
PARTS
 10
  3.5000
 20
  9.3500
 30
0.0
 0
VERTEX
 8
PARTS
 10
  3.4000
 20
  9.3500
 30
0.0
 0
SEQEND
 8
PARTS
 0
POLYLINE
 8
PARTS
 66
1
 10
0.0
 20
0.0
 30
0.0
 0
VERTEX
 8
PARTS
 10
  3.4000
 20
  9.3500
 30
0.0
 0
VERTEX
 8
PARTS
 10
  3.3000
 20
  9.4000
 30
0.0
 0
SEQEND
 8
PARTS
 0
TEXT
 8
PARTTEXT
 10
  3.1900
 20
  1.9586
 30
0.0
 40
  0.0514
 1
STROBE
 0
POLYLINE
 8
PARTS
 66
1
 10
0.0
 20
0.0
 30
0.0
 0
VERTEX
 8
PARTS
 10
  3.2000
 20
  1.9000
 30
0.0
 0
VERTEX
 8
PARTS
 10
  3.3000
 20
  1.9500
 30
0.0
 0
SEQEND
 8
PARTS
 0
POLYLINE
 8
PARTS
 66
1
 10
0.0
 20
0.0
 30
0.0
 0
VERTEX
 8
PARTS
 10
  3.3000
 20
  1.9500
 30
0.0
 0
VERTEX
 8
PARTS
 10
  3.4000
 20
  1.9500
 30
0.0
 0
SEQEND
 8
PARTS
 0
POLYLINE
 8
PARTS
 66
1
 10
0.0
 20
0.0
 30
0.0
 0
VERTEX
 8
PARTS
 10
  3.4000
 20
  1.9500
 30
0.0
 0
VERTEX
 8
PARTS
 10
  3.5000
 20
  1.9000
 30
0.0
 0
SEQEND
 8
PARTS
 0
POLYLINE
 8
PARTS
 66
1
 10
0.0
 20
0.0
 30
0.0
 0
VERTEX
 8
PARTS
 10
  3.5000
 20
  1.9000
 30
0.0
 0
VERTEX
 8
PARTS
 10
  3.4000
 20
  1.8500
 30
0.0
 0
SEQEND
 8
PARTS
 0
POLYLINE
 8
PARTS
 66
1
 10
0.0
 20
0.0
 30
0.0
 0
VERTEX
 8
PARTS
 10
  3.4000
 20
  1.8500
 30
0.0
 0
VERTEX
 8
PARTS
 10
  3.3000
 20
  1.8500
 30
0.0
 0
SEQEND
 8
PARTS
 0
POLYLINE
 8
PARTS
 66
1
 10
0.0
 20
0.0
 30
0.0
 0
VERTEX
 8
PARTS
 10
  3.3000
 20
  1.8500
 30
0.0
 0
VERTEX
 8
PARTS
 10
  3.2000
 20
  1.9000
 30
0.0
 0
SEQEND
 8
PARTS
 0
TEXT
 8
PARTTEXT
 10
  2.7200
 20
  1.9686
 30
0.0
 40
  0.0514
 1
STROBE
 0
POLYLINE
 8
PARTS
 66
1
 10
0.0
 20
0.0
 30
0.0
 0
VERTEX
 8
PARTS
 10
  2.7000
 20
  1.9000
 30
0.0
 0
VERTEX
 8
PARTS
 10
  2.8000
 20
  1.9500
 30
0.0
 0
SEQEND
 8
PARTS
 0
POLYLINE
 8
PARTS
 66
1
 10
0.0
 20
0.0
 30
0.0
 0
VERTEX
 8
PARTS
 10
  2.8000
 20
  1.9500
 30
0.0
 0
VERTEX
 8
PARTS
 10
  2.9000
 20
  1.9500
 30
0.0
 0
SEQEND
 8
PARTS
 0
POLYLINE
 8
PARTS
 66
1
 10
0.0
 20
0.0
 30
0.0
 0
VERTEX
 8
PARTS
 10
  2.9000
 20
  1.9500
 30
0.0
 0
VERTEX
 8
PARTS
 10
  3.0000
 20
  1.9000
 30
0.0
 0
SEQEND
 8
PARTS
 0
POLYLINE
 8
PARTS
 66
1
 10
0.0
 20
0.0
 30
0.0
 0
VERTEX
 8
PARTS
 10
  3.0000
 20
  1.9000
 30
0.0
 0
VERTEX
 8
PARTS
 10
  2.9000
 20
  1.8500
 30
0.0
 0
SEQEND
 8
PARTS
 0
POLYLINE
 8
PARTS
 66
1
 10
0.0
 20
0.0
 30
0.0
 0
VERTEX
 8
PARTS
 10
  2.9000
 20
  1.8500
 30
0.0
 0
VERTEX
 8
PARTS
 10
  2.8000
 20
  1.8500
 30
0.0
 0
SEQEND
 8
PARTS
 0
POLYLINE
 8
PARTS
 66
1
 10
0.0
 20
0.0
 30
0.0
 0
VERTEX
 8
PARTS
 10
  2.8000
 20
  1.8500
 30
0.0
 0
VERTEX
 8
PARTS
 10
  2.7000
 20
  1.9000
 30
0.0
 0
SEQEND
 8
PARTS
 0
TEXT
 8
PARTTEXT
 10
 12.2100
 20
  8.8586
 30
0.0
 40
  0.0514
 1
TICK_INT*
 0
POLYLINE
 8
PARTS
 66
1
 10
0.0
 20
0.0
 30
0.0
 0
VERTEX
 8
PARTS
 10
 12.7000
 20
  8.9500
 30
0.0
 0
VERTEX
 8
PARTS
 10
 12.9000
 20
  8.9500
 30
0.0
 0
SEQEND
 8
PARTS
 0
POLYLINE
 8
PARTS
 66
1
 10
0.0
 20
0.0
 30
0.0
 0
VERTEX
 8
PARTS
 10
 12.9000
 20
  8.9500
 30
0.0
 0
VERTEX
 8
PARTS
 10
 13.0000
 20
  8.9000
 30
0.0
 0
SEQEND
 8
PARTS
 0
POLYLINE
 8
PARTS
 66
1
 10
0.0
 20
0.0
 30
0.0
 0
VERTEX
 8
PARTS
 10
 13.0000
 20
  8.9000
 30
0.0
 0
VERTEX
 8
PARTS
 10
 12.9000
 20
  8.8500
 30
0.0
 0
SEQEND
 8
PARTS
 0
POLYLINE
 8
PARTS
 66
1
 10
0.0
 20
0.0
 30
0.0
 0
VERTEX
 8
PARTS
 10
 12.9000
 20
  8.8500
 30
0.0
 0
VERTEX
 8
PARTS
 10
 12.7000
 20
  8.8500
 30
0.0
 0
SEQEND
 8
PARTS
 0
POLYLINE
 8
PARTS
 66
1
 10
0.0
 20
0.0
 30
0.0
 0
VERTEX
 8
PARTS
 10
 12.7000
 20
  8.8500
 30
0.0
 0
VERTEX
 8
PARTS
 10
 12.7000
 20
  8.9500
 30
0.0
 0
SEQEND
 8
PARTS
 0
TEXT
 8
PARTTEXT
 10
 12.3100
 20
  7.4586
 30
0.0
 40
  0.0514
 1
NoClock
 0
POLYLINE
 8
PARTS
 66
1
 10
0.0
 20
0.0
 30
0.0
 0
VERTEX
 8
PARTS
 10
 12.7000
 20
  7.5500
 30
0.0
 0
VERTEX
 8
PARTS
 10
 12.9000
 20
  7.5500
 30
0.0
 0
SEQEND
 8
PARTS
 0
POLYLINE
 8
PARTS
 66
1
 10
0.0
 20
0.0
 30
0.0
 0
VERTEX
 8
PARTS
 10
 12.9000
 20
  7.5500
 30
0.0
 0
VERTEX
 8
PARTS
 10
 13.0000
 20
  7.5000
 30
0.0
 0
SEQEND
 8
PARTS
 0
POLYLINE
 8
PARTS
 66
1
 10
0.0
 20
0.0
 30
0.0
 0
VERTEX
 8
PARTS
 10
 13.0000
 20
  7.5000
 30
0.0
 0
VERTEX
 8
PARTS
 10
 12.9000
 20
  7.4500
 30
0.0
 0
SEQEND
 8
PARTS
 0
POLYLINE
 8
PARTS
 66
1
 10
0.0
 20
0.0
 30
0.0
 0
VERTEX
 8
PARTS
 10
 12.9000
 20
  7.4500
 30
0.0
 0
VERTEX
 8
PARTS
 10
 12.7000
 20
  7.4500
 30
0.0
 0
SEQEND
 8
PARTS
 0
POLYLINE
 8
PARTS
 66
1
 10
0.0
 20
0.0
 30
0.0
 0
VERTEX
 8
PARTS
 10
 12.7000
 20
  7.4500
 30
0.0
 0
VERTEX
 8
PARTS
 10
 12.7000
 20
  7.5500
 30
0.0
 0
SEQEND
 8
PARTS
 0
TEXT
 8
PARTTEXT
 10
 12.3700
 20
  8.2586
 30
0.0
 40
  0.0514
 1
NoTick
 0
POLYLINE
 8
PARTS
 66
1
 10
0.0
 20
0.0
 30
0.0
 0
VERTEX
 8
PARTS
 10
 12.7000
 20
  8.3500
 30
0.0
 0
VERTEX
 8
PARTS
 10
 12.9000
 20
  8.3500
 30
0.0
 0
SEQEND
 8
PARTS
 0
POLYLINE
 8
PARTS
 66
1
 10
0.0
 20
0.0
 30
0.0
 0
VERTEX
 8
PARTS
 10
 12.9000
 20
  8.3500
 30
0.0
 0
VERTEX
 8
PARTS
 10
 13.0000
 20
  8.3000
 30
0.0
 0
SEQEND
 8
PARTS
 0
POLYLINE
 8
PARTS
 66
1
 10
0.0
 20
0.0
 30
0.0
 0
VERTEX
 8
PARTS
 10
 13.0000
 20
  8.3000
 30
0.0
 0
VERTEX
 8
PARTS
 10
 12.9000
 20
  8.2500
 30
0.0
 0
SEQEND
 8
PARTS
 0
POLYLINE
 8
PARTS
 66
1
 10
0.0
 20
0.0
 30
0.0
 0
VERTEX
 8
PARTS
 10
 12.9000
 20
  8.2500
 30
0.0
 0
VERTEX
 8
PARTS
 10
 12.7000
 20
  8.2500
 30
0.0
 0
SEQEND
 8
PARTS
 0
POLYLINE
 8
PARTS
 66
1
 10
0.0
 20
0.0
 30
0.0
 0
VERTEX
 8
PARTS
 10
 12.7000
 20
  8.2500
 30
0.0
 0
VERTEX
 8
PARTS
 10
 12.7000
 20
  8.3500
 30
0.0
 0
SEQEND
 8
PARTS
 0
TEXT
 8
PARTTEXT
 10
 12.2900
 20
  7.1586
 30
0.0
 40
  0.0514
 1
IPPEnbld
 0
POLYLINE
 8
PARTS
 66
1
 10
0.0
 20
0.0
 30
0.0
 0
VERTEX
 8
PARTS
 10
 12.7000
 20
  7.2500
 30
0.0
 0
VERTEX
 8
PARTS
 10
 12.9000
 20
  7.2500
 30
0.0
 0
SEQEND
 8
PARTS
 0
POLYLINE
 8
PARTS
 66
1
 10
0.0
 20
0.0
 30
0.0
 0
VERTEX
 8
PARTS
 10
 12.9000
 20
  7.2500
 30
0.0
 0
VERTEX
 8
PARTS
 10
 13.0000
 20
  7.2000
 30
0.0
 0
SEQEND
 8
PARTS
 0
POLYLINE
 8
PARTS
 66
1
 10
0.0
 20
0.0
 30
0.0
 0
VERTEX
 8
PARTS
 10
 13.0000
 20
  7.2000
 30
0.0
 0
VERTEX
 8
PARTS
 10
 12.9000
 20
  7.1500
 30
0.0
 0
SEQEND
 8
PARTS
 0
POLYLINE
 8
PARTS
 66
1
 10
0.0
 20
0.0
 30
0.0
 0
VERTEX
 8
PARTS
 10
 12.9000
 20
  7.1500
 30
0.0
 0
VERTEX
 8
PARTS
 10
 12.7000
 20
  7.1500
 30
0.0
 0
SEQEND
 8
PARTS
 0
POLYLINE
 8
PARTS
 66
1
 10
0.0
 20
0.0
 30
0.0
 0
VERTEX
 8
PARTS
 10
 12.7000
 20
  7.1500
 30
0.0
 0
VERTEX
 8
PARTS
 10
 12.7000
 20
  7.2500
 30
0.0
 0
SEQEND
 8
PARTS
 0
TEXT
 8
PARTTEXT
 10
  8.3500
 20
  5.4586
 30
0.0
 40
  0.0514
 1
UPDSTB*
 0
POLYLINE
 8
PARTS
 66
1
 10
0.0
 20
0.0
 30
0.0
 0
VERTEX
 8
PARTS
 10
  8.8000
 20
  5.5500
 30
0.0
 0
VERTEX
 8
PARTS
 10
  9.0000
 20
  5.5500
 30
0.0
 0
SEQEND
 8
PARTS
 0
POLYLINE
 8
PARTS
 66
1
 10
0.0
 20
0.0
 30
0.0
 0
VERTEX
 8
PARTS
 10
  9.0000
 20
  5.5500
 30
0.0
 0
VERTEX
 8
PARTS
 10
  9.1000
 20
  5.5000
 30
0.0
 0
SEQEND
 8
PARTS
 0
POLYLINE
 8
PARTS
 66
1
 10
0.0
 20
0.0
 30
0.0
 0
VERTEX
 8
PARTS
 10
  9.1000
 20
  5.5000
 30
0.0
 0
VERTEX
 8
PARTS
 10
  9.0000
 20
  5.4500
 30
0.0
 0
SEQEND
 8
PARTS
 0
POLYLINE
 8
PARTS
 66
1
 10
0.0
 20
0.0
 30
0.0
 0
VERTEX
 8
PARTS
 10
  9.0000
 20
  5.4500
 30
0.0
 0
VERTEX
 8
PARTS
 10
  8.8000
 20
  5.4500
 30
0.0
 0
SEQEND
 8
PARTS
 0
POLYLINE
 8
PARTS
 66
1
 10
0.0
 20
0.0
 30
0.0
 0
VERTEX
 8
PARTS
 10
  8.8000
 20
  5.4500
 30
0.0
 0
VERTEX
 8
PARTS
 10
  8.8000
 20
  5.5500
 30
0.0
 0
SEQEND
 8
PARTS
 0
TEXT
 8
PARTTEXT
 10
 11.5500
 20
  4.6586
 30
0.0
 40
  0.0514
 1
UPDSTB*
 0
POLYLINE
 8
PARTS
 66
1
 10
0.0
 20
0.0
 30
0.0
 0
VERTEX
 8
PARTS
 10
 12.0000
 20
  4.7500
 30
0.0
 0
VERTEX
 8
PARTS
 10
 12.2000
 20
  4.7500
 30
0.0
 0
SEQEND
 8
PARTS
 0
POLYLINE
 8
PARTS
 66
1
 10
0.0
 20
0.0
 30
0.0
 0
VERTEX
 8
PARTS
 10
 12.2000
 20
  4.7500
 30
0.0
 0
VERTEX
 8
PARTS
 10
 12.3000
 20
  4.7000
 30
0.0
 0
SEQEND
 8
PARTS
 0
POLYLINE
 8
PARTS
 66
1
 10
0.0
 20
0.0
 30
0.0
 0
VERTEX
 8
PARTS
 10
 12.3000
 20
  4.7000
 30
0.0
 0
VERTEX
 8
PARTS
 10
 12.2000
 20
  4.6500
 30
0.0
 0
SEQEND
 8
PARTS
 0
POLYLINE
 8
PARTS
 66
1
 10
0.0
 20
0.0
 30
0.0
 0
VERTEX
 8
PARTS
 10
 12.2000
 20
  4.6500
 30
0.0
 0
VERTEX
 8
PARTS
 10
 12.0000
 20
  4.6500
 30
0.0
 0
SEQEND
 8
PARTS
 0
POLYLINE
 8
PARTS
 66
1
 10
0.0
 20
0.0
 30
0.0
 0
VERTEX
 8
PARTS
 10
 12.0000
 20
  4.6500
 30
0.0
 0
VERTEX
 8
PARTS
 10
 12.0000
 20
  4.7500
 30
0.0
 0
SEQEND
 8
PARTS
 0
TEXT
 8
PARTTEXT
 10
 12.2500
 20
  9.1586
 30
0.0
 40
  0.0514
 1
UPDSTB*
 0
POLYLINE
 8
PARTS
 66
1
 10
0.0
 20
0.0
 30
0.0
 0
VERTEX
 8
PARTS
 10
 12.7000
 20
  9.2500
 30
0.0
 0
VERTEX
 8
PARTS
 10
 12.9000
 20
  9.2500
 30
0.0
 0
SEQEND
 8
PARTS
 0
POLYLINE
 8
PARTS
 66
1
 10
0.0
 20
0.0
 30
0.0
 0
VERTEX
 8
PARTS
 10
 12.9000
 20
  9.2500
 30
0.0
 0
VERTEX
 8
PARTS
 10
 13.0000
 20
  9.2000
 30
0.0
 0
SEQEND
 8
PARTS
 0
POLYLINE
 8
PARTS
 66
1
 10
0.0
 20
0.0
 30
0.0
 0
VERTEX
 8
PARTS
 10
 13.0000
 20
  9.2000
 30
0.0
 0
VERTEX
 8
PARTS
 10
 12.9000
 20
  9.1500
 30
0.0
 0
SEQEND
 8
PARTS
 0
POLYLINE
 8
PARTS
 66
1
 10
0.0
 20
0.0
 30
0.0
 0
VERTEX
 8
PARTS
 10
 12.9000
 20
  9.1500
 30
0.0
 0
VERTEX
 8
PARTS
 10
 12.7000
 20
  9.1500
 30
0.0
 0
SEQEND
 8
PARTS
 0
POLYLINE
 8
PARTS
 66
1
 10
0.0
 20
0.0
 30
0.0
 0
VERTEX
 8
PARTS
 10
 12.7000
 20
  9.1500
 30
0.0
 0
VERTEX
 8
PARTS
 10
 12.7000
 20
  9.2500
 30
0.0
 0
SEQEND
 8
PARTS
 0
TEXT
 8
PARTTEXT
 10
 14.2300
 20
  1.5586
 30
0.0
 40
  0.0514
 1
PU
 0
POLYLINE
 8
PARTS
 66
1
 10
0.0
 20
0.0
 30
0.0
 0
VERTEX
 8
PARTS
 10
 14.4000
 20
  1.6500
 30
0.0
 0
VERTEX
 8
PARTS
 10
 14.6000
 20
  1.6500
 30
0.0
 0
SEQEND
 8
PARTS
 0
POLYLINE
 8
PARTS
 66
1
 10
0.0
 20
0.0
 30
0.0
 0
VERTEX
 8
PARTS
 10
 14.6000
 20
  1.6500
 30
0.0
 0
VERTEX
 8
PARTS
 10
 14.7000
 20
  1.6000
 30
0.0
 0
SEQEND
 8
PARTS
 0
POLYLINE
 8
PARTS
 66
1
 10
0.0
 20
0.0
 30
0.0
 0
VERTEX
 8
PARTS
 10
 14.7000
 20
  1.6000
 30
0.0
 0
VERTEX
 8
PARTS
 10
 14.6000
 20
  1.5500
 30
0.0
 0
SEQEND
 8
PARTS
 0
POLYLINE
 8
PARTS
 66
1
 10
0.0
 20
0.0
 30
0.0
 0
VERTEX
 8
PARTS
 10
 14.6000
 20
  1.5500
 30
0.0
 0
VERTEX
 8
PARTS
 10
 14.4000
 20
  1.5500
 30
0.0
 0
SEQEND
 8
PARTS
 0
POLYLINE
 8
PARTS
 66
1
 10
0.0
 20
0.0
 30
0.0
 0
VERTEX
 8
PARTS
 10
 14.4000
 20
  1.5500
 30
0.0
 0
VERTEX
 8
PARTS
 10
 14.4000
 20
  1.6500
 30
0.0
 0
SEQEND
 8
PARTS
 0
TEXT
 8
PARTTEXT
 10
 10.6200
 20
  9.1686
 30
0.0
 40
  0.0514
 1
B_DATA0
 0
POLYLINE
 8
PARTS
 66
1
 10
0.0
 20
0.0
 30
0.0
 0
VERTEX
 8
PARTS
 10
 10.3000
 20
  9.2000
 30
0.0
 0
VERTEX
 8
PARTS
 10
 10.4000
 20
  9.2500
 30
0.0
 0
SEQEND
 8
PARTS
 0
POLYLINE
 8
PARTS
 66
1
 10
0.0
 20
0.0
 30
0.0
 0
VERTEX
 8
PARTS
 10
 10.4000
 20
  9.2500
 30
0.0
 0
VERTEX
 8
PARTS
 10
 10.6000
 20
  9.2500
 30
0.0
 0
SEQEND
 8
PARTS
 0
POLYLINE
 8
PARTS
 66
1
 10
0.0
 20
0.0
 30
0.0
 0
VERTEX
 8
PARTS
 10
 10.6000
 20
  9.2500
 30
0.0
 0
VERTEX
 8
PARTS
 10
 10.6000
 20
  9.1500
 30
0.0
 0
SEQEND
 8
PARTS
 0
POLYLINE
 8
PARTS
 66
1
 10
0.0
 20
0.0
 30
0.0
 0
VERTEX
 8
PARTS
 10
 10.6000
 20
  9.1500
 30
0.0
 0
VERTEX
 8
PARTS
 10
 10.4000
 20
  9.1500
 30
0.0
 0
SEQEND
 8
PARTS
 0
POLYLINE
 8
PARTS
 66
1
 10
0.0
 20
0.0
 30
0.0
 0
VERTEX
 8
PARTS
 10
 10.4000
 20
  9.1500
 30
0.0
 0
VERTEX
 8
PARTS
 10
 10.3000
 20
  9.2000
 30
0.0
 0
SEQEND
 8
PARTS
 0
TEXT
 8
PARTTEXT
 10
 10.6200
 20
  9.0686
 30
0.0
 40
  0.0514
 1
B_DATA1
 0
POLYLINE
 8
PARTS
 66
1
 10
0.0
 20
0.0
 30
0.0
 0
VERTEX
 8
PARTS
 10
 10.3000
 20
  9.1000
 30
0.0
 0
VERTEX
 8
PARTS
 10
 10.4000
 20
  9.1500
 30
0.0
 0
SEQEND
 8
PARTS
 0
POLYLINE
 8
PARTS
 66
1
 10
0.0
 20
0.0
 30
0.0
 0
VERTEX
 8
PARTS
 10
 10.4000
 20
  9.1500
 30
0.0
 0
VERTEX
 8
PARTS
 10
 10.6000
 20
  9.1500
 30
0.0
 0
SEQEND
 8
PARTS
 0
POLYLINE
 8
PARTS
 66
1
 10
0.0
 20
0.0
 30
0.0
 0
VERTEX
 8
PARTS
 10
 10.6000
 20
  9.1500
 30
0.0
 0
VERTEX
 8
PARTS
 10
 10.6000
 20
  9.0500
 30
0.0
 0
SEQEND
 8
PARTS
 0
POLYLINE
 8
PARTS
 66
1
 10
0.0
 20
0.0
 30
0.0
 0
VERTEX
 8
PARTS
 10
 10.6000
 20
  9.0500
 30
0.0
 0
VERTEX
 8
PARTS
 10
 10.4000
 20
  9.0500
 30
0.0
 0
SEQEND
 8
PARTS
 0
POLYLINE
 8
PARTS
 66
1
 10
0.0
 20
0.0
 30
0.0
 0
VERTEX
 8
PARTS
 10
 10.4000
 20
  9.0500
 30
0.0
 0
VERTEX
 8
PARTS
 10
 10.3000
 20
  9.1000
 30
0.0
 0
SEQEND
 8
PARTS
 0
TEXT
 8
PARTTEXT
 10
 10.6200
 20
  8.9686
 30
0.0
 40
  0.0514
 1
B_DATA2
 0
POLYLINE
 8
PARTS
 66
1
 10
0.0
 20
0.0
 30
0.0
 0
VERTEX
 8
PARTS
 10
 10.3000
 20
  9.0000
 30
0.0
 0
VERTEX
 8
PARTS
 10
 10.4000
 20
  9.0500
 30
0.0
 0
SEQEND
 8
PARTS
 0
POLYLINE
 8
PARTS
 66
1
 10
0.0
 20
0.0
 30
0.0
 0
VERTEX
 8
PARTS
 10
 10.4000
 20
  9.0500
 30
0.0
 0
VERTEX
 8
PARTS
 10
 10.6000
 20
  9.0500
 30
0.0
 0
SEQEND
 8
PARTS
 0
POLYLINE
 8
PARTS
 66
1
 10
0.0
 20
0.0
 30
0.0
 0
VERTEX
 8
PARTS
 10
 10.6000
 20
  9.0500
 30
0.0
 0
VERTEX
 8
PARTS
 10
 10.6000
 20
  8.9500
 30
0.0
 0
SEQEND
 8
PARTS
 0
POLYLINE
 8
PARTS
 66
1
 10
0.0
 20
0.0
 30
0.0
 0
VERTEX
 8
PARTS
 10
 10.6000
 20
  8.9500
 30
0.0
 0
VERTEX
 8
PARTS
 10
 10.4000
 20
  8.9500
 30
0.0
 0
SEQEND
 8
PARTS
 0
POLYLINE
 8
PARTS
 66
1
 10
0.0
 20
0.0
 30
0.0
 0
VERTEX
 8
PARTS
 10
 10.4000
 20
  8.9500
 30
0.0
 0
VERTEX
 8
PARTS
 10
 10.3000
 20
  9.0000
 30
0.0
 0
SEQEND
 8
PARTS
 0
TEXT
 8
PARTTEXT
 10
 10.6200
 20
  8.8686
 30
0.0
 40
  0.0514
 1
B_DATA3
 0
POLYLINE
 8
PARTS
 66
1
 10
0.0
 20
0.0
 30
0.0
 0
VERTEX
 8
PARTS
 10
 10.3000
 20
  8.9000
 30
0.0
 0
VERTEX
 8
PARTS
 10
 10.4000
 20
  8.9500
 30
0.0
 0
SEQEND
 8
PARTS
 0
POLYLINE
 8
PARTS
 66
1
 10
0.0
 20
0.0
 30
0.0
 0
VERTEX
 8
PARTS
 10
 10.4000
 20
  8.9500
 30
0.0
 0
VERTEX
 8
PARTS
 10
 10.6000
 20
  8.9500
 30
0.0
 0
SEQEND
 8
PARTS
 0
POLYLINE
 8
PARTS
 66
1
 10
0.0
 20
0.0
 30
0.0
 0
VERTEX
 8
PARTS
 10
 10.6000
 20
  8.9500
 30
0.0
 0
VERTEX
 8
PARTS
 10
 10.6000
 20
  8.8500
 30
0.0
 0
SEQEND
 8
PARTS
 0
POLYLINE
 8
PARTS
 66
1
 10
0.0
 20
0.0
 30
0.0
 0
VERTEX
 8
PARTS
 10
 10.6000
 20
  8.8500
 30
0.0
 0
VERTEX
 8
PARTS
 10
 10.4000
 20
  8.8500
 30
0.0
 0
SEQEND
 8
PARTS
 0
POLYLINE
 8
PARTS
 66
1
 10
0.0
 20
0.0
 30
0.0
 0
VERTEX
 8
PARTS
 10
 10.4000
 20
  8.8500
 30
0.0
 0
VERTEX
 8
PARTS
 10
 10.3000
 20
  8.9000
 30
0.0
 0
SEQEND
 8
PARTS
 0
TEXT
 8
PARTTEXT
 10
 10.6200
 20
  8.7686
 30
0.0
 40
  0.0514
 1
B_DATA4
 0
POLYLINE
 8
PARTS
 66
1
 10
0.0
 20
0.0
 30
0.0
 0
VERTEX
 8
PARTS
 10
 10.3000
 20
  8.8000
 30
0.0
 0
VERTEX
 8
PARTS
 10
 10.4000
 20
  8.8500
 30
0.0
 0
SEQEND
 8
PARTS
 0
POLYLINE
 8
PARTS
 66
1
 10
0.0
 20
0.0
 30
0.0
 0
VERTEX
 8
PARTS
 10
 10.4000
 20
  8.8500
 30
0.0
 0
VERTEX
 8
PARTS
 10
 10.6000
 20
  8.8500
 30
0.0
 0
SEQEND
 8
PARTS
 0
POLYLINE
 8
PARTS
 66
1
 10
0.0
 20
0.0
 30
0.0
 0
VERTEX
 8
PARTS
 10
 10.6000
 20
  8.8500
 30
0.0
 0
VERTEX
 8
PARTS
 10
 10.6000
 20
  8.7500
 30
0.0
 0
SEQEND
 8
PARTS
 0
POLYLINE
 8
PARTS
 66
1
 10
0.0
 20
0.0
 30
0.0
 0
VERTEX
 8
PARTS
 10
 10.6000
 20
  8.7500
 30
0.0
 0
VERTEX
 8
PARTS
 10
 10.4000
 20
  8.7500
 30
0.0
 0
SEQEND
 8
PARTS
 0
POLYLINE
 8
PARTS
 66
1
 10
0.0
 20
0.0
 30
0.0
 0
VERTEX
 8
PARTS
 10
 10.4000
 20
  8.7500
 30
0.0
 0
VERTEX
 8
PARTS
 10
 10.3000
 20
  8.8000
 30
0.0
 0
SEQEND
 8
PARTS
 0
TEXT
 8
PARTTEXT
 10
 10.6200
 20
  8.6686
 30
0.0
 40
  0.0514
 1
B_DATA5
 0
POLYLINE
 8
PARTS
 66
1
 10
0.0
 20
0.0
 30
0.0
 0
VERTEX
 8
PARTS
 10
 10.3000
 20
  8.7000
 30
0.0
 0
VERTEX
 8
PARTS
 10
 10.4000
 20
  8.7500
 30
0.0
 0
SEQEND
 8
PARTS
 0
POLYLINE
 8
PARTS
 66
1
 10
0.0
 20
0.0
 30
0.0
 0
VERTEX
 8
PARTS
 10
 10.4000
 20
  8.7500
 30
0.0
 0
VERTEX
 8
PARTS
 10
 10.6000
 20
  8.7500
 30
0.0
 0
SEQEND
 8
PARTS
 0
POLYLINE
 8
PARTS
 66
1
 10
0.0
 20
0.0
 30
0.0
 0
VERTEX
 8
PARTS
 10
 10.6000
 20
  8.7500
 30
0.0
 0
VERTEX
 8
PARTS
 10
 10.6000
 20
  8.6500
 30
0.0
 0
SEQEND
 8
PARTS
 0
POLYLINE
 8
PARTS
 66
1
 10
0.0
 20
0.0
 30
0.0
 0
VERTEX
 8
PARTS
 10
 10.6000
 20
  8.6500
 30
0.0
 0
VERTEX
 8
PARTS
 10
 10.4000
 20
  8.6500
 30
0.0
 0
SEQEND
 8
PARTS
 0
POLYLINE
 8
PARTS
 66
1
 10
0.0
 20
0.0
 30
0.0
 0
VERTEX
 8
PARTS
 10
 10.4000
 20
  8.6500
 30
0.0
 0
VERTEX
 8
PARTS
 10
 10.3000
 20
  8.7000
 30
0.0
 0
SEQEND
 8
PARTS
 0
TEXT
 8
PARTTEXT
 10
 10.6200
 20
  8.5686
 30
0.0
 40
  0.0514
 1
B_DATA6
 0
POLYLINE
 8
PARTS
 66
1
 10
0.0
 20
0.0
 30
0.0
 0
VERTEX
 8
PARTS
 10
 10.3000
 20
  8.6000
 30
0.0
 0
VERTEX
 8
PARTS
 10
 10.4000
 20
  8.6500
 30
0.0
 0
SEQEND
 8
PARTS
 0
POLYLINE
 8
PARTS
 66
1
 10
0.0
 20
0.0
 30
0.0
 0
VERTEX
 8
PARTS
 10
 10.4000
 20
  8.6500
 30
0.0
 0
VERTEX
 8
PARTS
 10
 10.6000
 20
  8.6500
 30
0.0
 0
SEQEND
 8
PARTS
 0
POLYLINE
 8
PARTS
 66
1
 10
0.0
 20
0.0
 30
0.0
 0
VERTEX
 8
PARTS
 10
 10.6000
 20
  8.6500
 30
0.0
 0
VERTEX
 8
PARTS
 10
 10.6000
 20
  8.5500
 30
0.0
 0
SEQEND
 8
PARTS
 0
POLYLINE
 8
PARTS
 66
1
 10
0.0
 20
0.0
 30
0.0
 0
VERTEX
 8
PARTS
 10
 10.6000
 20
  8.5500
 30
0.0
 0
VERTEX
 8
PARTS
 10
 10.4000
 20
  8.5500
 30
0.0
 0
SEQEND
 8
PARTS
 0
POLYLINE
 8
PARTS
 66
1
 10
0.0
 20
0.0
 30
0.0
 0
VERTEX
 8
PARTS
 10
 10.4000
 20
  8.5500
 30
0.0
 0
VERTEX
 8
PARTS
 10
 10.3000
 20
  8.6000
 30
0.0
 0
SEQEND
 8
PARTS
 0
TEXT
 8
PARTTEXT
 10
 10.6200
 20
  8.4686
 30
0.0
 40
  0.0514
 1
B_DATA7
 0
POLYLINE
 8
PARTS
 66
1
 10
0.0
 20
0.0
 30
0.0
 0
VERTEX
 8
PARTS
 10
 10.3000
 20
  8.5000
 30
0.0
 0
VERTEX
 8
PARTS
 10
 10.4000
 20
  8.5500
 30
0.0
 0
SEQEND
 8
PARTS
 0
POLYLINE
 8
PARTS
 66
1
 10
0.0
 20
0.0
 30
0.0
 0
VERTEX
 8
PARTS
 10
 10.4000
 20
  8.5500
 30
0.0
 0
VERTEX
 8
PARTS
 10
 10.6000
 20
  8.5500
 30
0.0
 0
SEQEND
 8
PARTS
 0
POLYLINE
 8
PARTS
 66
1
 10
0.0
 20
0.0
 30
0.0
 0
VERTEX
 8
PARTS
 10
 10.6000
 20
  8.5500
 30
0.0
 0
VERTEX
 8
PARTS
 10
 10.6000
 20
  8.4500
 30
0.0
 0
SEQEND
 8
PARTS
 0
POLYLINE
 8
PARTS
 66
1
 10
0.0
 20
0.0
 30
0.0
 0
VERTEX
 8
PARTS
 10
 10.6000
 20
  8.4500
 30
0.0
 0
VERTEX
 8
PARTS
 10
 10.4000
 20
  8.4500
 30
0.0
 0
SEQEND
 8
PARTS
 0
POLYLINE
 8
PARTS
 66
1
 10
0.0
 20
0.0
 30
0.0
 0
VERTEX
 8
PARTS
 10
 10.4000
 20
  8.4500
 30
0.0
 0
VERTEX
 8
PARTS
 10
 10.3000
 20
  8.5000
 30
0.0
 0
SEQEND
 8
PARTS
 0
TEXT
 8
PARTTEXT
 10
 10.6200
 20
  7.6686
 30
0.0
 40
  0.0514
 1
B_ADDR0
 0
POLYLINE
 8
PARTS
 66
1
 10
0.0
 20
0.0
 30
0.0
 0
VERTEX
 8
PARTS
 10
 10.3000
 20
  7.7000
 30
0.0
 0
VERTEX
 8
PARTS
 10
 10.4000
 20
  7.7500
 30
0.0
 0
SEQEND
 8
PARTS
 0
POLYLINE
 8
PARTS
 66
1
 10
0.0
 20
0.0
 30
0.0
 0
VERTEX
 8
PARTS
 10
 10.4000
 20
  7.7500
 30
0.0
 0
VERTEX
 8
PARTS
 10
 10.6000
 20
  7.7500
 30
0.0
 0
SEQEND
 8
PARTS
 0
POLYLINE
 8
PARTS
 66
1
 10
0.0
 20
0.0
 30
0.0
 0
VERTEX
 8
PARTS
 10
 10.6000
 20
  7.7500
 30
0.0
 0
VERTEX
 8
PARTS
 10
 10.6000
 20
  7.6500
 30
0.0
 0
SEQEND
 8
PARTS
 0
POLYLINE
 8
PARTS
 66
1
 10
0.0
 20
0.0
 30
0.0
 0
VERTEX
 8
PARTS
 10
 10.6000
 20
  7.6500
 30
0.0
 0
VERTEX
 8
PARTS
 10
 10.4000
 20
  7.6500
 30
0.0
 0
SEQEND
 8
PARTS
 0
POLYLINE
 8
PARTS
 66
1
 10
0.0
 20
0.0
 30
0.0
 0
VERTEX
 8
PARTS
 10
 10.4000
 20
  7.6500
 30
0.0
 0
VERTEX
 8
PARTS
 10
 10.3000
 20
  7.7000
 30
0.0
 0
SEQEND
 8
PARTS
 0
TEXT
 8
PARTTEXT
 10
 10.6200
 20
  7.5686
 30
0.0
 40
  0.0514
 1
B_ADDR1
 0
POLYLINE
 8
PARTS
 66
1
 10
0.0
 20
0.0
 30
0.0
 0
VERTEX
 8
PARTS
 10
 10.3000
 20
  7.6000
 30
0.0
 0
VERTEX
 8
PARTS
 10
 10.4000
 20
  7.6500
 30
0.0
 0
SEQEND
 8
PARTS
 0
POLYLINE
 8
PARTS
 66
1
 10
0.0
 20
0.0
 30
0.0
 0
VERTEX
 8
PARTS
 10
 10.4000
 20
  7.6500
 30
0.0
 0
VERTEX
 8
PARTS
 10
 10.6000
 20
  7.6500
 30
0.0
 0
SEQEND
 8
PARTS
 0
POLYLINE
 8
PARTS
 66
1
 10
0.0
 20
0.0
 30
0.0
 0
VERTEX
 8
PARTS
 10
 10.6000
 20
  7.6500
 30
0.0
 0
VERTEX
 8
PARTS
 10
 10.6000
 20
  7.5500
 30
0.0
 0
SEQEND
 8
PARTS
 0
POLYLINE
 8
PARTS
 66
1
 10
0.0
 20
0.0
 30
0.0
 0
VERTEX
 8
PARTS
 10
 10.6000
 20
  7.5500
 30
0.0
 0
VERTEX
 8
PARTS
 10
 10.4000
 20
  7.5500
 30
0.0
 0
SEQEND
 8
PARTS
 0
POLYLINE
 8
PARTS
 66
1
 10
0.0
 20
0.0
 30
0.0
 0
VERTEX
 8
PARTS
 10
 10.4000
 20
  7.5500
 30
0.0
 0
VERTEX
 8
PARTS
 10
 10.3000
 20
  7.6000
 30
0.0
 0
SEQEND
 8
PARTS
 0
TEXT
 8
PARTTEXT
 10
 10.6200
 20
  7.4686
 30
0.0
 40
  0.0514
 1
B_ADDR2
 0
POLYLINE
 8
PARTS
 66
1
 10
0.0
 20
0.0
 30
0.0
 0
VERTEX
 8
PARTS
 10
 10.3000
 20
  7.5000
 30
0.0
 0
VERTEX
 8
PARTS
 10
 10.4000
 20
  7.5500
 30
0.0
 0
SEQEND
 8
PARTS
 0
POLYLINE
 8
PARTS
 66
1
 10
0.0
 20
0.0
 30
0.0
 0
VERTEX
 8
PARTS
 10
 10.4000
 20
  7.5500
 30
0.0
 0
VERTEX
 8
PARTS
 10
 10.6000
 20
  7.5500
 30
0.0
 0
SEQEND
 8
PARTS
 0
POLYLINE
 8
PARTS
 66
1
 10
0.0
 20
0.0
 30
0.0
 0
VERTEX
 8
PARTS
 10
 10.6000
 20
  7.5500
 30
0.0
 0
VERTEX
 8
PARTS
 10
 10.6000
 20
  7.4500
 30
0.0
 0
SEQEND
 8
PARTS
 0
POLYLINE
 8
PARTS
 66
1
 10
0.0
 20
0.0
 30
0.0
 0
VERTEX
 8
PARTS
 10
 10.6000
 20
  7.4500
 30
0.0
 0
VERTEX
 8
PARTS
 10
 10.4000
 20
  7.4500
 30
0.0
 0
SEQEND
 8
PARTS
 0
POLYLINE
 8
PARTS
 66
1
 10
0.0
 20
0.0
 30
0.0
 0
VERTEX
 8
PARTS
 10
 10.4000
 20
  7.4500
 30
0.0
 0
VERTEX
 8
PARTS
 10
 10.3000
 20
  7.5000
 30
0.0
 0
SEQEND
 8
PARTS
 0
TEXT
 8
PARTTEXT
 10
 10.6200
 20
  7.3686
 30
0.0
 40
  0.0514
 1
B_RES*
 0
POLYLINE
 8
PARTS
 66
1
 10
0.0
 20
0.0
 30
0.0
 0
VERTEX
 8
PARTS
 10
 10.3000
 20
  7.4000
 30
0.0
 0
VERTEX
 8
PARTS
 10
 10.4000
 20
  7.4500
 30
0.0
 0
SEQEND
 8
PARTS
 0
POLYLINE
 8
PARTS
 66
1
 10
0.0
 20
0.0
 30
0.0
 0
VERTEX
 8
PARTS
 10
 10.4000
 20
  7.4500
 30
0.0
 0
VERTEX
 8
PARTS
 10
 10.6000
 20
  7.4500
 30
0.0
 0
SEQEND
 8
PARTS
 0
POLYLINE
 8
PARTS
 66
1
 10
0.0
 20
0.0
 30
0.0
 0
VERTEX
 8
PARTS
 10
 10.6000
 20
  7.4500
 30
0.0
 0
VERTEX
 8
PARTS
 10
 10.6000
 20
  7.3500
 30
0.0
 0
SEQEND
 8
PARTS
 0
POLYLINE
 8
PARTS
 66
1
 10
0.0
 20
0.0
 30
0.0
 0
VERTEX
 8
PARTS
 10
 10.6000
 20
  7.3500
 30
0.0
 0
VERTEX
 8
PARTS
 10
 10.4000
 20
  7.3500
 30
0.0
 0
SEQEND
 8
PARTS
 0
POLYLINE
 8
PARTS
 66
1
 10
0.0
 20
0.0
 30
0.0
 0
VERTEX
 8
PARTS
 10
 10.4000
 20
  7.3500
 30
0.0
 0
VERTEX
 8
PARTS
 10
 10.3000
 20
  7.4000
 30
0.0
 0
SEQEND
 8
PARTS
 0
TEXT
 8
PARTTEXT
 10
 10.6200
 20
  7.2686
 30
0.0
 40
  0.0514
 1
B_WRN
 0
POLYLINE
 8
PARTS
 66
1
 10
0.0
 20
0.0
 30
0.0
 0
VERTEX
 8
PARTS
 10
 10.3000
 20
  7.3000
 30
0.0
 0
VERTEX
 8
PARTS
 10
 10.4000
 20
  7.3500
 30
0.0
 0
SEQEND
 8
PARTS
 0
POLYLINE
 8
PARTS
 66
1
 10
0.0
 20
0.0
 30
0.0
 0
VERTEX
 8
PARTS
 10
 10.4000
 20
  7.3500
 30
0.0
 0
VERTEX
 8
PARTS
 10
 10.6000
 20
  7.3500
 30
0.0
 0
SEQEND
 8
PARTS
 0
POLYLINE
 8
PARTS
 66
1
 10
0.0
 20
0.0
 30
0.0
 0
VERTEX
 8
PARTS
 10
 10.6000
 20
  7.3500
 30
0.0
 0
VERTEX
 8
PARTS
 10
 10.6000
 20
  7.2500
 30
0.0
 0
SEQEND
 8
PARTS
 0
POLYLINE
 8
PARTS
 66
1
 10
0.0
 20
0.0
 30
0.0
 0
VERTEX
 8
PARTS
 10
 10.6000
 20
  7.2500
 30
0.0
 0
VERTEX
 8
PARTS
 10
 10.4000
 20
  7.2500
 30
0.0
 0
SEQEND
 8
PARTS
 0
POLYLINE
 8
PARTS
 66
1
 10
0.0
 20
0.0
 30
0.0
 0
VERTEX
 8
PARTS
 10
 10.4000
 20
  7.2500
 30
0.0
 0
VERTEX
 8
PARTS
 10
 10.3000
 20
  7.3000
 30
0.0
 0
SEQEND
 8
PARTS
 0
TEXT
 8
PARTTEXT
 10
 10.6200
 20
  7.1686
 30
0.0
 40
  0.0514
 1
B_LDSTB*
 0
POLYLINE
 8
PARTS
 66
1
 10
0.0
 20
0.0
 30
0.0
 0
VERTEX
 8
PARTS
 10
 10.3000
 20
  7.2000
 30
0.0
 0
VERTEX
 8
PARTS
 10
 10.4000
 20
  7.2500
 30
0.0
 0
SEQEND
 8
PARTS
 0
POLYLINE
 8
PARTS
 66
1
 10
0.0
 20
0.0
 30
0.0
 0
VERTEX
 8
PARTS
 10
 10.4000
 20
  7.2500
 30
0.0
 0
VERTEX
 8
PARTS
 10
 10.6000
 20
  7.2500
 30
0.0
 0
SEQEND
 8
PARTS
 0
POLYLINE
 8
PARTS
 66
1
 10
0.0
 20
0.0
 30
0.0
 0
VERTEX
 8
PARTS
 10
 10.6000
 20
  7.2500
 30
0.0
 0
VERTEX
 8
PARTS
 10
 10.6000
 20
  7.1500
 30
0.0
 0
SEQEND
 8
PARTS
 0
POLYLINE
 8
PARTS
 66
1
 10
0.0
 20
0.0
 30
0.0
 0
VERTEX
 8
PARTS
 10
 10.6000
 20
  7.1500
 30
0.0
 0
VERTEX
 8
PARTS
 10
 10.4000
 20
  7.1500
 30
0.0
 0
SEQEND
 8
PARTS
 0
POLYLINE
 8
PARTS
 66
1
 10
0.0
 20
0.0
 30
0.0
 0
VERTEX
 8
PARTS
 10
 10.4000
 20
  7.1500
 30
0.0
 0
VERTEX
 8
PARTS
 10
 10.3000
 20
  7.2000
 30
0.0
 0
SEQEND
 8
PARTS
 0
TEXT
 8
PARTTEXT
 10
  7.5200
 20
  9.0686
 30
0.0
 40
  0.0514
 1
A_DATA0
 0
POLYLINE
 8
PARTS
 66
1
 10
0.0
 20
0.0
 30
0.0
 0
VERTEX
 8
PARTS
 10
  7.2000
 20
  9.1000
 30
0.0
 0
VERTEX
 8
PARTS
 10
  7.3000
 20
  9.1500
 30
0.0
 0
SEQEND
 8
PARTS
 0
POLYLINE
 8
PARTS
 66
1
 10
0.0
 20
0.0
 30
0.0
 0
VERTEX
 8
PARTS
 10
  7.3000
 20
  9.1500
 30
0.0
 0
VERTEX
 8
PARTS
 10
  7.5000
 20
  9.1500
 30
0.0
 0
SEQEND
 8
PARTS
 0
POLYLINE
 8
PARTS
 66
1
 10
0.0
 20
0.0
 30
0.0
 0
VERTEX
 8
PARTS
 10
  7.5000
 20
  9.1500
 30
0.0
 0
VERTEX
 8
PARTS
 10
  7.5000
 20
  9.0500
 30
0.0
 0
SEQEND
 8
PARTS
 0
POLYLINE
 8
PARTS
 66
1
 10
0.0
 20
0.0
 30
0.0
 0
VERTEX
 8
PARTS
 10
  7.5000
 20
  9.0500
 30
0.0
 0
VERTEX
 8
PARTS
 10
  7.3000
 20
  9.0500
 30
0.0
 0
SEQEND
 8
PARTS
 0
POLYLINE
 8
PARTS
 66
1
 10
0.0
 20
0.0
 30
0.0
 0
VERTEX
 8
PARTS
 10
  7.3000
 20
  9.0500
 30
0.0
 0
VERTEX
 8
PARTS
 10
  7.2000
 20
  9.1000
 30
0.0
 0
SEQEND
 8
PARTS
 0
TEXT
 8
PARTTEXT
 10
  7.5200
 20
  8.9686
 30
0.0
 40
  0.0514
 1
A_DATA1
 0
POLYLINE
 8
PARTS
 66
1
 10
0.0
 20
0.0
 30
0.0
 0
VERTEX
 8
PARTS
 10
  7.2000
 20
  9.0000
 30
0.0
 0
VERTEX
 8
PARTS
 10
  7.3000
 20
  9.0500
 30
0.0
 0
SEQEND
 8
PARTS
 0
POLYLINE
 8
PARTS
 66
1
 10
0.0
 20
0.0
 30
0.0
 0
VERTEX
 8
PARTS
 10
  7.3000
 20
  9.0500
 30
0.0
 0
VERTEX
 8
PARTS
 10
  7.5000
 20
  9.0500
 30
0.0
 0
SEQEND
 8
PARTS
 0
POLYLINE
 8
PARTS
 66
1
 10
0.0
 20
0.0
 30
0.0
 0
VERTEX
 8
PARTS
 10
  7.5000
 20
  9.0500
 30
0.0
 0
VERTEX
 8
PARTS
 10
  7.5000
 20
  8.9500
 30
0.0
 0
SEQEND
 8
PARTS
 0
POLYLINE
 8
PARTS
 66
1
 10
0.0
 20
0.0
 30
0.0
 0
VERTEX
 8
PARTS
 10
  7.5000
 20
  8.9500
 30
0.0
 0
VERTEX
 8
PARTS
 10
  7.3000
 20
  8.9500
 30
0.0
 0
SEQEND
 8
PARTS
 0
POLYLINE
 8
PARTS
 66
1
 10
0.0
 20
0.0
 30
0.0
 0
VERTEX
 8
PARTS
 10
  7.3000
 20
  8.9500
 30
0.0
 0
VERTEX
 8
PARTS
 10
  7.2000
 20
  9.0000
 30
0.0
 0
SEQEND
 8
PARTS
 0
TEXT
 8
PARTTEXT
 10
  7.5200
 20
  8.8686
 30
0.0
 40
  0.0514
 1
A_DATA2
 0
POLYLINE
 8
PARTS
 66
1
 10
0.0
 20
0.0
 30
0.0
 0
VERTEX
 8
PARTS
 10
  7.2000
 20
  8.9000
 30
0.0
 0
VERTEX
 8
PARTS
 10
  7.3000
 20
  8.9500
 30
0.0
 0
SEQEND
 8
PARTS
 0
POLYLINE
 8
PARTS
 66
1
 10
0.0
 20
0.0
 30
0.0
 0
VERTEX
 8
PARTS
 10
  7.3000
 20
  8.9500
 30
0.0
 0
VERTEX
 8
PARTS
 10
  7.5000
 20
  8.9500
 30
0.0
 0
SEQEND
 8
PARTS
 0
POLYLINE
 8
PARTS
 66
1
 10
0.0
 20
0.0
 30
0.0
 0
VERTEX
 8
PARTS
 10
  7.5000
 20
  8.9500
 30
0.0
 0
VERTEX
 8
PARTS
 10
  7.5000
 20
  8.8500
 30
0.0
 0
SEQEND
 8
PARTS
 0
POLYLINE
 8
PARTS
 66
1
 10
0.0
 20
0.0
 30
0.0
 0
VERTEX
 8
PARTS
 10
  7.5000
 20
  8.8500
 30
0.0
 0
VERTEX
 8
PARTS
 10
  7.3000
 20
  8.8500
 30
0.0
 0
SEQEND
 8
PARTS
 0
POLYLINE
 8
PARTS
 66
1
 10
0.0
 20
0.0
 30
0.0
 0
VERTEX
 8
PARTS
 10
  7.3000
 20
  8.8500
 30
0.0
 0
VERTEX
 8
PARTS
 10
  7.2000
 20
  8.9000
 30
0.0
 0
SEQEND
 8
PARTS
 0
TEXT
 8
PARTTEXT
 10
  7.5200
 20
  8.7686
 30
0.0
 40
  0.0514
 1
A_DATA3
 0
POLYLINE
 8
PARTS
 66
1
 10
0.0
 20
0.0
 30
0.0
 0
VERTEX
 8
PARTS
 10
  7.2000
 20
  8.8000
 30
0.0
 0
VERTEX
 8
PARTS
 10
  7.3000
 20
  8.8500
 30
0.0
 0
SEQEND
 8
PARTS
 0
POLYLINE
 8
PARTS
 66
1
 10
0.0
 20
0.0
 30
0.0
 0
VERTEX
 8
PARTS
 10
  7.3000
 20
  8.8500
 30
0.0
 0
VERTEX
 8
PARTS
 10
  7.5000
 20
  8.8500
 30
0.0
 0
SEQEND
 8
PARTS
 0
POLYLINE
 8
PARTS
 66
1
 10
0.0
 20
0.0
 30
0.0
 0
VERTEX
 8
PARTS
 10
  7.5000
 20
  8.8500
 30
0.0
 0
VERTEX
 8
PARTS
 10
  7.5000
 20
  8.7500
 30
0.0
 0
SEQEND
 8
PARTS
 0
POLYLINE
 8
PARTS
 66
1
 10
0.0
 20
0.0
 30
0.0
 0
VERTEX
 8
PARTS
 10
  7.5000
 20
  8.7500
 30
0.0
 0
VERTEX
 8
PARTS
 10
  7.3000
 20
  8.7500
 30
0.0
 0
SEQEND
 8
PARTS
 0
POLYLINE
 8
PARTS
 66
1
 10
0.0
 20
0.0
 30
0.0
 0
VERTEX
 8
PARTS
 10
  7.3000
 20
  8.7500
 30
0.0
 0
VERTEX
 8
PARTS
 10
  7.2000
 20
  8.8000
 30
0.0
 0
SEQEND
 8
PARTS
 0
TEXT
 8
PARTTEXT
 10
  7.5200
 20
  8.6686
 30
0.0
 40
  0.0514
 1
A_DATA4
 0
POLYLINE
 8
PARTS
 66
1
 10
0.0
 20
0.0
 30
0.0
 0
VERTEX
 8
PARTS
 10
  7.2000
 20
  8.7000
 30
0.0
 0
VERTEX
 8
PARTS
 10
  7.3000
 20
  8.7500
 30
0.0
 0
SEQEND
 8
PARTS
 0
POLYLINE
 8
PARTS
 66
1
 10
0.0
 20
0.0
 30
0.0
 0
VERTEX
 8
PARTS
 10
  7.3000
 20
  8.7500
 30
0.0
 0
VERTEX
 8
PARTS
 10
  7.5000
 20
  8.7500
 30
0.0
 0
SEQEND
 8
PARTS
 0
POLYLINE
 8
PARTS
 66
1
 10
0.0
 20
0.0
 30
0.0
 0
VERTEX
 8
PARTS
 10
  7.5000
 20
  8.7500
 30
0.0
 0
VERTEX
 8
PARTS
 10
  7.5000
 20
  8.6500
 30
0.0
 0
SEQEND
 8
PARTS
 0
POLYLINE
 8
PARTS
 66
1
 10
0.0
 20
0.0
 30
0.0
 0
VERTEX
 8
PARTS
 10
  7.5000
 20
  8.6500
 30
0.0
 0
VERTEX
 8
PARTS
 10
  7.3000
 20
  8.6500
 30
0.0
 0
SEQEND
 8
PARTS
 0
POLYLINE
 8
PARTS
 66
1
 10
0.0
 20
0.0
 30
0.0
 0
VERTEX
 8
PARTS
 10
  7.3000
 20
  8.6500
 30
0.0
 0
VERTEX
 8
PARTS
 10
  7.2000
 20
  8.7000
 30
0.0
 0
SEQEND
 8
PARTS
 0
TEXT
 8
PARTTEXT
 10
  7.5200
 20
  8.5686
 30
0.0
 40
  0.0514
 1
A_DATA5
 0
POLYLINE
 8
PARTS
 66
1
 10
0.0
 20
0.0
 30
0.0
 0
VERTEX
 8
PARTS
 10
  7.2000
 20
  8.6000
 30
0.0
 0
VERTEX
 8
PARTS
 10
  7.3000
 20
  8.6500
 30
0.0
 0
SEQEND
 8
PARTS
 0
POLYLINE
 8
PARTS
 66
1
 10
0.0
 20
0.0
 30
0.0
 0
VERTEX
 8
PARTS
 10
  7.3000
 20
  8.6500
 30
0.0
 0
VERTEX
 8
PARTS
 10
  7.5000
 20
  8.6500
 30
0.0
 0
SEQEND
 8
PARTS
 0
POLYLINE
 8
PARTS
 66
1
 10
0.0
 20
0.0
 30
0.0
 0
VERTEX
 8
PARTS
 10
  7.5000
 20
  8.6500
 30
0.0
 0
VERTEX
 8
PARTS
 10
  7.5000
 20
  8.5500
 30
0.0
 0
SEQEND
 8
PARTS
 0
POLYLINE
 8
PARTS
 66
1
 10
0.0
 20
0.0
 30
0.0
 0
VERTEX
 8
PARTS
 10
  7.5000
 20
  8.5500
 30
0.0
 0
VERTEX
 8
PARTS
 10
  7.3000
 20
  8.5500
 30
0.0
 0
SEQEND
 8
PARTS
 0
POLYLINE
 8
PARTS
 66
1
 10
0.0
 20
0.0
 30
0.0
 0
VERTEX
 8
PARTS
 10
  7.3000
 20
  8.5500
 30
0.0
 0
VERTEX
 8
PARTS
 10
  7.2000
 20
  8.6000
 30
0.0
 0
SEQEND
 8
PARTS
 0
TEXT
 8
PARTTEXT
 10
  7.5200
 20
  8.4686
 30
0.0
 40
  0.0514
 1
A_DATA6
 0
POLYLINE
 8
PARTS
 66
1
 10
0.0
 20
0.0
 30
0.0
 0
VERTEX
 8
PARTS
 10
  7.2000
 20
  8.5000
 30
0.0
 0
VERTEX
 8
PARTS
 10
  7.3000
 20
  8.5500
 30
0.0
 0
SEQEND
 8
PARTS
 0
POLYLINE
 8
PARTS
 66
1
 10
0.0
 20
0.0
 30
0.0
 0
VERTEX
 8
PARTS
 10
  7.3000
 20
  8.5500
 30
0.0
 0
VERTEX
 8
PARTS
 10
  7.5000
 20
  8.5500
 30
0.0
 0
SEQEND
 8
PARTS
 0
POLYLINE
 8
PARTS
 66
1
 10
0.0
 20
0.0
 30
0.0
 0
VERTEX
 8
PARTS
 10
  7.5000
 20
  8.5500
 30
0.0
 0
VERTEX
 8
PARTS
 10
  7.5000
 20
  8.4500
 30
0.0
 0
SEQEND
 8
PARTS
 0
POLYLINE
 8
PARTS
 66
1
 10
0.0
 20
0.0
 30
0.0
 0
VERTEX
 8
PARTS
 10
  7.5000
 20
  8.4500
 30
0.0
 0
VERTEX
 8
PARTS
 10
  7.3000
 20
  8.4500
 30
0.0
 0
SEQEND
 8
PARTS
 0
POLYLINE
 8
PARTS
 66
1
 10
0.0
 20
0.0
 30
0.0
 0
VERTEX
 8
PARTS
 10
  7.3000
 20
  8.4500
 30
0.0
 0
VERTEX
 8
PARTS
 10
  7.2000
 20
  8.5000
 30
0.0
 0
SEQEND
 8
PARTS
 0
TEXT
 8
PARTTEXT
 10
  7.5200
 20
  8.3686
 30
0.0
 40
  0.0514
 1
A_DATA7
 0
POLYLINE
 8
PARTS
 66
1
 10
0.0
 20
0.0
 30
0.0
 0
VERTEX
 8
PARTS
 10
  7.2000
 20
  8.4000
 30
0.0
 0
VERTEX
 8
PARTS
 10
  7.3000
 20
  8.4500
 30
0.0
 0
SEQEND
 8
PARTS
 0
POLYLINE
 8
PARTS
 66
1
 10
0.0
 20
0.0
 30
0.0
 0
VERTEX
 8
PARTS
 10
  7.3000
 20
  8.4500
 30
0.0
 0
VERTEX
 8
PARTS
 10
  7.5000
 20
  8.4500
 30
0.0
 0
SEQEND
 8
PARTS
 0
POLYLINE
 8
PARTS
 66
1
 10
0.0
 20
0.0
 30
0.0
 0
VERTEX
 8
PARTS
 10
  7.5000
 20
  8.4500
 30
0.0
 0
VERTEX
 8
PARTS
 10
  7.5000
 20
  8.3500
 30
0.0
 0
SEQEND
 8
PARTS
 0
POLYLINE
 8
PARTS
 66
1
 10
0.0
 20
0.0
 30
0.0
 0
VERTEX
 8
PARTS
 10
  7.5000
 20
  8.3500
 30
0.0
 0
VERTEX
 8
PARTS
 10
  7.3000
 20
  8.3500
 30
0.0
 0
SEQEND
 8
PARTS
 0
POLYLINE
 8
PARTS
 66
1
 10
0.0
 20
0.0
 30
0.0
 0
VERTEX
 8
PARTS
 10
  7.3000
 20
  8.3500
 30
0.0
 0
VERTEX
 8
PARTS
 10
  7.2000
 20
  8.4000
 30
0.0
 0
SEQEND
 8
PARTS
 0
TEXT
 8
PARTTEXT
 10
  7.5200
 20
  7.6686
 30
0.0
 40
  0.0514
 1
A_ADDR0
 0
POLYLINE
 8
PARTS
 66
1
 10
0.0
 20
0.0
 30
0.0
 0
VERTEX
 8
PARTS
 10
  7.2000
 20
  7.7000
 30
0.0
 0
VERTEX
 8
PARTS
 10
  7.3000
 20
  7.7500
 30
0.0
 0
SEQEND
 8
PARTS
 0
POLYLINE
 8
PARTS
 66
1
 10
0.0
 20
0.0
 30
0.0
 0
VERTEX
 8
PARTS
 10
  7.3000
 20
  7.7500
 30
0.0
 0
VERTEX
 8
PARTS
 10
  7.5000
 20
  7.7500
 30
0.0
 0
SEQEND
 8
PARTS
 0
POLYLINE
 8
PARTS
 66
1
 10
0.0
 20
0.0
 30
0.0
 0
VERTEX
 8
PARTS
 10
  7.5000
 20
  7.7500
 30
0.0
 0
VERTEX
 8
PARTS
 10
  7.5000
 20
  7.6500
 30
0.0
 0
SEQEND
 8
PARTS
 0
POLYLINE
 8
PARTS
 66
1
 10
0.0
 20
0.0
 30
0.0
 0
VERTEX
 8
PARTS
 10
  7.5000
 20
  7.6500
 30
0.0
 0
VERTEX
 8
PARTS
 10
  7.3000
 20
  7.6500
 30
0.0
 0
SEQEND
 8
PARTS
 0
POLYLINE
 8
PARTS
 66
1
 10
0.0
 20
0.0
 30
0.0
 0
VERTEX
 8
PARTS
 10
  7.3000
 20
  7.6500
 30
0.0
 0
VERTEX
 8
PARTS
 10
  7.2000
 20
  7.7000
 30
0.0
 0
SEQEND
 8
PARTS
 0
TEXT
 8
PARTTEXT
 10
  7.5200
 20
  7.5686
 30
0.0
 40
  0.0514
 1
A_ADDR1
 0
POLYLINE
 8
PARTS
 66
1
 10
0.0
 20
0.0
 30
0.0
 0
VERTEX
 8
PARTS
 10
  7.2000
 20
  7.6000
 30
0.0
 0
VERTEX
 8
PARTS
 10
  7.3000
 20
  7.6500
 30
0.0
 0
SEQEND
 8
PARTS
 0
POLYLINE
 8
PARTS
 66
1
 10
0.0
 20
0.0
 30
0.0
 0
VERTEX
 8
PARTS
 10
  7.3000
 20
  7.6500
 30
0.0
 0
VERTEX
 8
PARTS
 10
  7.5000
 20
  7.6500
 30
0.0
 0
SEQEND
 8
PARTS
 0
POLYLINE
 8
PARTS
 66
1
 10
0.0
 20
0.0
 30
0.0
 0
VERTEX
 8
PARTS
 10
  7.5000
 20
  7.6500
 30
0.0
 0
VERTEX
 8
PARTS
 10
  7.5000
 20
  7.5500
 30
0.0
 0
SEQEND
 8
PARTS
 0
POLYLINE
 8
PARTS
 66
1
 10
0.0
 20
0.0
 30
0.0
 0
VERTEX
 8
PARTS
 10
  7.5000
 20
  7.5500
 30
0.0
 0
VERTEX
 8
PARTS
 10
  7.3000
 20
  7.5500
 30
0.0
 0
SEQEND
 8
PARTS
 0
POLYLINE
 8
PARTS
 66
1
 10
0.0
 20
0.0
 30
0.0
 0
VERTEX
 8
PARTS
 10
  7.3000
 20
  7.5500
 30
0.0
 0
VERTEX
 8
PARTS
 10
  7.2000
 20
  7.6000
 30
0.0
 0
SEQEND
 8
PARTS
 0
TEXT
 8
PARTTEXT
 10
  7.5200
 20
  7.4686
 30
0.0
 40
  0.0514
 1
A_ADDR2
 0
POLYLINE
 8
PARTS
 66
1
 10
0.0
 20
0.0
 30
0.0
 0
VERTEX
 8
PARTS
 10
  7.2000
 20
  7.5000
 30
0.0
 0
VERTEX
 8
PARTS
 10
  7.3000
 20
  7.5500
 30
0.0
 0
SEQEND
 8
PARTS
 0
POLYLINE
 8
PARTS
 66
1
 10
0.0
 20
0.0
 30
0.0
 0
VERTEX
 8
PARTS
 10
  7.3000
 20
  7.5500
 30
0.0
 0
VERTEX
 8
PARTS
 10
  7.5000
 20
  7.5500
 30
0.0
 0
SEQEND
 8
PARTS
 0
POLYLINE
 8
PARTS
 66
1
 10
0.0
 20
0.0
 30
0.0
 0
VERTEX
 8
PARTS
 10
  7.5000
 20
  7.5500
 30
0.0
 0
VERTEX
 8
PARTS
 10
  7.5000
 20
  7.4500
 30
0.0
 0
SEQEND
 8
PARTS
 0
POLYLINE
 8
PARTS
 66
1
 10
0.0
 20
0.0
 30
0.0
 0
VERTEX
 8
PARTS
 10
  7.5000
 20
  7.4500
 30
0.0
 0
VERTEX
 8
PARTS
 10
  7.3000
 20
  7.4500
 30
0.0
 0
SEQEND
 8
PARTS
 0
POLYLINE
 8
PARTS
 66
1
 10
0.0
 20
0.0
 30
0.0
 0
VERTEX
 8
PARTS
 10
  7.3000
 20
  7.4500
 30
0.0
 0
VERTEX
 8
PARTS
 10
  7.2000
 20
  7.5000
 30
0.0
 0
SEQEND
 8
PARTS
 0
TEXT
 8
PARTTEXT
 10
  7.5200
 20
  7.3686
 30
0.0
 40
  0.0514
 1
A_RES*
 0
POLYLINE
 8
PARTS
 66
1
 10
0.0
 20
0.0
 30
0.0
 0
VERTEX
 8
PARTS
 10
  7.2000
 20
  7.4000
 30
0.0
 0
VERTEX
 8
PARTS
 10
  7.3000
 20
  7.4500
 30
0.0
 0
SEQEND
 8
PARTS
 0
POLYLINE
 8
PARTS
 66
1
 10
0.0
 20
0.0
 30
0.0
 0
VERTEX
 8
PARTS
 10
  7.3000
 20
  7.4500
 30
0.0
 0
VERTEX
 8
PARTS
 10
  7.5000
 20
  7.4500
 30
0.0
 0
SEQEND
 8
PARTS
 0
POLYLINE
 8
PARTS
 66
1
 10
0.0
 20
0.0
 30
0.0
 0
VERTEX
 8
PARTS
 10
  7.5000
 20
  7.4500
 30
0.0
 0
VERTEX
 8
PARTS
 10
  7.5000
 20
  7.3500
 30
0.0
 0
SEQEND
 8
PARTS
 0
POLYLINE
 8
PARTS
 66
1
 10
0.0
 20
0.0
 30
0.0
 0
VERTEX
 8
PARTS
 10
  7.5000
 20
  7.3500
 30
0.0
 0
VERTEX
 8
PARTS
 10
  7.3000
 20
  7.3500
 30
0.0
 0
SEQEND
 8
PARTS
 0
POLYLINE
 8
PARTS
 66
1
 10
0.0
 20
0.0
 30
0.0
 0
VERTEX
 8
PARTS
 10
  7.3000
 20
  7.3500
 30
0.0
 0
VERTEX
 8
PARTS
 10
  7.2000
 20
  7.4000
 30
0.0
 0
SEQEND
 8
PARTS
 0
TEXT
 8
PARTTEXT
 10
  7.5200
 20
  7.2686
 30
0.0
 40
  0.0514
 1
A_WRN
 0
POLYLINE
 8
PARTS
 66
1
 10
0.0
 20
0.0
 30
0.0
 0
VERTEX
 8
PARTS
 10
  7.2000
 20
  7.3000
 30
0.0
 0
VERTEX
 8
PARTS
 10
  7.3000
 20
  7.3500
 30
0.0
 0
SEQEND
 8
PARTS
 0
POLYLINE
 8
PARTS
 66
1
 10
0.0
 20
0.0
 30
0.0
 0
VERTEX
 8
PARTS
 10
  7.3000
 20
  7.3500
 30
0.0
 0
VERTEX
 8
PARTS
 10
  7.5000
 20
  7.3500
 30
0.0
 0
SEQEND
 8
PARTS
 0
POLYLINE
 8
PARTS
 66
1
 10
0.0
 20
0.0
 30
0.0
 0
VERTEX
 8
PARTS
 10
  7.5000
 20
  7.3500
 30
0.0
 0
VERTEX
 8
PARTS
 10
  7.5000
 20
  7.2500
 30
0.0
 0
SEQEND
 8
PARTS
 0
POLYLINE
 8
PARTS
 66
1
 10
0.0
 20
0.0
 30
0.0
 0
VERTEX
 8
PARTS
 10
  7.5000
 20
  7.2500
 30
0.0
 0
VERTEX
 8
PARTS
 10
  7.3000
 20
  7.2500
 30
0.0
 0
SEQEND
 8
PARTS
 0
POLYLINE
 8
PARTS
 66
1
 10
0.0
 20
0.0
 30
0.0
 0
VERTEX
 8
PARTS
 10
  7.3000
 20
  7.2500
 30
0.0
 0
VERTEX
 8
PARTS
 10
  7.2000
 20
  7.3000
 30
0.0
 0
SEQEND
 8
PARTS
 0
TEXT
 8
PARTTEXT
 10
  7.5200
 20
  7.1686
 30
0.0
 40
  0.0514
 1
A_LDSTB*
 0
POLYLINE
 8
PARTS
 66
1
 10
0.0
 20
0.0
 30
0.0
 0
VERTEX
 8
PARTS
 10
  7.2000
 20
  7.2000
 30
0.0
 0
VERTEX
 8
PARTS
 10
  7.3000
 20
  7.2500
 30
0.0
 0
SEQEND
 8
PARTS
 0
POLYLINE
 8
PARTS
 66
1
 10
0.0
 20
0.0
 30
0.0
 0
VERTEX
 8
PARTS
 10
  7.3000
 20
  7.2500
 30
0.0
 0
VERTEX
 8
PARTS
 10
  7.5000
 20
  7.2500
 30
0.0
 0
SEQEND
 8
PARTS
 0
POLYLINE
 8
PARTS
 66
1
 10
0.0
 20
0.0
 30
0.0
 0
VERTEX
 8
PARTS
 10
  7.5000
 20
  7.2500
 30
0.0
 0
VERTEX
 8
PARTS
 10
  7.5000
 20
  7.1500
 30
0.0
 0
SEQEND
 8
PARTS
 0
POLYLINE
 8
PARTS
 66
1
 10
0.0
 20
0.0
 30
0.0
 0
VERTEX
 8
PARTS
 10
  7.5000
 20
  7.1500
 30
0.0
 0
VERTEX
 8
PARTS
 10
  7.3000
 20
  7.1500
 30
0.0
 0
SEQEND
 8
PARTS
 0
POLYLINE
 8
PARTS
 66
1
 10
0.0
 20
0.0
 30
0.0
 0
VERTEX
 8
PARTS
 10
  7.3000
 20
  7.1500
 30
0.0
 0
VERTEX
 8
PARTS
 10
  7.2000
 20
  7.2000
 30
0.0
 0
SEQEND
 8
PARTS
 0
TEXT
 8
PARTTEXT
 10
  4.8400
 20
  6.1686
 30
0.0
 40
  0.0514
 1
D[0..15]
 0
POLYLINE
 8
PARTS
 66
1
 10
0.0
 20
0.0
 30
0.0
 0
VERTEX
 8
PARTS
 10
  5.5000
 20
  6.2500
 30
0.0
 0
VERTEX
 8
PARTS
 10
  5.3000
 20
  6.2500
 30
0.0
 0
SEQEND
 8
PARTS
 0
POLYLINE
 8
PARTS
 66
1
 10
0.0
 20
0.0
 30
0.0
 0
VERTEX
 8
PARTS
 10
  5.3000
 20
  6.2500
 30
0.0
 0
VERTEX
 8
PARTS
 10
  5.2000
 20
  6.2000
 30
0.0
 0
SEQEND
 8
PARTS
 0
POLYLINE
 8
PARTS
 66
1
 10
0.0
 20
0.0
 30
0.0
 0
VERTEX
 8
PARTS
 10
  5.2000
 20
  6.2000
 30
0.0
 0
VERTEX
 8
PARTS
 10
  5.3000
 20
  6.1500
 30
0.0
 0
SEQEND
 8
PARTS
 0
POLYLINE
 8
PARTS
 66
1
 10
0.0
 20
0.0
 30
0.0
 0
VERTEX
 8
PARTS
 10
  5.3000
 20
  6.1500
 30
0.0
 0
VERTEX
 8
PARTS
 10
  5.5000
 20
  6.1500
 30
0.0
 0
SEQEND
 8
PARTS
 0
POLYLINE
 8
PARTS
 66
1
 10
0.0
 20
0.0
 30
0.0
 0
VERTEX
 8
PARTS
 10
  5.5000
 20
  6.1500
 30
0.0
 0
VERTEX
 8
PARTS
 10
  5.5000
 20
  6.2500
 30
0.0
 0
SEQEND
 8
PARTS
 0
TEXT
 8
PARTTEXT
 10
 13.2300
 20
  5.5586
 30
0.0
 40
  0.0514
 1
RES*
 0
POLYLINE
 8
PARTS
 66
1
 10
0.0
 20
0.0
 30
0.0
 0
VERTEX
 8
PARTS
 10
 13.5000
 20
  5.6500
 30
0.0
 0
VERTEX
 8
PARTS
 10
 13.7000
 20
  5.6500
 30
0.0
 0
SEQEND
 8
PARTS
 0
POLYLINE
 8
PARTS
 66
1
 10
0.0
 20
0.0
 30
0.0
 0
VERTEX
 8
PARTS
 10
 13.7000
 20
  5.6500
 30
0.0
 0
VERTEX
 8
PARTS
 10
 13.8000
 20
  5.6000
 30
0.0
 0
SEQEND
 8
PARTS
 0
POLYLINE
 8
PARTS
 66
1
 10
0.0
 20
0.0
 30
0.0
 0
VERTEX
 8
PARTS
 10
 13.8000
 20
  5.6000
 30
0.0
 0
VERTEX
 8
PARTS
 10
 13.7000
 20
  5.5500
 30
0.0
 0
SEQEND
 8
PARTS
 0
POLYLINE
 8
PARTS
 66
1
 10
0.0
 20
0.0
 30
0.0
 0
VERTEX
 8
PARTS
 10
 13.7000
 20
  5.5500
 30
0.0
 0
VERTEX
 8
PARTS
 10
 13.5000
 20
  5.5500
 30
0.0
 0
SEQEND
 8
PARTS
 0
POLYLINE
 8
PARTS
 66
1
 10
0.0
 20
0.0
 30
0.0
 0
VERTEX
 8
PARTS
 10
 13.5000
 20
  5.5500
 30
0.0
 0
VERTEX
 8
PARTS
 10
 13.5000
 20
  5.6500
 30
0.0
 0
SEQEND
 8
PARTS
 0
TEXT
 8
PARTTEXT
 10
  3.8500
 20
  0.5586
 30
0.0
 40
  0.0514
 1
UPDSTB*
 0
POLYLINE
 8
PARTS
 66
1
 10
0.0
 20
0.0
 30
0.0
 0
VERTEX
 8
PARTS
 10
  4.3000
 20
  0.6500
 30
0.0
 0
VERTEX
 8
PARTS
 10
  4.5000
 20
  0.6500
 30
0.0
 0
SEQEND
 8
PARTS
 0
POLYLINE
 8
PARTS
 66
1
 10
0.0
 20
0.0
 30
0.0
 0
VERTEX
 8
PARTS
 10
  4.5000
 20
  0.6500
 30
0.0
 0
VERTEX
 8
PARTS
 10
  4.6000
 20
  0.6000
 30
0.0
 0
SEQEND
 8
PARTS
 0
POLYLINE
 8
PARTS
 66
1
 10
0.0
 20
0.0
 30
0.0
 0
VERTEX
 8
PARTS
 10
  4.6000
 20
  0.6000
 30
0.0
 0
VERTEX
 8
PARTS
 10
  4.5000
 20
  0.5500
 30
0.0
 0
SEQEND
 8
PARTS
 0
POLYLINE
 8
PARTS
 66
1
 10
0.0
 20
0.0
 30
0.0
 0
VERTEX
 8
PARTS
 10
  4.5000
 20
  0.5500
 30
0.0
 0
VERTEX
 8
PARTS
 10
  4.3000
 20
  0.5500
 30
0.0
 0
SEQEND
 8
PARTS
 0
POLYLINE
 8
PARTS
 66
1
 10
0.0
 20
0.0
 30
0.0
 0
VERTEX
 8
PARTS
 10
  4.3000
 20
  0.5500
 30
0.0
 0
VERTEX
 8
PARTS
 10
  4.3000
 20
  0.6500
 30
0.0
 0
SEQEND
 8
PARTS
 0
TEXT
 8
PARTTEXT
 10
  9.1300
 20
  4.4586
 30
0.0
 40
  0.0514
 1
RES*
 0
POLYLINE
 8
PARTS
 66
1
 10
0.0
 20
0.0
 30
0.0
 0
VERTEX
 8
PARTS
 10
  9.4000
 20
  4.5500
 30
0.0
 0
VERTEX
 8
PARTS
 10
  9.6000
 20
  4.5500
 30
0.0
 0
SEQEND
 8
PARTS
 0
POLYLINE
 8
PARTS
 66
1
 10
0.0
 20
0.0
 30
0.0
 0
VERTEX
 8
PARTS
 10
  9.6000
 20
  4.5500
 30
0.0
 0
VERTEX
 8
PARTS
 10
  9.7000
 20
  4.5000
 30
0.0
 0
SEQEND
 8
PARTS
 0
POLYLINE
 8
PARTS
 66
1
 10
0.0
 20
0.0
 30
0.0
 0
VERTEX
 8
PARTS
 10
  9.7000
 20
  4.5000
 30
0.0
 0
VERTEX
 8
PARTS
 10
  9.6000
 20
  4.4500
 30
0.0
 0
SEQEND
 8
PARTS
 0
POLYLINE
 8
PARTS
 66
1
 10
0.0
 20
0.0
 30
0.0
 0
VERTEX
 8
PARTS
 10
  9.6000
 20
  4.4500
 30
0.0
 0
VERTEX
 8
PARTS
 10
  9.4000
 20
  4.4500
 30
0.0
 0
SEQEND
 8
PARTS
 0
POLYLINE
 8
PARTS
 66
1
 10
0.0
 20
0.0
 30
0.0
 0
VERTEX
 8
PARTS
 10
  9.4000
 20
  4.4500
 30
0.0
 0
VERTEX
 8
PARTS
 10
  9.4000
 20
  4.5500
 30
0.0
 0
SEQEND
 8
PARTS
 0
TEXT
 8
PARTTEXT
 10
 14.2200
 20
  2.7686
 30
0.0
 40
  0.0514
 1
XferCtrl+
 0
POLYLINE
 8
PARTS
 66
1
 10
0.0
 20
0.0
 30
0.0
 0
VERTEX
 8
PARTS
 10
 13.9000
 20
  2.8000
 30
0.0
 0
VERTEX
 8
PARTS
 10
 14.0000
 20
  2.8500
 30
0.0
 0
SEQEND
 8
PARTS
 0
POLYLINE
 8
PARTS
 66
1
 10
0.0
 20
0.0
 30
0.0
 0
VERTEX
 8
PARTS
 10
 14.0000
 20
  2.8500
 30
0.0
 0
VERTEX
 8
PARTS
 10
 14.2000
 20
  2.8500
 30
0.0
 0
SEQEND
 8
PARTS
 0
POLYLINE
 8
PARTS
 66
1
 10
0.0
 20
0.0
 30
0.0
 0
VERTEX
 8
PARTS
 10
 14.2000
 20
  2.8500
 30
0.0
 0
VERTEX
 8
PARTS
 10
 14.2000
 20
  2.7500
 30
0.0
 0
SEQEND
 8
PARTS
 0
POLYLINE
 8
PARTS
 66
1
 10
0.0
 20
0.0
 30
0.0
 0
VERTEX
 8
PARTS
 10
 14.2000
 20
  2.7500
 30
0.0
 0
VERTEX
 8
PARTS
 10
 14.0000
 20
  2.7500
 30
0.0
 0
SEQEND
 8
PARTS
 0
POLYLINE
 8
PARTS
 66
1
 10
0.0
 20
0.0
 30
0.0
 0
VERTEX
 8
PARTS
 10
 14.0000
 20
  2.7500
 30
0.0
 0
VERTEX
 8
PARTS
 10
 13.9000
 20
  2.8000
 30
0.0
 0
SEQEND
 8
PARTS
 0
TEXT
 8
PARTTEXT
 10
 14.2200
 20
  2.5686
 30
0.0
 40
  0.0514
 1
XferCtrl-
 0
POLYLINE
 8
PARTS
 66
1
 10
0.0
 20
0.0
 30
0.0
 0
VERTEX
 8
PARTS
 10
 13.9000
 20
  2.6000
 30
0.0
 0
VERTEX
 8
PARTS
 10
 14.0000
 20
  2.6500
 30
0.0
 0
SEQEND
 8
PARTS
 0
POLYLINE
 8
PARTS
 66
1
 10
0.0
 20
0.0
 30
0.0
 0
VERTEX
 8
PARTS
 10
 14.0000
 20
  2.6500
 30
0.0
 0
VERTEX
 8
PARTS
 10
 14.2000
 20
  2.6500
 30
0.0
 0
SEQEND
 8
PARTS
 0
POLYLINE
 8
PARTS
 66
1
 10
0.0
 20
0.0
 30
0.0
 0
VERTEX
 8
PARTS
 10
 14.2000
 20
  2.6500
 30
0.0
 0
VERTEX
 8
PARTS
 10
 14.2000
 20
  2.5500
 30
0.0
 0
SEQEND
 8
PARTS
 0
POLYLINE
 8
PARTS
 66
1
 10
0.0
 20
0.0
 30
0.0
 0
VERTEX
 8
PARTS
 10
 14.2000
 20
  2.5500
 30
0.0
 0
VERTEX
 8
PARTS
 10
 14.0000
 20
  2.5500
 30
0.0
 0
SEQEND
 8
PARTS
 0
POLYLINE
 8
PARTS
 66
1
 10
0.0
 20
0.0
 30
0.0
 0
VERTEX
 8
PARTS
 10
 14.0000
 20
  2.5500
 30
0.0
 0
VERTEX
 8
PARTS
 10
 13.9000
 20
  2.6000
 30
0.0
 0
SEQEND
 8
PARTS
 0
TEXT
 8
PARTTEXT
 10
  8.2900
 20
  7.3586
 30
0.0
 40
  0.0514
 1
DDS_RES*
 0
POLYLINE
 8
PARTS
 66
1
 10
0.0
 20
0.0
 30
0.0
 0
VERTEX
 8
PARTS
 10
  8.8000
 20
  7.4500
 30
0.0
 0
VERTEX
 8
PARTS
 10
  9.0000
 20
  7.4500
 30
0.0
 0
SEQEND
 8
PARTS
 0
POLYLINE
 8
PARTS
 66
1
 10
0.0
 20
0.0
 30
0.0
 0
VERTEX
 8
PARTS
 10
  9.0000
 20
  7.4500
 30
0.0
 0
VERTEX
 8
PARTS
 10
  9.1000
 20
  7.4000
 30
0.0
 0
SEQEND
 8
PARTS
 0
POLYLINE
 8
PARTS
 66
1
 10
0.0
 20
0.0
 30
0.0
 0
VERTEX
 8
PARTS
 10
  9.1000
 20
  7.4000
 30
0.0
 0
VERTEX
 8
PARTS
 10
  9.0000
 20
  7.3500
 30
0.0
 0
SEQEND
 8
PARTS
 0
POLYLINE
 8
PARTS
 66
1
 10
0.0
 20
0.0
 30
0.0
 0
VERTEX
 8
PARTS
 10
  9.0000
 20
  7.3500
 30
0.0
 0
VERTEX
 8
PARTS
 10
  8.8000
 20
  7.3500
 30
0.0
 0
SEQEND
 8
PARTS
 0
POLYLINE
 8
PARTS
 66
1
 10
0.0
 20
0.0
 30
0.0
 0
VERTEX
 8
PARTS
 10
  8.8000
 20
  7.3500
 30
0.0
 0
VERTEX
 8
PARTS
 10
  8.8000
 20
  7.4500
 30
0.0
 0
SEQEND
 8
PARTS
 0
TEXT
 8
PARTTEXT
 10
  5.1900
 20
  7.3586
 30
0.0
 40
  0.0514
 1
DDS_RES*
 0
POLYLINE
 8
PARTS
 66
1
 10
0.0
 20
0.0
 30
0.0
 0
VERTEX
 8
PARTS
 10
  5.7000
 20
  7.4500
 30
0.0
 0
VERTEX
 8
PARTS
 10
  5.9000
 20
  7.4500
 30
0.0
 0
SEQEND
 8
PARTS
 0
POLYLINE
 8
PARTS
 66
1
 10
0.0
 20
0.0
 30
0.0
 0
VERTEX
 8
PARTS
 10
  5.9000
 20
  7.4500
 30
0.0
 0
VERTEX
 8
PARTS
 10
  6.0000
 20
  7.4000
 30
0.0
 0
SEQEND
 8
PARTS
 0
POLYLINE
 8
PARTS
 66
1
 10
0.0
 20
0.0
 30
0.0
 0
VERTEX
 8
PARTS
 10
  6.0000
 20
  7.4000
 30
0.0
 0
VERTEX
 8
PARTS
 10
  5.9000
 20
  7.3500
 30
0.0
 0
SEQEND
 8
PARTS
 0
POLYLINE
 8
PARTS
 66
1
 10
0.0
 20
0.0
 30
0.0
 0
VERTEX
 8
PARTS
 10
  5.9000
 20
  7.3500
 30
0.0
 0
VERTEX
 8
PARTS
 10
  5.7000
 20
  7.3500
 30
0.0
 0
SEQEND
 8
PARTS
 0
POLYLINE
 8
PARTS
 66
1
 10
0.0
 20
0.0
 30
0.0
 0
VERTEX
 8
PARTS
 10
  5.7000
 20
  7.3500
 30
0.0
 0
VERTEX
 8
PARTS
 10
  5.7000
 20
  7.4500
 30
0.0
 0
SEQEND
 8
PARTS
 0
TEXT
 8
PARTTEXT
 10
 13.2200
 20
  3.4686
 30
0.0
 40
  0.0514
 1
XferLED
 0
POLYLINE
 8
PARTS
 66
1
 10
0.0
 20
0.0
 30
0.0
 0
VERTEX
 8
PARTS
 10
 12.9000
 20
  3.5000
 30
0.0
 0
VERTEX
 8
PARTS
 10
 13.0000
 20
  3.5500
 30
0.0
 0
SEQEND
 8
PARTS
 0
POLYLINE
 8
PARTS
 66
1
 10
0.0
 20
0.0
 30
0.0
 0
VERTEX
 8
PARTS
 10
 13.0000
 20
  3.5500
 30
0.0
 0
VERTEX
 8
PARTS
 10
 13.2000
 20
  3.5500
 30
0.0
 0
SEQEND
 8
PARTS
 0
POLYLINE
 8
PARTS
 66
1
 10
0.0
 20
0.0
 30
0.0
 0
VERTEX
 8
PARTS
 10
 13.2000
 20
  3.5500
 30
0.0
 0
VERTEX
 8
PARTS
 10
 13.2000
 20
  3.4500
 30
0.0
 0
SEQEND
 8
PARTS
 0
POLYLINE
 8
PARTS
 66
1
 10
0.0
 20
0.0
 30
0.0
 0
VERTEX
 8
PARTS
 10
 13.2000
 20
  3.4500
 30
0.0
 0
VERTEX
 8
PARTS
 10
 13.0000
 20
  3.4500
 30
0.0
 0
SEQEND
 8
PARTS
 0
POLYLINE
 8
PARTS
 66
1
 10
0.0
 20
0.0
 30
0.0
 0
VERTEX
 8
PARTS
 10
 13.0000
 20
  3.4500
 30
0.0
 0
VERTEX
 8
PARTS
 10
 12.9000
 20
  3.5000
 30
0.0
 0
SEQEND
 8
PARTS
 0
POLYLINE
 8
WIRE
 66
1
 10
0.0
 20
0.0
 30
0.0
 0
VERTEX
 8
WIRE
 10
  3.2000
 20
  9.2000
 30
0.0
 0
VERTEX
 8
WIRE
 10
  3.1000
 20
  9.1000
 30
0.0
 0
SEQEND
 8
WIRE
 0
POLYLINE
 8
WIRE
 66
1
 10
0.0
 20
0.0
 30
0.0
 0
VERTEX
 8
WIRE
 10
  3.2000
 20
  8.9000
 30
0.0
 0
VERTEX
 8
WIRE
 10
  3.1000
 20
  8.8000
 30
0.0
 0
SEQEND
 8
WIRE
 0
POLYLINE
 8
WIRE
 66
1
 10
0.0
 20
0.0
 30
0.0
 0
VERTEX
 8
WIRE
 10
  3.2000
 20
  8.6000
 30
0.0
 0
VERTEX
 8
WIRE
 10
  3.1000
 20
  8.5000
 30
0.0
 0
SEQEND
 8
WIRE
 0
POLYLINE
 8
WIRE
 66
1
 10
0.0
 20
0.0
 30
0.0
 0
VERTEX
 8
WIRE
 10
  3.2000
 20
  8.3000
 30
0.0
 0
VERTEX
 8
WIRE
 10
  3.1000
 20
  8.2000
 30
0.0
 0
SEQEND
 8
WIRE
 0
POLYLINE
 8
WIRE
 66
1
 10
0.0
 20
0.0
 30
0.0
 0
VERTEX
 8
WIRE
 10
  3.2000
 20
  7.4000
 30
0.0
 0
VERTEX
 8
WIRE
 10
  3.1000
 20
  7.3000
 30
0.0
 0
SEQEND
 8
WIRE
 0
POLYLINE
 8
WIRE
 66
1
 10
0.0
 20
0.0
 30
0.0
 0
VERTEX
 8
WIRE
 10
  3.2000
 20
  7.1000
 30
0.0
 0
VERTEX
 8
WIRE
 10
  3.1000
 20
  7.0000
 30
0.0
 0
SEQEND
 8
WIRE
 0
POLYLINE
 8
WIRE
 66
1
 10
0.0
 20
0.0
 30
0.0
 0
VERTEX
 8
WIRE
 10
  3.2000
 20
  6.8000
 30
0.0
 0
VERTEX
 8
WIRE
 10
  3.1000
 20
  6.7000
 30
0.0
 0
SEQEND
 8
WIRE
 0
POLYLINE
 8
WIRE
 66
1
 10
0.0
 20
0.0
 30
0.0
 0
VERTEX
 8
WIRE
 10
  3.2000
 20
  6.5000
 30
0.0
 0
VERTEX
 8
WIRE
 10
  3.1000
 20
  6.4000
 30
0.0
 0
SEQEND
 8
WIRE
 0
POLYLINE
 8
WIRE
 66
1
 10
0.0
 20
0.0
 30
0.0
 0
VERTEX
 8
WIRE
 10
  3.2000
 20
  5.6000
 30
0.0
 0
VERTEX
 8
WIRE
 10
  3.1000
 20
  5.5000
 30
0.0
 0
SEQEND
 8
WIRE
 0
POLYLINE
 8
WIRE
 66
1
 10
0.0
 20
0.0
 30
0.0
 0
VERTEX
 8
WIRE
 10
  3.2000
 20
  5.3000
 30
0.0
 0
VERTEX
 8
WIRE
 10
  3.1000
 20
  5.2000
 30
0.0
 0
SEQEND
 8
WIRE
 0
POLYLINE
 8
WIRE
 66
1
 10
0.0
 20
0.0
 30
0.0
 0
VERTEX
 8
WIRE
 10
  3.2000
 20
  5.0000
 30
0.0
 0
VERTEX
 8
WIRE
 10
  3.1000
 20
  4.9000
 30
0.0
 0
SEQEND
 8
WIRE
 0
POLYLINE
 8
WIRE
 66
1
 10
0.0
 20
0.0
 30
0.0
 0
VERTEX
 8
WIRE
 10
  3.2000
 20
  4.7000
 30
0.0
 0
VERTEX
 8
WIRE
 10
  3.1000
 20
  4.6000
 30
0.0
 0
SEQEND
 8
WIRE
 0
POLYLINE
 8
WIRE
 66
1
 10
0.0
 20
0.0
 30
0.0
 0
VERTEX
 8
WIRE
 10
  3.2000
 20
  3.8000
 30
0.0
 0
VERTEX
 8
WIRE
 10
  3.1000
 20
  3.7000
 30
0.0
 0
SEQEND
 8
WIRE
 0
POLYLINE
 8
WIRE
 66
1
 10
0.0
 20
0.0
 30
0.0
 0
VERTEX
 8
WIRE
 10
  3.2000
 20
  3.5000
 30
0.0
 0
VERTEX
 8
WIRE
 10
  3.1000
 20
  3.4000
 30
0.0
 0
SEQEND
 8
WIRE
 0
POLYLINE
 8
WIRE
 66
1
 10
0.0
 20
0.0
 30
0.0
 0
VERTEX
 8
WIRE
 10
  3.2000
 20
  3.2000
 30
0.0
 0
VERTEX
 8
WIRE
 10
  3.1000
 20
  3.1000
 30
0.0
 0
SEQEND
 8
WIRE
 0
POLYLINE
 8
WIRE
 66
1
 10
0.0
 20
0.0
 30
0.0
 0
VERTEX
 8
WIRE
 10
  3.2000
 20
  2.9000
 30
0.0
 0
VERTEX
 8
WIRE
 10
  3.1000
 20
  2.8000
 30
0.0
 0
SEQEND
 8
WIRE
 0
POLYLINE
 8
WIRE
 66
1
 10
0.0
 20
0.0
 30
0.0
 0
VERTEX
 8
WIRE
 10
 14.8000
 20
  8.7000
 30
0.0
 0
VERTEX
 8
WIRE
 10
 14.7000
 20
  8.6000
 30
0.0
 0
SEQEND
 8
WIRE
 0
POLYLINE
 8
WIRE
 66
1
 10
0.0
 20
0.0
 30
0.0
 0
VERTEX
 8
WIRE
 10
 14.8000
 20
  8.6000
 30
0.0
 0
VERTEX
 8
WIRE
 10
 14.7000
 20
  8.5000
 30
0.0
 0
SEQEND
 8
WIRE
 0
POLYLINE
 8
WIRE
 66
1
 10
0.0
 20
0.0
 30
0.0
 0
VERTEX
 8
WIRE
 10
 14.8000
 20
  8.4000
 30
0.0
 0
VERTEX
 8
WIRE
 10
 14.7000
 20
  8.3000
 30
0.0
 0
SEQEND
 8
WIRE
 0
POLYLINE
 8
WIRE
 66
1
 10
0.0
 20
0.0
 30
0.0
 0
VERTEX
 8
WIRE
 10
 14.8000
 20
  8.3000
 30
0.0
 0
VERTEX
 8
WIRE
 10
 14.7000
 20
  8.2000
 30
0.0
 0
SEQEND
 8
WIRE
 0
POLYLINE
 8
WIRE
 66
1
 10
0.0
 20
0.0
 30
0.0
 0
VERTEX
 8
WIRE
 10
 14.8000
 20
  7.6000
 30
0.0
 0
VERTEX
 8
WIRE
 10
 14.7000
 20
  7.5000
 30
0.0
 0
SEQEND
 8
WIRE
 0
POLYLINE
 8
WIRE
 66
1
 10
0.0
 20
0.0
 30
0.0
 0
VERTEX
 8
WIRE
 10
 14.8000
 20
  7.5000
 30
0.0
 0
VERTEX
 8
WIRE
 10
 14.7000
 20
  7.4000
 30
0.0
 0
SEQEND
 8
WIRE
 0
POLYLINE
 8
WIRE
 66
1
 10
0.0
 20
0.0
 30
0.0
 0
VERTEX
 8
WIRE
 10
 14.8000
 20
  7.3000
 30
0.0
 0
VERTEX
 8
WIRE
 10
 14.7000
 20
  7.2000
 30
0.0
 0
SEQEND
 8
WIRE
 0
POLYLINE
 8
WIRE
 66
1
 10
0.0
 20
0.0
 30
0.0
 0
VERTEX
 8
WIRE
 10
 14.8000
 20
  7.2000
 30
0.0
 0
VERTEX
 8
WIRE
 10
 14.7000
 20
  7.1000
 30
0.0
 0
SEQEND
 8
WIRE
 0
POLYLINE
 8
WIRE
 66
1
 10
0.0
 20
0.0
 30
0.0
 0
VERTEX
 8
WIRE
 10
 14.8000
 20
  7.0000
 30
0.0
 0
VERTEX
 8
WIRE
 10
 14.7000
 20
  6.9000
 30
0.0
 0
SEQEND
 8
WIRE
 0
POLYLINE
 8
WIRE
 66
1
 10
0.0
 20
0.0
 30
0.0
 0
VERTEX
 8
WIRE
 10
 14.8000
 20
  6.9000
 30
0.0
 0
VERTEX
 8
WIRE
 10
 14.7000
 20
  6.8000
 30
0.0
 0
SEQEND
 8
WIRE
 0
POLYLINE
 8
WIRE
 66
1
 10
0.0
 20
0.0
 30
0.0
 0
VERTEX
 8
WIRE
 10
 14.8000
 20
  6.7000
 30
0.0
 0
VERTEX
 8
WIRE
 10
 14.7000
 20
  6.6000
 30
0.0
 0
SEQEND
 8
WIRE
 0
POLYLINE
 8
WIRE
 66
1
 10
0.0
 20
0.0
 30
0.0
 0
VERTEX
 8
WIRE
 10
 14.8000
 20
  6.6000
 30
0.0
 0
VERTEX
 8
WIRE
 10
 14.7000
 20
  6.5000
 30
0.0
 0
SEQEND
 8
WIRE
 0
POLYLINE
 8
WIRE
 66
1
 10
0.0
 20
0.0
 30
0.0
 0
VERTEX
 8
WIRE
 10
 14.8000
 20
  9.3000
 30
0.0
 0
VERTEX
 8
WIRE
 10
 14.7000
 20
  9.2000
 30
0.0
 0
SEQEND
 8
WIRE
 0
POLYLINE
 8
WIRE
 66
1
 10
0.0
 20
0.0
 30
0.0
 0
VERTEX
 8
WIRE
 10
 14.8000
 20
  9.2000
 30
0.0
 0
VERTEX
 8
WIRE
 10
 14.7000
 20
  9.1000
 30
0.0
 0
SEQEND
 8
WIRE
 0
POLYLINE
 8
WIRE
 66
1
 10
0.0
 20
0.0
 30
0.0
 0
VERTEX
 8
WIRE
 10
 14.8000
 20
  9.0000
 30
0.0
 0
VERTEX
 8
WIRE
 10
 14.7000
 20
  8.9000
 30
0.0
 0
SEQEND
 8
WIRE
 0
POLYLINE
 8
WIRE
 66
1
 10
0.0
 20
0.0
 30
0.0
 0
VERTEX
 8
WIRE
 10
 14.8000
 20
  8.9000
 30
0.0
 0
VERTEX
 8
WIRE
 10
 14.7000
 20
  8.8000
 30
0.0
 0
SEQEND
 8
WIRE
 0
POLYLINE
 8
WIRE
 66
1
 10
0.0
 20
0.0
 30
0.0
 0
VERTEX
 8
WIRE
 10
  0.3000
 20
  9.1000
 30
0.0
 0
VERTEX
 8
WIRE
 10
  0.2000
 20
  9.2000
 30
0.0
 0
SEQEND
 8
WIRE
 0
POLYLINE
 8
WIRE
 66
1
 10
0.0
 20
0.0
 30
0.0
 0
VERTEX
 8
WIRE
 10
  0.3000
 20
  9.0000
 30
0.0
 0
VERTEX
 8
WIRE
 10
  0.2000
 20
  9.1000
 30
0.0
 0
SEQEND
 8
WIRE
 0
POLYLINE
 8
WIRE
 66
1
 10
0.0
 20
0.0
 30
0.0
 0
VERTEX
 8
WIRE
 10
  0.3000
 20
  8.8000
 30
0.0
 0
VERTEX
 8
WIRE
 10
  0.2000
 20
  8.9000
 30
0.0
 0
SEQEND
 8
WIRE
 0
POLYLINE
 8
WIRE
 66
1
 10
0.0
 20
0.0
 30
0.0
 0
VERTEX
 8
WIRE
 10
  0.3000
 20
  8.7000
 30
0.0
 0
VERTEX
 8
WIRE
 10
  0.2000
 20
  8.8000
 30
0.0
 0
SEQEND
 8
WIRE
 0
POLYLINE
 8
WIRE
 66
1
 10
0.0
 20
0.0
 30
0.0
 0
VERTEX
 8
WIRE
 10
  0.3000
 20
  8.5000
 30
0.0
 0
VERTEX
 8
WIRE
 10
  0.2000
 20
  8.6000
 30
0.0
 0
SEQEND
 8
WIRE
 0
POLYLINE
 8
WIRE
 66
1
 10
0.0
 20
0.0
 30
0.0
 0
VERTEX
 8
WIRE
 10
  0.3000
 20
  8.4000
 30
0.0
 0
VERTEX
 8
WIRE
 10
  0.2000
 20
  8.5000
 30
0.0
 0
SEQEND
 8
WIRE
 0
POLYLINE
 8
WIRE
 66
1
 10
0.0
 20
0.0
 30
0.0
 0
VERTEX
 8
WIRE
 10
  0.3000
 20
  8.2000
 30
0.0
 0
VERTEX
 8
WIRE
 10
  0.2000
 20
  8.3000
 30
0.0
 0
SEQEND
 8
WIRE
 0
POLYLINE
 8
WIRE
 66
1
 10
0.0
 20
0.0
 30
0.0
 0
VERTEX
 8
WIRE
 10
  0.3000
 20
  8.1000
 30
0.0
 0
VERTEX
 8
WIRE
 10
  0.2000
 20
  8.2000
 30
0.0
 0
SEQEND
 8
WIRE
 0
POLYLINE
 8
WIRE
 66
1
 10
0.0
 20
0.0
 30
0.0
 0
VERTEX
 8
WIRE
 10
  0.3000
 20
  7.3000
 30
0.0
 0
VERTEX
 8
WIRE
 10
  0.2000
 20
  7.4000
 30
0.0
 0
SEQEND
 8
WIRE
 0
POLYLINE
 8
WIRE
 66
1
 10
0.0
 20
0.0
 30
0.0
 0
VERTEX
 8
WIRE
 10
  0.3000
 20
  7.2000
 30
0.0
 0
VERTEX
 8
WIRE
 10
  0.2000
 20
  7.3000
 30
0.0
 0
SEQEND
 8
WIRE
 0
POLYLINE
 8
WIRE
 66
1
 10
0.0
 20
0.0
 30
0.0
 0
VERTEX
 8
WIRE
 10
  0.3000
 20
  7.0000
 30
0.0
 0
VERTEX
 8
WIRE
 10
  0.2000
 20
  7.1000
 30
0.0
 0
SEQEND
 8
WIRE
 0
POLYLINE
 8
WIRE
 66
1
 10
0.0
 20
0.0
 30
0.0
 0
VERTEX
 8
WIRE
 10
  0.3000
 20
  6.9000
 30
0.0
 0
VERTEX
 8
WIRE
 10
  0.2000
 20
  7.0000
 30
0.0
 0
SEQEND
 8
WIRE
 0
POLYLINE
 8
WIRE
 66
1
 10
0.0
 20
0.0
 30
0.0
 0
VERTEX
 8
WIRE
 10
  0.3000
 20
  6.7000
 30
0.0
 0
VERTEX
 8
WIRE
 10
  0.2000
 20
  6.8000
 30
0.0
 0
SEQEND
 8
WIRE
 0
POLYLINE
 8
WIRE
 66
1
 10
0.0
 20
0.0
 30
0.0
 0
VERTEX
 8
WIRE
 10
  0.3000
 20
  6.6000
 30
0.0
 0
VERTEX
 8
WIRE
 10
  0.2000
 20
  6.7000
 30
0.0
 0
SEQEND
 8
WIRE
 0
POLYLINE
 8
WIRE
 66
1
 10
0.0
 20
0.0
 30
0.0
 0
VERTEX
 8
WIRE
 10
  0.3000
 20
  6.4000
 30
0.0
 0
VERTEX
 8
WIRE
 10
  0.2000
 20
  6.5000
 30
0.0
 0
SEQEND
 8
WIRE
 0
POLYLINE
 8
WIRE
 66
1
 10
0.0
 20
0.0
 30
0.0
 0
VERTEX
 8
WIRE
 10
  0.3000
 20
  6.3000
 30
0.0
 0
VERTEX
 8
WIRE
 10
  0.2000
 20
  6.4000
 30
0.0
 0
SEQEND
 8
WIRE
 0
POLYLINE
 8
WIRE
 66
1
 10
0.0
 20
0.0
 30
0.0
 0
VERTEX
 8
WIRE
 10
  0.3000
 20
  5.5000
 30
0.0
 0
VERTEX
 8
WIRE
 10
  0.2000
 20
  5.6000
 30
0.0
 0
SEQEND
 8
WIRE
 0
POLYLINE
 8
WIRE
 66
1
 10
0.0
 20
0.0
 30
0.0
 0
VERTEX
 8
WIRE
 10
  0.3000
 20
  5.4000
 30
0.0
 0
VERTEX
 8
WIRE
 10
  0.2000
 20
  5.5000
 30
0.0
 0
SEQEND
 8
WIRE
 0
POLYLINE
 8
WIRE
 66
1
 10
0.0
 20
0.0
 30
0.0
 0
VERTEX
 8
WIRE
 10
  0.3000
 20
  5.2000
 30
0.0
 0
VERTEX
 8
WIRE
 10
  0.2000
 20
  5.3000
 30
0.0
 0
SEQEND
 8
WIRE
 0
POLYLINE
 8
WIRE
 66
1
 10
0.0
 20
0.0
 30
0.0
 0
VERTEX
 8
WIRE
 10
  0.3000
 20
  5.1000
 30
0.0
 0
VERTEX
 8
WIRE
 10
  0.2000
 20
  5.2000
 30
0.0
 0
SEQEND
 8
WIRE
 0
POLYLINE
 8
WIRE
 66
1
 10
0.0
 20
0.0
 30
0.0
 0
VERTEX
 8
WIRE
 10
  0.3000
 20
  4.9000
 30
0.0
 0
VERTEX
 8
WIRE
 10
  0.2000
 20
  5.0000
 30
0.0
 0
SEQEND
 8
WIRE
 0
POLYLINE
 8
WIRE
 66
1
 10
0.0
 20
0.0
 30
0.0
 0
VERTEX
 8
WIRE
 10
  0.3000
 20
  4.8000
 30
0.0
 0
VERTEX
 8
WIRE
 10
  0.2000
 20
  4.9000
 30
0.0
 0
SEQEND
 8
WIRE
 0
POLYLINE
 8
WIRE
 66
1
 10
0.0
 20
0.0
 30
0.0
 0
VERTEX
 8
WIRE
 10
  0.3000
 20
  4.6000
 30
0.0
 0
VERTEX
 8
WIRE
 10
  0.2000
 20
  4.7000
 30
0.0
 0
SEQEND
 8
WIRE
 0
POLYLINE
 8
WIRE
 66
1
 10
0.0
 20
0.0
 30
0.0
 0
VERTEX
 8
WIRE
 10
  0.3000
 20
  4.5000
 30
0.0
 0
VERTEX
 8
WIRE
 10
  0.2000
 20
  4.6000
 30
0.0
 0
SEQEND
 8
WIRE
 0
POLYLINE
 8
WIRE
 66
1
 10
0.0
 20
0.0
 30
0.0
 0
VERTEX
 8
WIRE
 10
  0.3000
 20
  3.7000
 30
0.0
 0
VERTEX
 8
WIRE
 10
  0.2000
 20
  3.8000
 30
0.0
 0
SEQEND
 8
WIRE
 0
POLYLINE
 8
WIRE
 66
1
 10
0.0
 20
0.0
 30
0.0
 0
VERTEX
 8
WIRE
 10
  0.3000
 20
  3.6000
 30
0.0
 0
VERTEX
 8
WIRE
 10
  0.2000
 20
  3.7000
 30
0.0
 0
SEQEND
 8
WIRE
 0
POLYLINE
 8
WIRE
 66
1
 10
0.0
 20
0.0
 30
0.0
 0
VERTEX
 8
WIRE
 10
  0.3000
 20
  3.4000
 30
0.0
 0
VERTEX
 8
WIRE
 10
  0.2000
 20
  3.5000
 30
0.0
 0
SEQEND
 8
WIRE
 0
POLYLINE
 8
WIRE
 66
1
 10
0.0
 20
0.0
 30
0.0
 0
VERTEX
 8
WIRE
 10
  0.3000
 20
  3.3000
 30
0.0
 0
VERTEX
 8
WIRE
 10
  0.2000
 20
  3.4000
 30
0.0
 0
SEQEND
 8
WIRE
 0
POLYLINE
 8
WIRE
 66
1
 10
0.0
 20
0.0
 30
0.0
 0
VERTEX
 8
WIRE
 10
  0.3000
 20
  3.1000
 30
0.0
 0
VERTEX
 8
WIRE
 10
  0.2000
 20
  3.2000
 30
0.0
 0
SEQEND
 8
WIRE
 0
POLYLINE
 8
WIRE
 66
1
 10
0.0
 20
0.0
 30
0.0
 0
VERTEX
 8
WIRE
 10
  0.3000
 20
  3.0000
 30
0.0
 0
VERTEX
 8
WIRE
 10
  0.2000
 20
  3.1000
 30
0.0
 0
SEQEND
 8
WIRE
 0
POLYLINE
 8
WIRE
 66
1
 10
0.0
 20
0.0
 30
0.0
 0
VERTEX
 8
WIRE
 10
  0.3000
 20
  2.8000
 30
0.0
 0
VERTEX
 8
WIRE
 10
  0.2000
 20
  2.9000
 30
0.0
 0
SEQEND
 8
WIRE
 0
POLYLINE
 8
WIRE
 66
1
 10
0.0
 20
0.0
 30
0.0
 0
VERTEX
 8
WIRE
 10
  0.3000
 20
  2.7000
 30
0.0
 0
VERTEX
 8
WIRE
 10
  0.2000
 20
  2.8000
 30
0.0
 0
SEQEND
 8
WIRE
 0
POLYLINE
 8
WIRE
 66
1
 10
0.0
 20
0.0
 30
0.0
 0
VERTEX
 8
WIRE
 10
  0.3000
 20
  1.9000
 30
0.0
 0
VERTEX
 8
WIRE
 10
  0.2000
 20
  2.0000
 30
0.0
 0
SEQEND
 8
WIRE
 0
POLYLINE
 8
WIRE
 66
1
 10
0.0
 20
0.0
 30
0.0
 0
VERTEX
 8
WIRE
 10
  0.3000
 20
  1.8000
 30
0.0
 0
VERTEX
 8
WIRE
 10
  0.2000
 20
  1.9000
 30
0.0
 0
SEQEND
 8
WIRE
 0
POLYLINE
 8
WIRE
 66
1
 10
0.0
 20
0.0
 30
0.0
 0
VERTEX
 8
WIRE
 10
  5.6000
 20
  9.1000
 30
0.0
 0
VERTEX
 8
WIRE
 10
  5.5000
 20
  9.2000
 30
0.0
 0
SEQEND
 8
WIRE
 0
POLYLINE
 8
WIRE
 66
1
 10
0.0
 20
0.0
 30
0.0
 0
VERTEX
 8
WIRE
 10
  5.6000
 20
  9.0000
 30
0.0
 0
VERTEX
 8
WIRE
 10
  5.5000
 20
  9.1000
 30
0.0
 0
SEQEND
 8
WIRE
 0
POLYLINE
 8
WIRE
 66
1
 10
0.0
 20
0.0
 30
0.0
 0
VERTEX
 8
WIRE
 10
  5.6000
 20
  8.9000
 30
0.0
 0
VERTEX
 8
WIRE
 10
  5.5000
 20
  9.0000
 30
0.0
 0
SEQEND
 8
WIRE
 0
POLYLINE
 8
WIRE
 66
1
 10
0.0
 20
0.0
 30
0.0
 0
VERTEX
 8
WIRE
 10
  5.6000
 20
  8.8000
 30
0.0
 0
VERTEX
 8
WIRE
 10
  5.5000
 20
  8.9000
 30
0.0
 0
SEQEND
 8
WIRE
 0
POLYLINE
 8
WIRE
 66
1
 10
0.0
 20
0.0
 30
0.0
 0
VERTEX
 8
WIRE
 10
  5.6000
 20
  8.7000
 30
0.0
 0
VERTEX
 8
WIRE
 10
  5.5000
 20
  8.8000
 30
0.0
 0
SEQEND
 8
WIRE
 0
POLYLINE
 8
WIRE
 66
1
 10
0.0
 20
0.0
 30
0.0
 0
VERTEX
 8
WIRE
 10
  5.6000
 20
  8.6000
 30
0.0
 0
VERTEX
 8
WIRE
 10
  5.5000
 20
  8.7000
 30
0.0
 0
SEQEND
 8
WIRE
 0
POLYLINE
 8
WIRE
 66
1
 10
0.0
 20
0.0
 30
0.0
 0
VERTEX
 8
WIRE
 10
  5.6000
 20
  8.5000
 30
0.0
 0
VERTEX
 8
WIRE
 10
  5.5000
 20
  8.6000
 30
0.0
 0
SEQEND
 8
WIRE
 0
POLYLINE
 8
WIRE
 66
1
 10
0.0
 20
0.0
 30
0.0
 0
VERTEX
 8
WIRE
 10
  5.6000
 20
  8.4000
 30
0.0
 0
VERTEX
 8
WIRE
 10
  5.5000
 20
  8.5000
 30
0.0
 0
SEQEND
 8
WIRE
 0
POLYLINE
 8
WIRE
 66
1
 10
0.0
 20
0.0
 30
0.0
 0
VERTEX
 8
WIRE
 10
  5.6000
 20
  7.5000
 30
0.0
 0
VERTEX
 8
WIRE
 10
  5.5000
 20
  7.6000
 30
0.0
 0
SEQEND
 8
WIRE
 0
POLYLINE
 8
WIRE
 66
1
 10
0.0
 20
0.0
 30
0.0
 0
VERTEX
 8
WIRE
 10
  5.6000
 20
  7.6000
 30
0.0
 0
VERTEX
 8
WIRE
 10
  5.5000
 20
  7.7000
 30
0.0
 0
SEQEND
 8
WIRE
 0
POLYLINE
 8
WIRE
 66
1
 10
0.0
 20
0.0
 30
0.0
 0
VERTEX
 8
WIRE
 10
  5.6000
 20
  7.7000
 30
0.0
 0
VERTEX
 8
WIRE
 10
  5.5000
 20
  7.8000
 30
0.0
 0
SEQEND
 8
WIRE
 0
POLYLINE
 8
WIRE
 66
1
 10
0.0
 20
0.0
 30
0.0
 0
VERTEX
 8
WIRE
 10
  5.7000
 20
  5.9000
 30
0.0
 0
VERTEX
 8
WIRE
 10
  5.6000
 20
  6.0000
 30
0.0
 0
SEQEND
 8
WIRE
 0
POLYLINE
 8
WIRE
 66
1
 10
0.0
 20
0.0
 30
0.0
 0
VERTEX
 8
WIRE
 10
  5.7000
 20
  5.6000
 30
0.0
 0
VERTEX
 8
WIRE
 10
  5.6000
 20
  5.7000
 30
0.0
 0
SEQEND
 8
WIRE
 0
POLYLINE
 8
WIRE
 66
1
 10
0.0
 20
0.0
 30
0.0
 0
VERTEX
 8
WIRE
 10
  5.7000
 20
  5.8000
 30
0.0
 0
VERTEX
 8
WIRE
 10
  5.6000
 20
  5.9000
 30
0.0
 0
SEQEND
 8
WIRE
 0
POLYLINE
 8
WIRE
 66
1
 10
0.0
 20
0.0
 30
0.0
 0
VERTEX
 8
WIRE
 10
  5.7000
 20
  5.7000
 30
0.0
 0
VERTEX
 8
WIRE
 10
  5.6000
 20
  5.8000
 30
0.0
 0
SEQEND
 8
WIRE
 0
POLYLINE
 8
WIRE
 66
1
 10
0.0
 20
0.0
 30
0.0
 0
VERTEX
 8
WIRE
 10
  5.7000
 20
  5.5000
 30
0.0
 0
VERTEX
 8
WIRE
 10
  5.6000
 20
  5.6000
 30
0.0
 0
SEQEND
 8
WIRE
 0
POLYLINE
 8
WIRE
 66
1
 10
0.0
 20
0.0
 30
0.0
 0
VERTEX
 8
WIRE
 10
  8.7000
 20
  9.2000
 30
0.0
 0
VERTEX
 8
WIRE
 10
  8.6000
 20
  9.3000
 30
0.0
 0
SEQEND
 8
WIRE
 0
POLYLINE
 8
WIRE
 66
1
 10
0.0
 20
0.0
 30
0.0
 0
VERTEX
 8
WIRE
 10
  8.7000
 20
  9.1000
 30
0.0
 0
VERTEX
 8
WIRE
 10
  8.6000
 20
  9.2000
 30
0.0
 0
SEQEND
 8
WIRE
 0
POLYLINE
 8
WIRE
 66
1
 10
0.0
 20
0.0
 30
0.0
 0
VERTEX
 8
WIRE
 10
  8.7000
 20
  9.0000
 30
0.0
 0
VERTEX
 8
WIRE
 10
  8.6000
 20
  9.1000
 30
0.0
 0
SEQEND
 8
WIRE
 0
POLYLINE
 8
WIRE
 66
1
 10
0.0
 20
0.0
 30
0.0
 0
VERTEX
 8
WIRE
 10
  8.7000
 20
  8.9000
 30
0.0
 0
VERTEX
 8
WIRE
 10
  8.6000
 20
  9.0000
 30
0.0
 0
SEQEND
 8
WIRE
 0
POLYLINE
 8
WIRE
 66
1
 10
0.0
 20
0.0
 30
0.0
 0
VERTEX
 8
WIRE
 10
  8.7000
 20
  8.8000
 30
0.0
 0
VERTEX
 8
WIRE
 10
  8.6000
 20
  8.9000
 30
0.0
 0
SEQEND
 8
WIRE
 0
POLYLINE
 8
WIRE
 66
1
 10
0.0
 20
0.0
 30
0.0
 0
VERTEX
 8
WIRE
 10
  8.7000
 20
  8.7000
 30
0.0
 0
VERTEX
 8
WIRE
 10
  8.6000
 20
  8.8000
 30
0.0
 0
SEQEND
 8
WIRE
 0
POLYLINE
 8
WIRE
 66
1
 10
0.0
 20
0.0
 30
0.0
 0
VERTEX
 8
WIRE
 10
  8.7000
 20
  8.6000
 30
0.0
 0
VERTEX
 8
WIRE
 10
  8.6000
 20
  8.7000
 30
0.0
 0
SEQEND
 8
WIRE
 0
POLYLINE
 8
WIRE
 66
1
 10
0.0
 20
0.0
 30
0.0
 0
VERTEX
 8
WIRE
 10
  8.7000
 20
  8.5000
 30
0.0
 0
VERTEX
 8
WIRE
 10
  8.6000
 20
  8.6000
 30
0.0
 0
SEQEND
 8
WIRE
 0
POLYLINE
 8
WIRE
 66
1
 10
0.0
 20
0.0
 30
0.0
 0
VERTEX
 8
WIRE
 10
  8.7000
 20
  7.5000
 30
0.0
 0
VERTEX
 8
WIRE
 10
  8.6000
 20
  7.6000
 30
0.0
 0
SEQEND
 8
WIRE
 0
POLYLINE
 8
WIRE
 66
1
 10
0.0
 20
0.0
 30
0.0
 0
VERTEX
 8
WIRE
 10
  8.7000
 20
  7.6000
 30
0.0
 0
VERTEX
 8
WIRE
 10
  8.6000
 20
  7.7000
 30
0.0
 0
SEQEND
 8
WIRE
 0
POLYLINE
 8
WIRE
 66
1
 10
0.0
 20
0.0
 30
0.0
 0
VERTEX
 8
WIRE
 10
  8.7000
 20
  7.7000
 30
0.0
 0
VERTEX
 8
WIRE
 10
  8.6000
 20
  7.8000
 30
0.0
 0
SEQEND
 8
WIRE
 0
TEXT
 8
COMMENTS
 10
 13.0000
 20
  3.1186
 30
0.0
 40
  0.0514
 1
4
 0
TEXT
 8
COMMENTS
 10
 13.4000
 20
  3.1186
 30
0.0
 40
  0.0514
 1
13
 0
TEXT
 8
COMMENTS
 10
 10.1000
 20
  5.8186
 30
0.0
 40
  0.0514
 1
PU
 0
ENDSEC
 0
EOF
